  0
SECTION
  2
HEADER
  9
$ACADVER
  1
AC1009
  9
$INSBASE
 10
0.0
 20
0.0
 30
0.0
  9
$EXTMIN
 10
-390.21280206415412
 20
834.65667183693085
 30
0.0
  9
$EXTMAX
 10
-382.84526111473491
 20
843.05086629103664
 30
0.0
  9
$LIMMIN
 10
0.0
 20
0.0
  9
$LIMMAX
 10
1500.0
 20
1500.0
  9
$ORTHOMODE
 70
     0
  9
$REGENMODE
 70
     1
  9
$FILLMODE
 70
     1
  9
$QTEXTMODE
 70
     0
  9
$MIRRTEXT
 70
     1
  9
$DRAGMODE
 70
     2
  9
$LTSCALE
 40
1.0
  9
$OSMODE
 70
    37
  9
$ATTMODE
 70
     1
  9
$TEXTSIZE
 40
1.5
  9
$TRACEWID
 40
0.05
  9
$TEXTSTYLE
  7
STANDARD
  9
$CLAYER
  8
0
  9
$CELTYPE
  6
BYLAYER
  9
$CECOLOR
 62
   256
  9
$DIMSCALE
 40
1.0
  9
$DIMASZ
 40
0.75
  9
$DIMEXO
 40
1.5
  9
$DIMDLI
 40
2.0
  9
$DIMRND
 40
0.0
  9
$DIMDLE
 40
0.0
  9
$DIMEXE
 40
1.0
  9
$DIMTP
 40
0.0
  9
$DIMTM
 40
0.0
  9
$DIMTXT
 40
1.5
  9
$DIMCEN
 40
2.0
  9
$DIMTSZ
 40
0.0
  9
$DIMTOL
 70
     0
  9
$DIMLIM
 70
     0
  9
$DIMTIH
 70
     0
  9
$DIMTOH
 70
     0
  9
$DIMSE1
 70
     0
  9
$DIMSE2
 70
     0
  9
$DIMTAD
 70
     1
  9
$DIMZIN
 70
     0
  9
$DIMBLK
  1
ARCHTICK
  9
$DIMASO
 70
     1
  9
$DIMSHO
 70
     1
  9
$DIMPOST
  1
"
  9
$DIMAPOST
  1

  9
$DIMALT
 70
     0
  9
$DIMALTD
 70
     2
  9
$DIMALTF
 40
25.399999999999999
  9
$DIMLFAC
 40
1.0
  9
$DIMTOFL
 70
     0
  9
$DIMTVP
 40
0.0
  9
$DIMTIX
 70
     1
  9
$DIMSOXD
 70
     0
  9
$DIMSAH
 70
     0
  9
$DIMBLK1
  1

  9
$DIMBLK2
  1

  9
$DIMSTYLE
  2
THREE_QUARTER_INCH_SCALE
  9
$DIMCLRD
 70
     0
  9
$DIMCLRE
 70
     0
  9
$DIMCLRT
 70
     0
  9
$DIMTFAC
 40
1.0
  9
$DIMGAP
 40
1.0
  9
$LUNITS
 70
     2
  9
$LUPREC
 70
     4
  9
$SKETCHINC
 40
0.1
  9
$FILLETRAD
 40
0.0
  9
$AUNITS
 70
     0
  9
$AUPREC
 70
     0
  9
$MENU
  1
.
  9
$ELEVATION
 40
0.0
  9
$PELEVATION
 40
0.0
  9
$THICKNESS
 40
0.0
  9
$LIMCHECK
 70
     0
  9
$BLIPMODE
 70
     0
  9
$CHAMFERA
 40
0.5
  9
$CHAMFERB
 40
0.5
  9
$SKPOLY
 70
     0
  9
$TDCREATE
 40
2452089.395738773
  9
$TDUPDATE
 40
2453612.4034986231
  9
$TDINDWG
 40
1.0848695022999999
  9
$TDUSRTIMER
 40
1.0848691435
  9
$USRTIMER
 70
     1
  9
$ANGBASE
 50
0.0
  9
$ANGDIR
 70
     0
  9
$PDMODE
 70
     0
  9
$PDSIZE
 40
10.0
  9
$PLINEWID
 40
0.0
  9
$COORDS
 70
     1
  9
$SPLFRAME
 70
     0
  9
$SPLINETYPE
 70
     6
  9
$SPLINESEGS
 70
     8
  9
$ATTDIA
 70
     0
  9
$ATTREQ
 70
     1
  9
$HANDLING
 70
     1
  9
$HANDSEED
  5
15233
  9
$SURFTAB1
 70
     6
  9
$SURFTAB2
 70
     6
  9
$SURFTYPE
 70
     6
  9
$SURFU
 70
     6
  9
$SURFV
 70
     6
  9
$UCSNAME
  2

  9
$UCSORG
 10
0.0
 20
0.0
 30
0.0
  9
$UCSXDIR
 10
1.0
 20
0.0
 30
0.0
  9
$UCSYDIR
 10
0.0
 20
1.0
 30
0.0
  9
$PUCSNAME
  2

  9
$PUCSORG
 10
0.0
 20
0.0
 30
0.0
  9
$PUCSXDIR
 10
1.0
 20
0.0
 30
0.0
  9
$PUCSYDIR
 10
0.0
 20
1.0
 30
0.0
  9
$USERI1
 70
     0
  9
$USERI2
 70
     0
  9
$USERI3
 70
     0
  9
$USERI4
 70
     0
  9
$USERI5
 70
     0
  9
$USERR1
 40
0.0
  9
$USERR2
 40
0.0
  9
$USERR3
 40
0.0
  9
$USERR4
 40
0.0
  9
$USERR5
 40
0.0
  9
$WORLDVIEW
 70
     1
  9
$SHADEDGE
 70
     3
  9
$SHADEDIF
 70
    70
  9
$TILEMODE
 70
     0
  9
$MAXACTVP
 70
    64
  9
$PLIMCHECK
 70
     0
  9
$PEXTMIN
 10
0.0282895744820628
 20
0.0759353784799721
 30
-0.0015258207003583
  9
$PEXTMAX
 10
10.47170975585299
 20
7.9577863512286546
 30
0.0000000349246037
  9
$PLIMMIN
 10
-0.1682389550263349
 20
-0.2033427855578579
  9
$PLIMMAX
 10
10.754640548407011
 20
8.2370640492290015
  9
$UNITMODE
 70
     0
  9
$VISRETAIN
 70
     1
  9
$PLINEGEN
 70
     0
  9
$PSLTSCALE
 70
     1
  0
ENDSEC
  0
SECTION
  2
TABLES
  0
TABLE
  2
VPORT
 70
     1
  0
VPORT
  2
*ACTIVE
 70
     0
 10
0.0
 20
0.0
 11
1.0
 21
1.0
 12
-386.52380251144001
 22
838.09204166179234
 13
0.0
 23
0.0
 14
0.5
 24
0.5
 15
0.5
 25
0.5
 16
0.0
 26
0.0
 36
1.0
 17
0.0
 27
0.0
 37
0.0
 40
3.930952126162941
 41
2.0226628895184122
 42
50.0
 43
0.0
 44
0.0
 50
0.0
 51
0.0
 71
     0
 72
   100
 73
     1
 74
     2
 75
     0
 76
     0
 77
     0
 78
     0
  0
ENDTAB
  0
TABLE
  2
LTYPE
 70
     1
  0
LTYPE
  2
CONTINUOUS
 70
     0
  3
Solid line
 72
    65
 73
     0
 40
0.0
  0
ENDTAB
  0
TABLE
  2
LAYER
 70
    10
  0
LAYER
  2
0
 70
     0
 62
     7
  6
CONTINUOUS
  0
LAYER
  2
DEFPOINTS
 70
     0
 62
     7
  6
CONTINUOUS
  0
LAYER
  2
FRAME_200
 70
     0
 62
     8
  6
CONTINUOUS
  0
LAYER
  2
FRAME_070
 70
     0
 62
     5
  6
CONTINUOUS
  0
LAYER
  2
FRAME_050
 70
     0
 62
     6
  6
CONTINUOUS
  0
LAYER
  2
TITLE_BLOCK
 70
     0
 62
     7
  6
CONTINUOUS
  0
LAYER
  2
FRAME_025
 70
     0
 62
     7
  6
CONTINUOUS
  0
LAYER
  2
VIEWPORT
 70
     0
 62
     7
  6
CONTINUOUS
  0
LAYER
  2
PROF
 70
     0
 62
     7
  6
CONTINUOUS
  0
LAYER
  2
PROFILE
 70
     0
 62
     7
  6
CONTINUOUS
  0
ENDTAB
  0
TABLE
  2
STYLE
 70
     2
  0
STYLE
  2
STANDARD
 70
     0
 40
0.0
 41
1.0
 50
0.0
 71
     0
 42
1.5
  3
txt
  4

  0
STYLE
  2
ISO_PROPORTIONAL
 70
     0
 40
0.0
 41
1.0
 50
0.0
 71
     0
 42
2.5
  3
isocp.shx
  4

  0
ENDTAB
  0
TABLE
  2
VIEW
 70
     0
  0
ENDTAB
  0
TABLE
  2
UCS
 70
     0
  0
ENDTAB
  0
TABLE
  2
APPID
 70
     6
  0
APPID
  2
ACAD
 70
     0
  0
APPID
  2
DCO15
 70
     0
  0
APPID
  2
ACAD_EXEMPT_FROM_CAD_STANDARDS
 70
     0
  0
APPID
  2
ACAD_PSEXT
 70
     0
  0
APPID
  2
CONTENTBLOCKDESCRIPTION
 70
     0
  0
APPID
  2
CONTENTBLOCKICON
 70
     0
  0
ENDTAB
  0
TABLE
  2
DIMSTYLE
 70
    10
  0
DIMSTYLE
  2
FULL_SCALE
 70
     0
  3
"
  4

  5

  6

  7

 40
1.0
 41
0.046875
 42
0.09375
 43
0.125
 44
0.0625
 45
0.0
 46
0.0
 47
0.0
 48
0.0
140
0.125
141
0.125
142
0.0
143
25.399999999999999
144
1.0
145
0.0
146
1.0
147
0.0625
 71
     0
 72
     0
 73
     0
 74
     0
 75
     0
 76
     0
 77
     1
 78
     0
170
     0
171
     2
172
     0
173
     0
174
     1
175
     0
176
     0
177
     0
178
     0
  0
DIMSTYLE
  2
HALF_SCALE
 70
     0
  3
"
  4

  5

  6

  7

 40
1.0
 41
0.09375
 42
0.1875
 43
0.25
 44
0.125
 45
0.0
 46
0.0
 47
0.0
 48
0.0
140
0.25
141
0.25
142
0.0
143
25.399999999999999
144
1.0
145
0.0
146
1.0
147
0.125
 71
     0
 72
     0
 73
     0
 74
     0
 75
     0
 76
     0
 77
     1
 78
     0
170
     0
171
     2
172
     0
173
     0
174
     1
175
     0
176
     0
177
     0
178
     0
  0
DIMSTYLE
  2
INCH_SCALE
 70
     0
  3
"
  4

  5

  6

  7

 40
1.0
 41
0.5625
 42
1.125
 43
1.5
 44
0.75
 45
0.0
 46
0.0
 47
0.0
 48
0.0
140
1.125
141
1.5
142
0.0
143
25.399999999999999
144
1.0
145
0.0
146
1.0
147
0.75
 71
     0
 72
     0
 73
     0
 74
     0
 75
     0
 76
     0
 77
     1
 78
     0
170
     0
171
     2
172
     0
173
     0
174
     1
175
     0
176
     0
177
     0
178
     0
  0
DIMSTYLE
  2
THREE_QUARTER_INCH_SCALE
 70
     0
  3
"
  4

  5

  6

  7

 40
1.0
 41
0.75
 42
1.5
 43
2.0
 44
1.0
 45
0.0
 46
0.0
 47
0.0
 48
0.0
140
1.5
141
2.0
142
0.0
143
25.399999999999999
144
1.0
145
0.0
146
1.0
147
1.0
 71
     0
 72
     0
 73
     0
 74
     0
 75
     0
 76
     0
 77
     1
 78
     0
170
     0
171
     2
172
     0
173
     0
174
     1
175
     0
176
     0
177
     0
178
     0
  0
DIMSTYLE
  2
ZHALF_INCH_SCALE
 70
     0
  3
"
  4

  5

  6

  7

 40
1.0
 41
1.125
 42
2.25
 43
3.0
 44
1.5
 45
0.0
 46
0.0
 47
0.0
 48
0.0
140
2.25
141
3.0
142
0.0
143
25.399999999999999
144
1.0
145
0.0
146
1.0
147
1.5
 71
     0
 72
     0
 73
     0
 74
     0
 75
     0
 76
     0
 77
     1
 78
     0
170
     0
171
     2
172
     0
173
     0
174
     1
175
     0
176
     0
177
     0
178
     0
  0
DIMSTYLE
  2
FULL_SCALE0
 70
     0
  3
"
  4

  5
ARCHTICK
  6

  7

 40
1.0
 41
0.046875
 42
0.09375
 43
0.125
 44
0.0625
 45
0.0
 46
0.0
 47
0.0
 48
0.0
140
0.125
141
0.125
142
0.0
143
25.399999999999999
144
1.0
145
0.0
146
1.0
147
0.0625
 71
     0
 72
     0
 73
     0
 74
     0
 75
     0
 76
     0
 77
     1
 78
     0
170
     0
171
     2
172
     0
173
     0
174
     1
175
     0
176
     0
177
     0
178
     0
  0
DIMSTYLE
  2
HALF_SCALE0
 70
     0
  3
"
  4

  5
ARCHTICK
  6

  7

 40
1.0
 41
0.09375
 42
0.1875
 43
0.25
 44
0.125
 45
0.0
 46
0.0
 47
0.0
 48
0.0
140
0.25
141
0.25
142
0.0
143
25.399999999999999
144
1.0
145
0.0
146
1.0
147
0.125
 71
     0
 72
     0
 73
     0
 74
     0
 75
     0
 76
     0
 77
     1
 78
     0
170
     0
171
     2
172
     0
173
     0
174
     1
175
     0
176
     0
177
     0
178
     0
  0
DIMSTYLE
  2
INCH_SCALE0
 70
     0
  3
"
  4

  5
ARCHTICK
  6

  7

 40
1.0
 41
0.5625
 42
1.125
 43
1.5
 44
0.75
 45
0.0
 46
0.0
 47
0.0
 48
0.0
140
1.125
141
1.5
142
0.0
143
25.399999999999999
144
1.0
145
0.0
146
1.0
147
0.75
 71
     0
 72
     0
 73
     0
 74
     0
 75
     0
 76
     0
 77
     1
 78
     0
170
     0
171
     2
172
     0
173
     0
174
     1
175
     0
176
     0
177
     0
178
     0
  0
DIMSTYLE
  2
THREE_QUARTER_INCH_SCALE0
 70
     0
  3
"
  4

  5
ARCHTICK
  6

  7

 40
1.0
 41
0.75
 42
1.5
 43
2.0
 44
1.0
 45
0.0
 46
0.0
 47
0.0
 48
0.0
140
1.5
141
2.0
142
0.0
143
25.399999999999999
144
1.0
145
0.0
146
1.0
147
1.0
 71
     0
 72
     0
 73
     0
 74
     0
 75
     0
 76
     0
 77
     1
 78
     0
170
     0
171
     2
172
     0
173
     0
174
     1
175
     0
176
     0
177
     0
178
     0
  0
DIMSTYLE
  2
ZHALF_INCH_SCALE0
 70
     0
  3
"
  4

  5
ARCHTICK
  6

  7

 40
1.0
 41
1.125
 42
2.25
 43
3.0
 44
1.5
 45
0.0
 46
0.0
 47
0.0
 48
0.0
140
2.25
141
3.0
142
0.0
143
25.399999999999999
144
1.0
145
0.0
146
1.0
147
1.5
 71
     0
 72
     0
 73
     0
 74
     0
 75
     0
 76
     0
 77
     1
 78
     0
170
     0
171
     2
172
     0
173
     0
174
     1
175
     0
176
     0
177
     0
178
     0
  0
ENDTAB
  0
ENDSEC
  0
SECTION
  2
BLOCKS
  0
BLOCK
  8
0
  2
$MODEL_SPACE
 70
     0
 10
0.0
 20
0.0
 30
0.0
  3
$MODEL_SPACE
  1

  0
ENDBLK
  5
C9DC
  8
0
  0
BLOCK
 67
     1
  8
0
  2
$PAPER_SPACE
 70
     0
 10
0.0
 20
0.0
 30
0.0
  3
$PAPER_SPACE
  1

  0
ENDBLK
  5
C9D8
 67
     1
  8
0
  0
BLOCK
  8
0
  2
_ARCHTICK
 70
     0
 10
0.0
 20
0.0
 30
0.0
  3
_ARCHTICK
  1

  0
POLYLINE
  5
158
  8
0
  6
BYBLOCK
 62
     0
 66
     1
 10
0.0
 20
0.0
 30
0.0
 40
0.15
 41
0.15
  0
VERTEX
  5
14E64
  8
0
  6
BYBLOCK
 62
     0
 10
-0.5
 20
-0.5
 30
0.0
  0
VERTEX
  5
14E65
  8
0
  6
BYBLOCK
 62
     0
 10
0.5
 20
0.5
 30
0.0
  0
SEQEND
  5
14E66
  8
0
  6
BYBLOCK
 62
     0
  0
ENDBLK
  5
15A
  8
0
  0
BLOCK
  8
0
  2
_OPEN30
 70
     0
 10
0.0
 20
0.0
 30
0.0
  3
_OPEN30
  1

  0
LINE
  5
15C
  8
0
  6
BYBLOCK
 62
     0
 10
-1.0
 20
0.26794919
 30
0.0
 11
0.0
 21
0.0
 31
0.0
  0
LINE
  5
15D
  8
0
  6
BYBLOCK
 62
     0
 10
0.0
 20
0.0
 30
0.0
 11
-1.0
 21
-0.26794919
 31
0.0
  0
LINE
  5
15E
  8
0
  6
BYBLOCK
 62
     0
 10
0.0
 20
0.0
 30
0.0
 11
-1.0
 21
0.0
 31
0.0
  0
ENDBLK
  5
160
  8
0
  0
BLOCK
  8
0
  2
ISO_A2_TITLE_BLOCK
 70
     2
 10
0.0
 20
0.0
 30
0.0
  3
ISO_A2_TITLE_BLOCK
  1

  0
LINE
  5
BDD
  8
FRAME_050
 10
299.5
 20
12.5
 30
0.0
 11
297.0
 21
7.5
 31
0.0
  0
LINE
  5
BDE
  8
FRAME_050
 10
294.5
 20
12.5
 30
0.0
 11
299.5
 21
12.5
 31
0.0
  0
LINE
  5
BDF
  8
FRAME_050
 10
247.0
 20
5.0
 30
0.0
 11
347.0
 21
5.0
 31
0.0
  0
LINE
  5
BE0
  8
FRAME_070
 10
584.0
 20
410.0
 30
0.0
 11
10.0
 21
410.0
 31
0.0
  0
LINE
  5
BE1
  8
FRAME_070
 10
10.0
 20
10.0
 30
0.0
 11
584.0
 21
10.0
 31
0.0
  0
LINE
  5
BE2
  8
FRAME_050
 10
12.5
 20
207.5
 30
0.0
 11
7.5
 21
210.0
 31
0.0
  0
LINE
  5
BE3
  8
FRAME_050
 10
12.5
 20
212.5
 30
0.0
 11
12.5
 21
207.5
 31
0.0
  0
LINE
  5
BE4
  8
FRAME_070
 10
10.0
 20
410.0
 30
0.0
 11
10.0
 21
10.0
 31
0.0
  0
LINE
  5
BE5
  8
FRAME_200
 10
0.0
 20
0.0
 30
0.0
 11
0.0
 21
10.0
 31
0.0
  0
LINE
  5
BE6
  8
FRAME_200
 10
0.0
 20
0.0
 30
0.0
 11
10.0
 21
0.0
 31
0.0
  0
TEXT
  5
BE7
  8
FRAME_050
 10
5.9000000000000004
 20
35.0
 30
0.0
 40
4.0
  1
H
  7
ISO_PROPORTIONAL
 72
     4
 11
7.5
 21
37.0
 31
0.0
  0
LINE
  5
BE8
  8
FRAME_050
 10
10.0
 20
60.0
 30
0.0
 11
5.0
 21
60.0
 31
0.0
  0
LINE
  5
BE9
  8
FRAME_050
 10
81.75
 20
5.0
 30
0.0
 11
81.75
 21
10.0
 31
0.0
  0
TEXT
  5
BEA
  8
FRAME_050
 10
44.874999999999993
 20
5.5
 30
0.0
 40
4.0
  1
1
  7
ISO_PROPORTIONAL
 72
     4
 11
45.875
 21
7.5
 31
0.0
  0
TEXT
  5
BEB
  8
FRAME_050
 10
6.0035533905932743
 20
85.0
 30
0.0
 40
4.0
  1
G
  7
ISO_PROPORTIONAL
 72
     4
 11
7.5
 21
87.0
 31
0.0
  0
LINE
  5
BEC
  8
FRAME_050
 10
10.0
 20
110.0
 30
0.0
 11
5.0
 21
110.0
 31
0.0
  0
TEXT
  5
BED
  8
FRAME_050
 10
6.0999999999999988
 20
135.0
 30
0.0
 40
4.0
  1
F
  7
ISO_PROPORTIONAL
 72
     4
 11
7.5
 21
137.0
 31
0.0
  0
LINE
  5
BEE
  8
FRAME_050
 10
10.0
 20
160.0
 30
0.0
 11
5.0
 21
160.0
 31
0.0
  0
TEXT
  5
BEF
  8
FRAME_050
 10
6.0999999999999988
 20
185.0
 30
0.0
 40
4.0
  1
E
  7
ISO_PROPORTIONAL
 72
     4
 11
7.5
 21
187.0
 31
0.0
  0
LINE
  5
BF0
  8
FRAME_050
 10
153.5
 20
5.0
 30
0.0
 11
153.5
 21
10.0
 31
0.0
  0
TEXT
  5
BF1
  8
FRAME_050
 10
116.1556692913386
 20
5.3996062992125982
 30
0.0
 40
4.0
  1
2
  7
ISO_PROPORTIONAL
 72
     4
 11
117.625
 21
7.5
 31
0.0
  0
TEXT
  5
BF2
  8
FRAME_050
 10
187.89215728752529
 20
5.5828427124746138
 30
0.0
 40
4.0
  1
3
  7
ISO_PROPORTIONAL
 72
     4
 11
189.375
 21
7.5
 31
0.0
  0
LINE
  5
BF3
  8
FRAME_050
 10
225.25
 20
5.0
 30
0.0
 11
225.25
 21
10.0
 31
0.0
  0
LINE
  5
BF4
  8
FRAME_050
 10
297.0
 20
7.5
 30
0.0
 11
294.5
 21
12.5
 31
0.0
  0
LINE
  5
BF5
  8
FRAME_050
 10
287.0
 20
5.0
 30
0.0
 11
287.0
 21
10.0
 31
0.0
  0
LINE
  5
BF6
  8
FRAME_050
 10
277.0
 20
5.0
 30
0.0
 11
277.0
 21
10.0
 31
0.0
  0
LINE
  5
BF7
  8
FRAME_050
 10
267.0
 20
5.0
 30
0.0
 11
267.0
 21
10.0
 31
0.0
  0
LINE
  5
BF8
  8
FRAME_050
 10
257.0
 20
5.0
 30
0.0
 11
257.0
 21
10.0
 31
0.0
  0
LINE
  5
BF9
  8
FRAME_050
 10
247.0
 20
5.0
 30
0.0
 11
247.0
 21
10.0
 31
0.0
  0
LINE
  5
BFA
  8
FRAME_050
 10
297.0
 20
10.0
 30
0.0
 11
297.0
 21
5.0
 31
0.0
  0
LINE
  5
BFB
  8
FRAME_050
 10
297.0
 20
10.0
 30
0.0
 11
297.0
 21
15.0
 31
0.0
  0
LINE
  5
BFC
  8
FRAME_050
 10
5.0
 20
210.0
 30
0.0
 11
15.0
 21
210.0
 31
0.0
  0
LINE
  5
BFD
  8
FRAME_050
 10
7.5
 20
210.0
 30
0.0
 11
12.5
 21
212.5
 31
0.0
  0
TEXT
  5
BFE
  8
FRAME_050
 10
5.7860912703473977
 20
235.0
 30
0.0
 40
4.0
  1
D
  7
ISO_PROPORTIONAL
 72
     4
 11
7.5
 21
237.0
 31
0.0
  0
LINE
  5
BFF
  8
FRAME_050
 10
10.0
 20
260.0
 30
0.0
 11
5.0
 21
260.0
 31
0.0
  0
TEXT
  5
C00
  8
FRAME_050
 10
6.1931980515339466
 20
285.0
 30
0.0
 40
4.0
  1
C
  7
ISO_PROPORTIONAL
 72
     4
 11
7.5
 21
287.0
 31
0.0
  0
LINE
  5
C01
  8
FRAME_050
 10
10.0
 20
310.0
 30
0.0
 11
5.0
 21
310.0
 31
0.0
  0
TEXT
  5
C02
  8
FRAME_050
 10
5.8999999999999959
 20
335.0
 30
0.0
 40
4.0
  1
B
  7
ISO_PROPORTIONAL
 72
     4
 11
7.5
 21
337.0
 31
0.0
  0
LINE
  5
C03
  8
FRAME_050
 10
10.0
 20
360.0
 30
0.0
 11
5.0
 21
360.0
 31
0.0
  0
TEXT
  5
C04
  8
FRAME_050
 10
5.6999999999999993
 20
385.0
 30
0.0
 40
4.0
  1
A
  7
ISO_PROPORTIONAL
 72
     4
 11
7.5
 21
387.0
 31
0.0
  0
LINE
  5
C05
  8
FRAME_200
 10
10.0
 20
420.0
 30
0.0
 11
0.0
 21
420.0
 31
0.0
  0
LINE
  5
C06
  8
FRAME_200
 10
0.0
 20
420.0
 30
0.0
 11
0.0
 21
410.0
 31
0.0
  0
TEXT
  5
C07
  8
FRAME_050
 10
44.874999999999993
 20
410.5
 30
0.0
 40
4.0
  1
1
  7
ISO_PROPORTIONAL
 72
     4
 11
45.875
 21
412.5
 31
0.0
  0
LINE
  5
C08
  8
FRAME_050
 10
81.75
 20
410.0
 30
0.0
 11
81.75
 21
415.0
 31
0.0
  0
TEXT
  5
C09
  8
FRAME_050
 10
116.1556692913386
 20
410.39960629921262
 30
0.0
 40
4.0
  1
2
  7
ISO_PROPORTIONAL
 72
     4
 11
117.625
 21
412.5
 31
0.0
  0
LINE
  5
C0A
  8
FRAME_050
 10
153.5
 20
410.0
 30
0.0
 11
153.5
 21
415.0
 31
0.0
  0
TEXT
  5
C0B
  8
FRAME_050
 10
187.89215728752529
 20
410.58284271247459
 30
0.0
 40
4.0
  1
3
  7
ISO_PROPORTIONAL
 72
     4
 11
189.375
 21
412.5
 31
0.0
  0
LINE
  5
C0C
  8
FRAME_050
 10
297.0
 20
405.0
 30
0.0
 11
297.0
 21
415.0
 31
0.0
  0
LINE
  5
C0D
  8
FRAME_050
 10
225.25
 20
410.0
 30
0.0
 11
225.25
 21
415.0
 31
0.0
  0
TEXT
  5
C0E
  8
FRAME_050
 10
259.52499999999998
 20
410.5
 30
0.0
 40
4.0
  1
4
  7
ISO_PROPORTIONAL
 72
     4
 11
261.125
 21
412.5
 31
0.0
  0
LINE
  5
C0F
  8
FRAME_070
 10
584.0
 20
10.0
 30
0.0
 11
584.0
 21
410.0
 31
0.0
  0
ATTDEF
  5
C10
  8
FRAME_025
 10
473.0
 20
31.75
 30
0.0
 40
2.5
  1
XXX - 00/00/00
  7
ISO_PROPORTIONAL
 11
473.0
 21
33.0
 31
0.0
  3
Approved by - Date
  2
APPROVED_BY_DATE
 70
     8
 74
     2
  0
TEXT
  5
C11
  8
FRAME_025
 10
448.0
 20
41.749999999999993
 30
0.0
 40
2.5
  1
Title/Name, designation, material, dimension etc
  7
ISO_PROPORTIONAL
 11
448.0
 21
43.0
 31
0.0
 73
     2
  0
TEXT
  5
C12
  8
FRAME_025
 10
473.0
 20
35.75
 30
0.0
 40
2.5
  1
Approved by - date
  7
ISO_PROPORTIONAL
 11
473.0
 21
37.0
 31
0.0
 73
     2
  0
LINE
  5
C13
  8
FRAME_070
 10
414.0
 20
46.0
 30
0.0
 11
584.0
 21
46.0
 31
0.0
  0
LINE
  5
C14
  8
FRAME_070
 10
414.0
 20
40.0
 30
0.0
 11
584.0
 21
40.0
 31
0.0
  0
LINE
  5
C15
  8
FRAME_070
 10
414.0
 20
30.0
 30
0.0
 11
584.0
 21
30.0
 31
0.0
  0
LINE
  5
C16
  8
FRAME_050
 10
368.75
 20
5.0
 30
0.0
 11
368.75
 21
10.0
 31
0.0
  0
LINE
  5
C17
  8
FRAME_050
 10
337.0
 20
5.0
 30
0.0
 11
337.0
 21
10.0
 31
0.0
  0
LINE
  5
C18
  8
FRAME_050
 10
327.0
 20
5.0
 30
0.0
 11
327.0
 21
10.0
 31
0.0
  0
LINE
  5
C19
  8
FRAME_050
 10
317.0
 20
5.0
 30
0.0
 11
317.0
 21
10.0
 31
0.0
  0
LINE
  5
C1A
  8
FRAME_050
 10
307.0
 20
5.0
 30
0.0
 11
307.0
 21
10.0
 31
0.0
  0
LINE
  5
C1B
  8
FRAME_050
 10
347.0
 20
5.0
 30
0.0
 11
347.0
 21
10.0
 31
0.0
  0
LINE
  5
C1C
  8
FRAME_050
 10
440.5
 20
5.0
 30
0.0
 11
440.5
 21
10.0
 31
0.0
  0
TEXT
  5
C1D
  8
FRAME_050
 10
403.24547244094481
 20
5.4102362204724406
 30
0.0
 40
4.0
  1
6
  7
ISO_PROPORTIONAL
 72
     4
 11
404.62499999999989
 21
7.5
 31
0.0
  0
TEXT
  5
C1E
  8
FRAME_050
 10
474.97499999999991
 20
5.5
 30
0.0
 40
4.0
  1
7
  7
ISO_PROPORTIONAL
 72
     4
 11
476.37499999999989
 21
7.5
 31
0.0
  0
TEXT
  5
C1F
  8
FRAME_025
 10
431.0
 20
41.749999999999993
 30
0.0
 40
2.5
  1
Quantity
  7
ISO_PROPORTIONAL
 11
431.0
 21
43.0
 31
0.0
 73
     2
  0
TEXT
  5
C20
  8
FRAME_025
 10
416.0
 20
41.749999999999993
 30
0.0
 40
2.5
  1
Itemref
  7
ISO_PROPORTIONAL
 11
416.0
 21
43.0
 31
0.0
 73
     2
  0
LINE
  5
C21
  8
FRAME_070
 10
414.0
 20
40.0
 30
0.0
 11
414.0
 21
46.0
 31
0.0
  0
LINE
  5
C22
  8
FRAME_070
 10
429.0
 20
40.0
 30
0.0
 11
429.0
 21
46.0
 31
0.0
  0
LINE
  5
C23
  8
FRAME_070
 10
414.0
 20
10.0
 30
0.0
 11
414.0
 21
40.0
 31
0.0
  0
ATTDEF
  5
C24
  8
FRAME_025
 10
416.0
 20
31.75
 30
0.0
 40
2.5
  1
XXX
  7
ISO_PROPORTIONAL
 11
416.0
 21
33.0
 31
0.0
  3
Designed by
  2
DESIGNED_BY
 70
     8
 74
     2
  0
TEXT
  5
C25
  8
FRAME_025
 10
416.0
 20
35.75
 30
0.0
 40
2.5
  1
Designed by
  7
ISO_PROPORTIONAL
 11
416.0
 21
37.0
 31
0.0
 73
     2
  0
LINE
  5
C26
  8
FRAME_070
 10
446.0
 20
40.0
 30
0.0
 11
446.0
 21
46.0
 31
0.0
  0
ATTDEF
  5
C27
  8
FRAME_025
 10
448.0
 20
31.75
 30
0.0
 40
2.5
  1
XXX
  7
ISO_PROPORTIONAL
 11
448.0
 21
33.0
 31
0.0
  3
Checked by
  2
CHECKED_BY
 70
     8
 74
     2
  0
TEXT
  5
C28
  8
FRAME_025
 10
448.0
 20
35.75
 30
0.0
 40
2.5
  1
Checked by
  7
ISO_PROPORTIONAL
 11
448.0
 21
37.0
 31
0.0
 73
     2
  0
ATTDEF
  5
C29
  8
FRAME_050
 10
444.74999999999989
 20
17.5
 30
0.0
 40
5.0
  1
XXX
  7
ISO_PROPORTIONAL
 72
     4
 11
451.49999999999989
 21
20.0
 31
0.0
  3
Owner
  2
OWNER
 70
     8
  0
LINE
  5
C2A
  8
FRAME_070
 10
446.0
 20
30.0
 30
0.0
 11
446.0
 21
40.0
 31
0.0
  0
LINE
  5
C2B
  8
FRAME_070
 10
471.0
 20
30.0
 30
0.0
 11
471.0
 21
40.0
 31
0.0
  0
LINE
  5
C2C
  8
FRAME_070
 10
489.0
 20
20.0
 30
0.0
 11
584.0
 21
20.0
 31
0.0
  0
LINE
  5
C2D
  8
FRAME_050
 10
512.25
 20
5.0
 30
0.0
 11
512.25
 21
10.0
 31
0.0
  0
TEXT
  5
C2E
  8
FRAME_050
 10
546.72499999999991
 20
5.5
 30
0.0
 40
4.0
  1
8
  7
ISO_PROPORTIONAL
 72
     4
 11
548.125
 21
7.5
 31
0.0
  0
ATTDEF
  5
C2F
  8
FRAME_050
 10
517.64999999999986
 20
13.5
 30
0.0
 40
3.0
  1
X
  7
ISO_PROPORTIONAL
 72
     4
 11
519.0
 21
15.0
 31
0.0
  3
Drawing number
  2
DRAWING_NUMBER
 70
     8
  0
ATTDEF
  5
C30
  8
FRAME_050
 10
529.75
 20
22.5
 30
0.0
 40
5.0
  1
XXX
  7
ISO_PROPORTIONAL
 72
     4
 11
536.5
 21
25.0
 31
0.0
  3
Title / Name
  2
TITLE
 70
     8
  0
LINE
  5
C31
  8
FRAME_070
 10
489.0
 20
10.0
 30
0.0
 11
489.0
 21
30.0
 31
0.0
  0
ATTDEF
  5
C32
  8
FRAME_025
 10
511.0
 20
31.75
 30
0.0
 40
2.5
  1
XXX
  7
ISO_PROPORTIONAL
 11
511.0
 21
33.0
 31
0.0
  3
Filename
  2
FILENAME
 70
     8
 74
     2
  0
TEXT
  5
C33
  8
FRAME_025
 10
511.0
 20
35.75
 30
0.0
 40
2.5
  1
Filename
  7
ISO_PROPORTIONAL
 11
511.0
 21
37.0
 31
0.0
 73
     2
  0
LINE
  5
C34
  8
FRAME_070
 10
509.0
 20
30.0
 30
0.0
 11
509.0
 21
40.0
 31
0.0
  0
TEXT
  5
C35
  8
FRAME_025
 10
536.0
 20
41.749999999999993
 30
0.0
 40
2.5
  1
Article No./Reference
  7
ISO_PROPORTIONAL
 11
536.0
 21
43.0
 31
0.0
 73
     2
  0
LINE
  5
C36
  8
FRAME_070
 10
534.0
 20
40.0
 30
0.0
 11
534.0
 21
46.0
 31
0.0
  0
ATTDEF
  5
C37
  8
FRAME_025
 10
551.0
 20
11.75
 30
0.0
 40
2.5
  1
0
  7
ISO_PROPORTIONAL
 11
551.0
 21
13.0
 31
0.0
  3
Edition
  2
EDITION
 70
     8
 74
     2
  0
TEXT
  5
C38
  8
FRAME_025
 10
551.0
 20
15.75
 30
0.0
 40
2.5
  1
Edition
  7
ISO_PROPORTIONAL
 11
551.0
 21
17.0
 31
0.0
 73
     2
  0
LINE
  5
C39
  8
FRAME_070
 10
549.0
 20
10.0
 30
0.0
 11
549.0
 21
20.0
 31
0.0
  0
ATTDEF
  5
C3A
  8
FRAME_025
 10
536.0
 20
31.75
 30
0.0
 40
2.5
  1
00/00/00
  7
ISO_PROPORTIONAL
 11
536.0
 21
33.0
 31
0.0
  3
Date
  2
DATE
 70
     8
 74
     2
  0
TEXT
  5
C3B
  8
FRAME_025
 10
536.0
 20
35.75
 30
0.0
 40
2.5
  1
Date
  7
ISO_PROPORTIONAL
 11
536.0
 21
37.0
 31
0.0
 73
     2
  0
LINE
  5
C3C
  8
FRAME_070
 10
534.0
 20
30.0
 30
0.0
 11
534.0
 21
40.0
 31
0.0
  0
ATTDEF
  5
C3D
  8
FRAME_025
 10
566.0
 20
11.75
 30
0.0
 40
2.5
  1
1/1
  7
ISO_PROPORTIONAL
 11
566.0
 21
13.0
 31
0.0
  3
Sheet
  2
SHEET
 70
     8
 74
     2
  0
TEXT
  5
C3E
  8
FRAME_025
 10
566.0
 20
15.75
 30
0.0
 40
2.5
  1
Sheet
  7
ISO_PROPORTIONAL
 11
566.0
 21
17.0
 31
0.0
 73
     2
  0
LINE
  5
C3F
  8
FRAME_070
 10
564.0
 20
10.0
 30
0.0
 11
564.0
 21
20.0
 31
0.0
  0
ATTDEF
  5
C40
  8
FRAME_025
 10
566.0
 20
31.75
 30
0.0
 40
2.5
  1
1:1
  7
ISO_PROPORTIONAL
 11
566.0
 21
33.0
 31
0.0
  3
Scale
  2
SCALE
 70
     8
 74
     2
  0
TEXT
  5
C41
  8
FRAME_025
 10
566.0
 20
35.75
 30
0.0
 40
2.5
  1
Scale
  7
ISO_PROPORTIONAL
 11
566.0
 21
37.0
 31
0.0
 73
     2
  0
LINE
  5
C42
  8
FRAME_070
 10
564.0
 20
30.0
 30
0.0
 11
564.0
 21
40.0
 31
0.0
  0
LINE
  5
C43
  8
FRAME_200
 10
594.0
 20
0.0
 30
0.0
 11
594.0
 21
10.0
 31
0.0
  0
LINE
  5
C44
  8
FRAME_200
 10
594.0
 20
0.0
 30
0.0
 11
584.0
 21
0.0
 31
0.0
  0
TEXT
  5
C45
  8
FRAME_050
 10
584.89999999999998
 20
35.0
 30
0.0
 40
4.0
  1
H
  7
ISO_PROPORTIONAL
 72
     4
 11
586.5
 21
37.0
 31
0.0
  0
LINE
  5
C46
  8
FRAME_050
 10
589.0
 20
60.0
 30
0.0
 11
584.0
 21
60.0
 31
0.0
  0
TEXT
  5
C47
  8
FRAME_050
 10
585.0035533905932
 20
85.0
 30
0.0
 40
4.0
  1
G
  7
ISO_PROPORTIONAL
 72
     4
 11
586.5
 21
87.0
 31
0.0
  0
LINE
  5
C48
  8
FRAME_050
 10
589.0
 20
110.0
 30
0.0
 11
584.0
 21
110.0
 31
0.0
  0
TEXT
  5
C49
  8
FRAME_050
 10
585.09999999999991
 20
135.0
 30
0.0
 40
4.0
  1
F
  7
ISO_PROPORTIONAL
 72
     4
 11
586.5
 21
137.0
 31
0.0
  0
LINE
  5
C4A
  8
FRAME_050
 10
589.0
 20
160.0
 30
0.0
 11
584.0
 21
160.0
 31
0.0
  0
TEXT
  5
C4B
  8
FRAME_050
 10
585.09999999999991
 20
185.0
 30
0.0
 40
4.0
  1
E
  7
ISO_PROPORTIONAL
 72
     4
 11
586.5
 21
187.0
 31
0.0
  0
LINE
  5
C4C
  8
FRAME_070
 10
414.0
 20
404.0
 30
0.0
 11
584.0
 21
404.0
 31
0.0
  0
TEXT
  5
C4D
  8
FRAME_050
 10
331.39215728752538
 20
410.58284271247459
 30
0.0
 40
4.0
  1
5
  7
ISO_PROPORTIONAL
 72
     4
 11
332.875
 21
412.5
 31
0.0
  0
LINE
  5
C4E
  8
FRAME_050
 10
368.75
 20
410.0
 30
0.0
 11
368.75
 21
415.0
 31
0.0
  0
TEXT
  5
C4F
  8
FRAME_025
 10
428.0
 20
405.75
 30
0.0
 40
2.5
  1
Revision note
  7
ISO_PROPORTIONAL
 11
428.0
 21
407.0
 31
0.0
 73
     2
  0
TEXT
  5
C50
  8
FRAME_025
 10
416.0
 20
405.75
 30
0.0
 40
2.5
  1
RevNo
  7
ISO_PROPORTIONAL
 11
416.0
 21
407.0
 31
0.0
 73
     2
  0
LINE
  5
C51
  8
FRAME_070
 10
426.0
 20
404.0
 30
0.0
 11
426.0
 21
410.0
 31
0.0
  0
LINE
  5
C52
  8
FRAME_070
 10
414.0
 20
404.0
 30
0.0
 11
414.0
 21
410.0
 31
0.0
  0
TEXT
  5
C53
  8
FRAME_050
 10
403.24547244094481
 20
410.41023622047243
 30
0.0
 40
4.0
  1
6
  7
ISO_PROPORTIONAL
 72
     4
 11
404.62499999999989
 21
412.5
 31
0.0
  0
LINE
  5
C54
  8
FRAME_050
 10
440.5
 20
410.0
 30
0.0
 11
440.5
 21
415.0
 31
0.0
  0
TEXT
  5
C55
  8
FRAME_050
 10
474.97499999999991
 20
410.5
 30
0.0
 40
4.0
  1
7
  7
ISO_PROPORTIONAL
 72
     4
 11
476.37499999999989
 21
412.5
 31
0.0
  0
LINE
  5
C56
  8
FRAME_050
 10
579.0
 20
210.0
 30
0.0
 11
589.0
 21
210.0
 31
0.0
  0
TEXT
  5
C57
  8
FRAME_050
 10
584.78609127034736
 20
235.0
 30
0.0
 40
4.0
  1
D
  7
ISO_PROPORTIONAL
 72
     4
 11
586.5
 21
237.0
 31
0.0
  0
LINE
  5
C58
  8
FRAME_050
 10
589.0
 20
260.0
 30
0.0
 11
584.0
 21
260.0
 31
0.0
  0
TEXT
  5
C59
  8
FRAME_050
 10
585.19319805153395
 20
285.0
 30
0.0
 40
4.0
  1
C
  7
ISO_PROPORTIONAL
 72
     4
 11
586.5
 21
287.0
 31
0.0
  0
LINE
  5
C5A
  8
FRAME_050
 10
589.0
 20
310.0
 30
0.0
 11
584.0
 21
310.0
 31
0.0
  0
TEXT
  5
C5B
  8
FRAME_050
 10
584.89999999999998
 20
335.0
 30
0.0
 40
4.0
  1
B
  7
ISO_PROPORTIONAL
 72
     4
 11
586.5
 21
337.0
 31
0.0
  0
TEXT
  5
C5C
  8
FRAME_025
 10
571.08299391850551
 20
405.75
 30
0.0
 40
2.5
  1
Checked
  7
ISO_PROPORTIONAL
 11
571.08299391850551
 21
407.0
 31
0.0
 73
     2
  0
TEXT
  5
C5D
  8
FRAME_025
 10
555.36099797283521
 20
405.75
 30
0.0
 40
2.5
  1
Signature
  7
ISO_PROPORTIONAL
 11
555.36099797283521
 21
407.0
 31
0.0
 73
     2
  0
TEXT
  5
C5E
  8
FRAME_025
 10
537.0
 20
405.75
 30
0.0
 40
2.5
  1
Date
  7
ISO_PROPORTIONAL
 11
537.0
 21
407.0
 31
0.0
 73
     2
  0
LINE
  5
C5F
  8
FRAME_070
 10
570.0
 20
404.0
 30
0.0
 11
570.0
 21
410.0
 31
0.0
  0
LINE
  5
C60
  8
FRAME_070
 10
555.0
 20
404.0
 30
0.0
 11
555.0
 21
410.0
 31
0.0
  0
LINE
  5
C61
  8
FRAME_070
 10
535.0
 20
404.0
 30
0.0
 11
535.0
 21
410.0
 31
0.0
  0
LINE
  5
C62
  8
FRAME_050
 10
512.25
 20
410.0
 30
0.0
 11
512.25
 21
415.0
 31
0.0
  0
TEXT
  5
C63
  8
FRAME_050
 10
546.72499999999991
 20
410.5
 30
0.0
 40
4.0
  1
8
  7
ISO_PROPORTIONAL
 72
     4
 11
548.125
 21
412.5
 31
0.0
  0
LINE
  5
C64
  8
FRAME_050
 10
589.0
 20
360.0
 30
0.0
 11
584.0
 21
360.0
 31
0.0
  0
TEXT
  5
C65
  8
FRAME_050
 10
584.70000000000005
 20
385.0
 30
0.0
 40
4.0
  1
A
  7
ISO_PROPORTIONAL
 72
     4
 11
586.5
 21
387.0
 31
0.0
  0
LINE
  5
C66
  8
FRAME_200
 10
594.0
 20
420.0
 30
0.0
 11
584.0
 21
420.0
 31
0.0
  0
LINE
  5
C67
  8
FRAME_200
 10
594.0
 20
410.0
 30
0.0
 11
594.0
 21
420.0
 31
0.0
  0
ENDBLK
  5
C69
  8
0
  0
BLOCK
  8
0
  2
WOBB001END
 70
     0
 10
0.0
 20
0.0
 30
0.0
  3
WOBB001END
  1

  0
LINE
  5
4D66
  8
0
  6
CONTINUOUS
 10
0.0
 20
0.0
 30
0.0
 11
0.8749999999999998
 21
0.0
 31
0.0
  0
ARC
  5
4D67
  8
0
  6
CONTINUOUS
 10
0.0331648379439287
 20
-0.5087238935900234
 30
0.0
 40
0.8790130605592325
 50
284.06490243660443
 51
312.19222981924361
  0
ARC
  5
4D68
  8
0
  6
CONTINUOUS
 10
0.2841534338796767
 20
-1.510548310625538
 30
0.0
 40
0.1537731892806598
 50
104.0649024366044
 51
179.4721730735024
  0
LINE
  5
4D69
  8
0
  6
CONTINUOUS
 10
0.0
 20
0.0
 30
0.0
 11
-0.0000000000000003
 21
-1.7501564476661911
 31
0.0
  0
ARC
  5
4D6A
  8
0
  6
CONTINUOUS
 10
0.1404622019506122
 20
-1.630313718354619
 30
0.0
 40
0.1198427293115722
 50
275.0
 51
85.000000000000057
  0
LINE
  5
4D6B
  8
0
  6
CONTINUOUS
 10
-0.0000000000000003
 20
-1.7501564476661911
 30
0.0
 11
0.1456946485130855
 21
-1.7501564476661911
 31
0.0
  0
LINE
  5
4D6C
  8
0
  6
CONTINUOUS
 10
0.1377603739254348
 20
-1.7508506067459131
 30
0.0
 11
0.150907184036669
 21
-1.7497004098996509
 31
0.0
  0
LINE
  5
4D6D
  8
0
  6
CONTINUOUS
 10
0.1303867696719884
 20
-1.5091317231818231
 30
0.0
 11
0.1509071840366689
 21
-1.510927026809586
 31
0.0
  0
LINE
  5
4D6E
  8
0
  6
CONTINUOUS
 10
0.8749999999999998
 20
0.0
 30
0.0
 11
0.8749999999999996
 21
-0.8649327026588228
 31
0.0
  0
LINE
  5
4D6F
  8
0
  6
CONTINUOUS
 10
0.727014513830997
 20
-0.872688293355061
 30
0.0
 11
0.727014513830997
 21
-0.9264923397184784
 31
0.0
  0
ARC
  5
4D70
  8
0
  6
CONTINUOUS
 10
0.41187090827646
 20
-0.9264923397184784
 30
0.0
 40
0.3151436055545369
 50
312.19222981924361
 51
0.0
  0
LINE
  5
4D71
  8
0
  6
CONTINUOUS
 10
0.727014513830997
 20
-0.872688293355061
 30
0.0
 11
0.8749999999999996
 21
-0.8649327026588228
 31
0.0
  0
ENDBLK
  5
4D72
  8
0
  0
BLOCK
  8
0
  2
A$C0A61123B
 70
     0
 10
0.0
 20
0.0
 30
0.0
  3
A$C0A61123B
  1

  0
LINE
  5
C0AD
  8
PROF
  6
CONTINUOUS
 10
4.9012016798694162
 20
13.325025853350891
 30
0.0000000000000002
 11
4.9012016798694162
 21
12.88585218805485
 31
0.0000000000000003
  0
INSERT
  5
C0AE
  8
0
  2
*U7
 10
0.0
 20
0.0
 30
0.0
  0
LINE
  5
C0AF
  8
PROF
 10
4.519857503186925
 20
12.72227734589444
 30
0.0000000000000001
 11
4.519857503186925
 21
12.88585218805485
 31
0.0000000000000001
  0
LINE
  5
C0B0
  8
PROF
  6
CONTINUOUS
 10
3.6306271195888362
 20
13.325025853350891
 30
0.0000000000000002
 11
4.9012016798694162
 21
13.325025853350891
 31
0.0000000000000002
  0
LINE
  5
C0B1
  8
PROF
 10
1.9750295148747341
 20
10.37671325491794
 30
0.0000000000000002
 11
1.9750295148747341
 21
10.11391186758919
 31
0.0000000000000002
  0
LINE
  5
C0B2
  8
PROF
 10
1.6079673357556299
 20
10.11391186758919
 30
0.0000000000000001
 11
1.9750295148747341
 21
10.11391186758919
 31
0.0000000000000001
  0
LINE
  5
C0B3
  8
PROF
 10
1.9750295148747341
 20
10.11391186758919
 30
0.0000000000000001
 11
1.944958486898144
 21
10.11391186758919
 31
0.0000000000000001
  0
LINE
  5
C0B4
  8
PROF
 10
1.9750295148747341
 20
10.11391186758919
 30
0.0000000000000001
 11
1.944958486898144
 21
10.11391186758919
 31
0.0000000000000001
  0
LINE
  5
C0B5
  8
PROF
 10
0.3222605517169654
 20
7.5247473351056451
 30
-0.0000000000000002
 11
-0.0000008570117416
 21
7.5247473351056451
 31
0.0
  0
LINE
  5
C0B6
  8
PROF
 10
-0.0000008570117416
 20
7.5247473351056451
 30
0.0
 11
-0.0000008570117416
 21
9.1943336957369848
 31
0.0
  0
POLYLINE
  5
C0B7
  8
PROF
 66
     1
 10
0.0
 20
0.0
 30
0.0000000000000001
 70
     4
 75
     6
  0
VERTEX
  5
C0B8
  8
PROF
 10
1.6079673357556299
 20
10.11391186758919
 30
0.0000000000000001
 70
    16
  0
VERTEX
  5
C0B9
  8
PROF
 10
1.6079673357556299
 20
10.11391186758919
 30
0.0000000000000001
 70
     8
  0
VERTEX
  5
C0BA
  8
PROF
 10
1.6468132326485809
 20
10.02198069336111
 30
0.0000000000000001
 70
     8
  0
VERTEX
  5
C0BB
  8
PROF
 10
1.67335966680929
 20
9.9344134163010231
 30
0.0000000000000001
 70
     8
  0
VERTEX
  5
C0BC
  8
PROF
 10
1.6890086400463229
 20
9.8512576644480951
 30
0.0000000000000001
 70
     8
  0
VERTEX
  5
C0BD
  8
PROF
 10
1.6951621541682571
 20
9.7725610658417281
 30
0.0000000000000001
 70
     8
  0
VERTEX
  5
C0BE
  8
PROF
 10
1.693222210983605
 20
9.6983712485214237
 30
0.0000000000000001
 70
     8
  0
VERTEX
  5
C0BF
  8
PROF
 10
1.6845908123009961
 20
9.6287358405263603
 30
0.0000000000000001
 70
     8
  0
VERTEX
  5
C0C0
  8
PROF
 10
1.670669959928885
 20
9.5637024698960431
 30
0.0000000000000001
 70
     8
  0
VERTEX
  5
C0C1
  8
PROF
 10
1.6528616556759621
 20
9.5033187646697552
 30
0.0000000000000001
 70
     8
  0
VERTEX
  5
C0C2
  8
PROF
 10
1.632356299273054
 20
9.4475843259650691
 30
0.0000000000000001
 70
     8
  0
VERTEX
  5
C0C3
  8
PROF
 10
1.609497882140658
 20
9.3963066472123273
 30
0.0000000000000001
 70
     8
  0
VERTEX
  5
C0C4
  8
PROF
 10
1.584418793621637
 20
9.3492451949202842
 30
0.0000000000000001
 70
     8
  0
VERTEX
  5
C0C5
  8
PROF
 10
1.5572514230587431
 20
9.3061594355972357
 30
0.0000000000000001
 70
     8
  0
VERTEX
  5
C0C6
  8
PROF
 10
1.5281281597949601
 20
9.2668088357519274
 30
0.0000000000000001
 70
     8
  0
VERTEX
  5
C0C7
  8
PROF
 10
1.497181393172978
 20
9.2309528618929981
 30
0.0000000000000001
 70
     8
  0
VERTEX
  5
C0C8
  8
PROF
 10
1.4645435125357249
 20
9.1983509805288541
 30
0.0000000000000001
 70
     8
  0
VERTEX
  5
C0C9
  8
PROF
 10
1.4303469072260091
 20
9.1687626581682462
 30
0.0000000000000001
 70
     8
  0
VERTEX
  5
C0CA
  8
PROF
 10
1.394736033257401
 20
9.1419547918675335
 30
0.0000000000000001
 70
     8
  0
VERTEX
  5
C0CB
  8
PROF
 10
1.3579036133264131
 20
9.1177240008747713
 30
0.0000000000000001
 70
     8
  0
VERTEX
  5
C0CC
  8
PROF
 10
1.3200544368004321
 20
9.0958743349860924
 30
0.0000000000000001
 70
     8
  0
VERTEX
  5
C0CD
  8
PROF
 10
1.281393293046676
 20
9.0762098439975034
 30
0.0000000000000001
 70
     8
  0
VERTEX
  5
C0CE
  8
PROF
 10
1.2421249714324161
 20
9.0585345777049042
 30
0.0000000000000001
 70
     8
  0
VERTEX
  5
C0CF
  8
PROF
 10
1.202454261324986
 20
9.0426525859044187
 30
0.0000000000000001
 70
     8
  0
VERTEX
  5
C0D0
  8
PROF
 10
1.162585952091659
 20
9.0283679183919503
 30
0.0000000000000001
 70
     8
  0
VERTEX
  5
C0D1
  8
PROF
 10
1.1227248330997091
 20
9.0154846249635021
 30
0.0000000000000001
 70
     8
  0
VERTEX
  5
C0D2
  8
PROF
 10
1.0829726247361
 20
9.0034643862466055
 30
0.0000000000000001
 70
     8
  0
VERTEX
  5
C0D3
  8
PROF
 10
1.043018771466222
 20
8.9903994061946833
 30
0.0000000000000001
 70
     8
  0
VERTEX
  5
C0D4
  8
PROF
 10
1.002449648775211
 20
8.9740395195925622
 30
0.0000000000000001
 70
     8
  0
VERTEX
  5
C0D5
  8
PROF
 10
0.9608516321480919
 20
8.9521345612251935
 30
0.0000000000000001
 70
     8
  0
VERTEX
  5
C0D6
  8
PROF
 10
0.9178110970699435
 20
8.9224343658775052
 30
0.0000000000000001
 70
     8
  0
VERTEX
  5
C0D7
  8
PROF
 10
0.8729144190259033
 20
8.8826887683343312
 30
0.0000000000000001
 70
     8
  0
VERTEX
  5
C0D8
  8
PROF
 10
0.8257479735009949
 20
8.8306476033806121
 30
0.0000000000000001
 70
     8
  0
VERTEX
  5
C0D9
  8
PROF
 10
0.7758981359802988
 20
8.764060705801171
 30
0.0000000000000001
 70
     8
  0
VERTEX
  5
C0DA
  8
PROF
 10
1.7292019016096549
 20
9.8629858761255491
 30
0.0000000000000001
 70
    16
  0
VERTEX
  5
C0DB
  8
PROF
 10
1.679373123114088
 20
9.4532143012734213
 30
0.0000000000000001
 70
    16
  0
VERTEX
  5
C0DC
  8
PROF
 10
1.4455611507419801
 20
9.1391837193732481
 30
0.0000000000000001
 70
    16
  0
VERTEX
  5
C0DD
  8
PROF
 10
1.1204637172738201
 20
9.0026267702428413
 30
0.0000000000000001
 70
    16
  0
VERTEX
  5
C0DE
  8
PROF
 10
0.9127765582653638
 20
8.9630202230383702
 30
0.0000000000000001
 70
    16
  0
VERTEX
  5
C0DF
  8
PROF
 10
0.7758981359802988
 20
8.764060705801171
 30
0.0000000000000001
 70
    16
  0
SEQEND
  5
C0E0
  8
PROF
  0
ARC
  5
C0E1
  8
PROF
 10
0.733429816733235
 20
8.4849506952165257
 30
0.0000000000000001
 40
0.2823224329524727
 50
269.73652020831901
 51
81.348449993176914
  0
LINE
  5
C0E2
  8
PROF
  6
CONTINUOUS
 10
-0.0000008570117416
 20
9.1943336957369848
 30
-0.0000000000000001
 11
3.6306271195888362
 21
13.325025853350891
 31
0.0000000000000002
  0
POLYLINE
  5
C0E3
  8
PROF
 66
     1
 10
0.0
 20
0.0
 30
0.0000000000000001
 70
     4
 75
     6
  0
VERTEX
  5
C0E4
  8
PROF
 10
4.519857503186925
 20
12.72227734589444
 30
0.0000000000000001
 70
    16
  0
VERTEX
  5
C0E5
  8
PROF
 10
4.519857503186925
 20
12.72227734589444
 30
0.0000000000000001
 70
     8
  0
VERTEX
  5
C0E6
  8
PROF
 10
4.4467035366886289
 20
12.741128108778071
 30
0.0000000000000001
 70
     8
  0
VERTEX
  5
C0E7
  8
PROF
 10
4.3786645761268801
 20
12.754675269913941
 30
0.0000000000000001
 70
     8
  0
VERTEX
  5
C0E8
  8
PROF
 10
4.3154364111440469
 20
12.76334314092332
 30
0.0000000000000001
 70
     8
  0
VERTEX
  5
C0E9
  8
PROF
 10
4.256714831382566
 20
12.76755603342724
 30
0.0000000000000001
 70
     8
  0
VERTEX
  5
C0EA
  8
PROF
 10
4.2021956264849791
 20
12.76773825904672
 30
0.0000000000000001
 70
     8
  0
VERTEX
  5
C0EB
  8
PROF
 10
4.1515745860935436
 20
12.764314129403139
 30
0.0000000000000001
 70
     8
  0
VERTEX
  5
C0EC
  8
PROF
 10
4.1045474998508649
 20
12.75770795611743
 30
0.0000000000000001
 70
     8
  0
VERTEX
  5
C0ED
  8
PROF
 10
4.0608101573993149
 20
12.748344050810831
 30
0.0000000000000001
 70
     8
  0
VERTEX
  5
C0EE
  8
PROF
 10
4.0200583483813261
 20
12.736646725104491
 30
0.0000000000000001
 70
     8
  0
VERTEX
  5
C0EF
  8
PROF
 10
3.981987862439381
 20
12.72304029061945
 30
0.0000000000000001
 70
     8
  0
VERTEX
  5
C0F0
  8
PROF
 10
3.946294489215858
 20
12.707949058976959
 30
0.0000000000000001
 70
     8
  0
VERTEX
  5
C0F1
  8
PROF
 10
3.912674018353242
 20
12.691797341798059
 30
0.0000000000000001
 70
     8
  0
VERTEX
  5
C0F2
  8
PROF
 10
3.8808638350742499
 20
12.67494295718654
 30
0.0000000000000001
 70
     8
  0
VERTEX
  5
C0F3
  8
PROF
 10
3.850767706922738
 20
12.65747774917668
 30
0.0000000000000001
 70
     8
  0
VERTEX
  5
C0F4
  8
PROF
 10
3.8223309970228438
 20
12.639427068285499
 30
0.0000000000000001
 70
     8
  0
VERTEX
  5
C0F5
  8
PROF
 10
3.795499068498712
 20
12.62081626503004
 30
0.0000000000000001
 70
     8
  0
VERTEX
  5
C0F6
  8
PROF
 10
3.7702172844744819
 20
12.601670689926999
 30
0.0000000000000001
 70
     8
  0
VERTEX
  5
C0F7
  8
PROF
 10
3.7464310080743521
 20
12.58201569349364
 30
0.0000000000000001
 70
     8
  0
VERTEX
  5
C0F8
  8
PROF
 10
3.7240856024224609
 20
12.56187662624666
 30
0.0000000000000001
 70
     8
  0
VERTEX
  5
C0F9
  8
PROF
 10
3.7031264306428961
 20
12.541278838703191
 30
0.0000000000000001
 70
     8
  0
VERTEX
  5
C0FA
  8
PROF
 10
3.683498855859908
 20
12.520247681380051
 30
0.0000000000000001
 70
     8
  0
VERTEX
  5
C0FB
  8
PROF
 10
3.665148241197528
 20
12.49880850479428
 30
0.0000000000000001
 70
     8
  0
VERTEX
  5
C0FC
  8
PROF
 10
3.648019949779949
 20
12.47698665946279
 30
0.0000000000000001
 70
     8
  0
VERTEX
  5
C0FD
  8
PROF
 10
3.6320593447313159
 20
12.45480749590263
 30
0.0000000000000001
 70
     8
  0
VERTEX
  5
C0FE
  8
PROF
 10
3.617189584886658
 20
12.43223790353807
 30
0.0000000000000001
 70
     8
  0
VERTEX
  5
C0FF
  8
PROF
 10
3.6032450119242849
 20
12.40901092742285
 30
0.0000000000000001
 70
     8
  0
VERTEX
  5
C100
  8
PROF
 10
3.590037763233453
 20
12.38480115151844
 30
0.0000000000000001
 70
     8
  0
VERTEX
  5
C101
  8
PROF
 10
3.5773799762033032
 20
12.35928315978594
 30
0.0000000000000001
 70
     8
  0
VERTEX
  5
C102
  8
PROF
 10
3.5650837882230899
 20
12.33213153618658
 30
0.0000000000000001
 70
     8
  0
VERTEX
  5
C103
  8
PROF
 10
3.552961336681959
 20
12.303020864681571
 30
0.0000000000000001
 70
     8
  0
VERTEX
  5
C104
  8
PROF
 10
3.540824758969165
 20
12.271625729232371
 30
0.0000000000000001
 70
     8
  0
VERTEX
  5
C105
  8
PROF
 10
3.528486192473848
 20
12.23762071379997
 30
0.0000000000000001
 70
     8
  0
VERTEX
  5
C106
  8
PROF
 10
3.5157577745852659
 20
12.200680402345711
 30
0.0000000000000001
 70
     8
  0
VERTEX
  5
C107
  8
PROF
 10
3.502451642692618
 20
12.16047937883093
 30
0.0000000000000001
 70
     8
  0
VERTEX
  5
C108
  8
PROF
 10
3.4883799341851041
 20
12.116692227216619
 30
0.0000000000000001
 70
     8
  0
VERTEX
  5
C109
  8
PROF
 10
3.4733547864519201
 20
12.06899353146423
 30
0.0000000000000001
 70
     8
  0
VERTEX
  5
C10A
  8
PROF
 10
3.45723654619428
 20
12.0172095445447
 30
0.0000000000000001
 70
     8
  0
VERTEX
  5
C10B
  8
PROF
 10
3.440078397361388
 20
11.961773195467799
 30
0.0000000000000001
 70
     8
  0
VERTEX
  5
C10C
  8
PROF
 10
3.4219817332145781
 20
11.90326908225302
 30
0.0000000000000001
 70
     8
  0
VERTEX
  5
C10D
  8
PROF
 10
3.4030479470150099
 20
11.842281802919951
 30
0.0000000000000001
 70
     8
  0
VERTEX
  5
C10E
  8
PROF
 10
3.383378432024017
 20
11.779395955487979
 30
0.0000000000000001
 70
     8
  0
VERTEX
  5
C10F
  8
PROF
 10
3.36307458150287
 20
11.7151961379768
 30
0.0000000000000001
 70
     8
  0
VERTEX
  5
C110
  8
PROF
 10
3.342237788712735
 20
11.650266948405831
 30
0.0000000000000001
 70
     8
  0
VERTEX
  5
C111
  8
PROF
 10
3.3209694469149991
 20
11.58519298479461
 30
0.0000000000000001
 70
     8
  0
VERTEX
  5
C112
  8
PROF
 10
3.299370949370767
 20
11.52055884516254
 30
0.0000000000000001
 70
     8
  0
VERTEX
  5
C113
  8
PROF
 10
3.277543689341428
 20
11.456949127529461
 30
0.0000000000000001
 70
     8
  0
VERTEX
  5
C114
  8
PROF
 10
3.2555890600881399
 20
11.3949484299145
 30
0.0000000000000001
 70
     8
  0
VERTEX
  5
C115
  8
PROF
 10
3.2336084548721811
 20
11.335141350337491
 30
0.0000000000000001
 70
     8
  0
VERTEX
  5
C116
  8
PROF
 10
3.2116715641212181
 20
11.277995447977769
 30
0.0000000000000001
 70
     8
  0
VERTEX
  5
C117
  8
PROF
 10
3.1897212669278461
 20
11.22351012665467
 30
0.0000000000000001
 70
     8
  0
VERTEX
  5
C118
  8
PROF
 10
3.1676687395512881
 20
11.17156775134765
 30
0.0000000000000001
 70
     8
  0
VERTEX
  5
C119
  8
PROF
 10
3.1454251582505321
 20
11.12205068703588
 30
0.0000000000000001
 70
     8
  0
VERTEX
  5
C11A
  8
PROF
 10
3.122901699284625
 20
11.07484129869874
 30
0.0000000000000001
 70
     8
  0
VERTEX
  5
C11B
  8
PROF
 10
3.1000095389127278
 20
11.02982195131551
 30
0.0000000000000001
 70
     8
  0
VERTEX
  5
C11C
  8
PROF
 10
3.07665985339389
 20
10.986875009865679
 30
0.0000000000000001
 70
     8
  0
VERTEX
  5
C11D
  8
PROF
 10
3.0527638189871591
 20
10.9458828393283
 30
0.0000000000000001
 70
     8
  0
VERTEX
  5
C11E
  8
PROF
 10
3.0282326119516361
 20
10.90672780468298
 30
0.0000000000000001
 70
     8
  0
VERTEX
  5
C11F
  8
PROF
 10
3.0029774085463701
 20
10.869292270908771
 30
0.0000000000000001
 70
     8
  0
VERTEX
  5
C120
  8
PROF
 10
2.9769093850304089
 20
10.833458602985161
 30
0.0000000000000001
 70
     8
  0
VERTEX
  5
C121
  8
PROF
 10
2.9499397176628559
 20
10.799109165891419
 30
0.0000000000000001
 70
     8
  0
VERTEX
  5
C122
  8
PROF
 10
2.922000609840437
 20
10.76614363969508
 30
0.0000000000000001
 70
     8
  0
VERTEX
  5
C123
  8
PROF
 10
2.8931083735102998
 20
10.7345309648158
 30
0.0000000000000001
 70
     8
  0
VERTEX
  5
C124
  8
PROF
 10
2.8633003477572729
 20
10.70425739676193
 30
0.0000000000000001
 70
     8
  0
VERTEX
  5
C125
  8
PROF
 10
2.8326138716660689
 20
10.67530919104115
 30
0.0000000000000001
 70
     8
  0
VERTEX
  5
C126
  8
PROF
 10
2.801086284321626
 20
10.647672603161711
 30
0.0000000000000001
 70
     8
  0
VERTEX
  5
C127
  8
PROF
 10
2.7687549248087162
 20
10.62133388863162
 30
0.0000000000000001
 70
     8
  0
VERTEX
  5
C128
  8
PROF
 10
2.7356571322120531
 20
10.5962793029588
 30
0.0000000000000001
 70
     8
  0
VERTEX
  5
C129
  8
PROF
 10
2.7018302456165202
 20
10.572495101651381
 30
0.0000000000000001
 70
     8
  0
VERTEX
  5
C12A
  8
PROF
 10
2.6673116041068838
 20
10.54996754021726
 30
0.0000000000000001
 70
     8
  0
VERTEX
  5
C12B
  8
PROF
 10
2.6321385467680321
 20
10.528682874164581
 30
0.0000000000000001
 70
     8
  0
VERTEX
  5
C12C
  8
PROF
 10
2.5963484126846179
 20
10.508627359001251
 30
0.0000000000000001
 70
     8
  0
VERTEX
  5
C12D
  8
PROF
 10
2.5599785409415841
 20
10.489787250235279
 30
0.0000000000000001
 70
     8
  0
VERTEX
  5
C12E
  8
PROF
 10
2.522998630314361
 20
10.472162234281081
 30
0.0000000000000001
 70
     8
  0
VERTEX
  5
C12F
  8
PROF
 10
2.4851078183409072
 20
10.455805721177621
 30
0.0000000000000001
 70
     8
  0
VERTEX
  5
C130
  8
PROF
 10
2.4459376022498982
 20
10.44078455187036
 30
0.0000000000000001
 70
     8
  0
VERTEX
  5
C131
  8
PROF
 10
2.4051194792701249
 20
10.42716556730465
 30
0.0000000000000001
 70
     8
  0
VERTEX
  5
C132
  8
PROF
 10
2.3622849466301541
 20
10.415015608425851
 30
0.0000000000000001
 70
     8
  0
VERTEX
  5
C133
  8
PROF
 10
2.317065501558714
 20
10.40440151617929
 30
0.0000000000000001
 70
     8
  0
VERTEX
  5
C134
  8
PROF
 10
2.2690926412844301
 20
10.395390131510339
 30
0.0000000000000001
 70
     8
  0
VERTEX
  5
C135
  8
PROF
 10
2.2179978630360879
 20
10.388048295364451
 30
0.0000000000000001
 70
     8
  0
VERTEX
  5
C136
  8
PROF
 10
2.1634126640422551
 20
10.38244284868688
 30
0.0000000000000001
 70
     8
  0
VERTEX
  5
C137
  8
PROF
 10
2.1049685415316031
 20
10.37864063242295
 30
0.0000000000000001
 70
     8
  0
VERTEX
  5
C138
  8
PROF
 10
2.0422969927328709
 20
10.37670848751816
 30
0.0000000000000001
 70
     8
  0
VERTEX
  5
C139
  8
PROF
 10
1.9750295148747341
 20
10.37671325491794
 30
0.0000000000000001
 70
     8
  0
VERTEX
  5
C13A
  8
PROF
 10
4.2166060115107484
 20
12.80885334975255
 30
0.0000000000000001
 70
    16
  0
VERTEX
  5
C13B
  8
PROF
 10
3.8702254102732909
 20
12.707065515763929
 30
0.0000000000000001
 70
    16
  0
VERTEX
  5
C13C
  8
PROF
 10
3.605346156896871
 20
12.46277472098552
 30
0.0000000000000001
 70
    16
  0
VERTEX
  5
C13D
  8
PROF
 10
3.500746030527238
 20
12.170680575709749
 30
0.0000000000000001
 70
    16
  0
VERTEX
  5
C13E
  8
PROF
 10
3.231798439705698
 20
11.26846416496107
 30
0.0000000000000001
 70
    16
  0
VERTEX
  5
C13F
  8
PROF
 10
2.9737109398832882
 20
10.76631086647069
 30
0.0000000000000001
 70
    16
  0
VERTEX
  5
C140
  8
PROF
 10
2.5729961067384002
 20
10.460947364504699
 30
0.0000000000000001
 70
    16
  0
VERTEX
  5
C141
  8
PROF
 10
2.2537826214546031
 20
10.372731239449759
 30
0.0000000000000001
 70
    16
  0
VERTEX
  5
C142
  8
PROF
 10
1.9750295148747341
 20
10.37671325491794
 30
0.0000000000000001
 70
    16
  0
SEQEND
  5
C143
  8
PROF
  0
LINE
  5
C144
  8
PROF
 10
4.9012016798694162
 20
12.88585218805485
 30
0.0000000000000003
 11
4.519857503186925
 21
12.88585218805485
 31
0.0000000000000003
  0
LINE
  5
C145
  8
PROF
 10
0.7321315362267457
 20
8.2026312473991556
 30
0.0000000000000006
 11
0.7321315362267457
 21
8.0511853963434952
 31
0.0000000000000006
  0
ARC
  5
C146
  8
PROF
 10
0.7977322214551919
 20
7.577333933202679
 30
0.0000000000000006
 40
0.4783708383912013
 50
97.882010168942557
 51
186.31119505698641
  0
LINE
  5
C147
  8
FRAME_050
 10
7.8016377197432121
 20
17.99371054969447
 30
0.0
 11
7.8016377197432121
 21
0.0000000000002274
 31
0.0
  0
ENDBLK
  5
C149
  8
0
  0
BLOCK
  8
0
  2
*U7
 70
     1
 10
0.0
 20
0.0
 30
0.0
  3
*U7
  1

  0
TEXT
  5
C8C3
  8
0
 10
3.5177832928899071
 20
10.38601584255777
 30
0.0
 40
0.125
  1
Crown Moulding
  0
TEXT
  5
C8C4
  8
0
 10
3.5223876585106431
 20
10.17717091304435
 30
0.0
 40
0.125
  1
TL-AB509
  0
TEXT
  5
C8C5
  8
0
 10
3.5074661032582561
 20
9.9667059289606801
 30
0.0
 40
0.125
  1
1-5/16" x 7-9/16"
  0
TEXT
  5
C8C6
  8
0
 10
3.519403347460166
 20
9.7562409448770051
 30
0.0
 40
0.125
  1
800.66.TAGUE
  0
ENDBLK
  5
C8C8
  8
0
  0
BLOCK
  8
0
  2
*U8
 70
     1
 10
0.0
 20
0.0
 30
0.0
  3
*U8
  1

  0
TEXT
  5
C8CA
  8
0
 10
5.3066868277875692
 20
1.767659498411035
 30
0.0
 40
0.125
  1
Back Band
  0
TEXT
  5
C8CB
  8
0
 10
5.3153839628489603
 20
1.55881456889762
 30
0.0
 40
0.125
  1
TL-1
  0
TEXT
  5
C8CC
  8
0
 10
5.3004624075965721
 20
1.3483495848139451
 30
0.0
 40
0.125
  1
1-3/8" x 1-9/16"
  0
TEXT
  5
C8CD
  8
0
 10
5.3123996517984811
 20
1.1378846007302701
 30
0.0
 40
0.125
  1
800.66.TAGUE
  0
ENDBLK
  5
C8CF
  8
0
  0
BLOCK
  8
0
  2
*U9
 70
     1
 10
0.0
 20
0.0
 30
0.0
  3
*U9
  1

  0
TEXT
  5
C8D1
  8
0
 10
-385.7580743253551
 20
838.2627455404056
 30
0.0
 40
0.125
  1
Back Band
  0
TEXT
  5
C8D2
  8
0
 10
-385.74937719029373
 20
838.05390061089247
 30
0.0
 40
0.125
  1
TL-1
  0
TEXT
  5
C8D3
  8
0
 10
-385.76429874554611
 20
837.84343562680851
 30
0.0
 40
0.125
  1
1-3/8" x 1-9/16"
  0
TEXT
  5
C8D4
  8
0
 10
-385.75236150134418
 20
837.63297064272513
 30
0.0
 40
0.125
  1
800.66.TAGUE
  0
ENDBLK
  5
C8D6
  8
0
  0
BLOCK
  8
0
  2
*D21
 70
     1
 10
0.0
 20
0.0
 30
0.0
  3
*D21
  1

  0
LINE
  5
CDAB
  8
0
 62
     0
 10
-346.64573732984462
 20
509.42191863586828
 30
0.0
 11
-346.03266106471222
 21
509.42191863586828
 31
0.0
  0
LINE
  5
CDAC
  8
0
 62
     0
 10
-347.59461414974379
 20
507.61166709199199
 30
0.0
 11
-346.03266106471222
 21
507.61166709199199
 31
0.0
  0
LINE
  5
CDAD
  8
0
 62
     0
 10
-346.09516106471222
 20
509.42191863586828
 30
0.0
 11
-346.09516106471222
 21
507.61166709199199
 31
0.0
  0
INSERT
  5
CDAE
  8
0
 62
     0
  2
_ARCHTICK
 10
-346.09516106471222
 20
509.42191863586828
 30
0.0
 41
0.046875
 42
0.046875
 43
0.046875
 50
90.0
  0
INSERT
  5
CDAF
  8
0
 62
     0
  2
_ARCHTICK
 10
-346.09516106471222
 20
507.61166709199199
 30
0.0
 41
0.046875
 42
0.046875
 43
0.046875
 50
270.0
  0
INSERT
  5
CDB0
  8
0
  2
*U125
 10
0.0
 20
0.0
 30
0.0
  0
POINT
  5
CDB1
  8
DEFPOINTS
 62
     0
 10
-346.73948732984462
 20
509.42191863586828
 30
0.0
  0
POINT
  5
CDB2
  8
DEFPOINTS
 62
     0
 10
-347.68836414974379
 20
507.61166709199199
 30
0.0
  0
POINT
  5
CDB3
  8
DEFPOINTS
 62
     0
 10
-346.09516106471222
 20
507.61166709199199
 30
0.0
  0
ENDBLK
  5
CDB4
  8
0
  0
BLOCK
  8
0
  2
*D23
 70
     1
 10
0.0
 20
0.0
 30
0.0
  3
*D23
  1

  0
LINE
  5
CDEB
  8
0
 62
     0
 10
-387.02714157709249
 20
839.57969957928674
 30
0.0
 11
-386.41406531196009
 21
839.57969957928674
 31
0.0
  0
LINE
  5
CDEC
  8
0
 62
     0
 10
-387.97601839699172
 20
837.76944803541039
 30
0.0
 11
-386.41406531196009
 21
837.76944803541039
 31
0.0
  0
LINE
  5
CDED
  8
0
 62
     0
 10
-386.47656531196009
 20
839.57969957928674
 30
0.0
 11
-386.47656531196009
 21
837.76944803541039
 31
0.0
  0
INSERT
  5
CDEE
  8
0
 62
     0
  2
_ARCHTICK
 10
-386.47656531196009
 20
839.57969957928674
 30
0.0
 41
0.046875
 42
0.046875
 43
0.046875
 50
90.0
  0
INSERT
  5
CDEF
  8
0
 62
     0
  2
_ARCHTICK
 10
-386.47656531196009
 20
837.76944803541039
 30
0.0
 41
0.046875
 42
0.046875
 43
0.046875
 50
270.0
  0
INSERT
  5
CDF0
  8
0
  2
*U127
 10
0.0
 20
0.0
 30
0.0
  0
POINT
  5
CDF1
  8
DEFPOINTS
 62
     0
 10
-387.12089157709249
 20
839.57969957928674
 30
0.0
  0
POINT
  5
CDF2
  8
DEFPOINTS
 62
     0
 10
-388.06976839699172
 20
837.76944803541039
 30
0.0
  0
POINT
  5
CDF3
  8
DEFPOINTS
 62
     0
 10
-386.47656531196009
 20
837.76944803541039
 30
0.0
  0
ENDBLK
  5
CDEA
  8
0
  0
BLOCK
  8
0
  2
*D79
 70
     1
 10
0.0
 20
0.0
 30
0.0
  3
*D79
  1

  0
LINE
  5
11681
  8
0
 62
     0
 10
-365.81818307486373
 20
427.35429858331162
 30
0.0
 11
-366.93955544547038
 21
427.35429858331162
 31
0.0
  0
LINE
  5
11682
  8
0
 62
     0
 10
-365.81818307486373
 20
425.60429858331167
 30
0.0
 11
-366.93955544547038
 21
425.60429858331167
 31
0.0
  0
LINE
  5
11683
  8
0
 62
     0
 10
-366.87705544547038
 20
427.35429858331162
 30
0.0
 11
-366.87705544547038
 21
425.60429858331167
 31
0.0
  0
INSERT
  5
11684
  8
0
 62
     0
  2
_ARCHTICK
 10
-366.87705544547038
 20
427.35429858331162
 30
0.0
 41
0.046875
 42
0.046875
 43
0.046875
 50
90.0
  0
INSERT
  5
11685
  8
0
 62
     0
  2
_ARCHTICK
 10
-366.87705544547038
 20
425.60429858331167
 30
0.0
 41
0.046875
 42
0.046875
 43
0.046875
 50
270.0
  0
INSERT
  5
11686
  8
0
  2
*U176
 10
0.0
 20
0.0
 30
0.0
  0
POINT
  5
11687
  8
DEFPOINTS
 62
     0
 10
-365.72443307486373
 20
427.35429858331162
 30
0.0
  0
POINT
  5
11688
  8
DEFPOINTS
 62
     0
 10
-365.72443307486373
 20
425.60429858331167
 30
0.0
  0
POINT
  5
11689
  8
DEFPOINTS
 62
     0
 10
-366.87705544547038
 20
425.60429858331167
 30
0.0
  0
ENDBLK
  5
1168A
  8
0
  0
BLOCK
  8
0
  2
*D80
 70
     1
 10
0.0
 20
0.0
 30
0.0
  3
*D80
  1

  0
LINE
  5
1168D
  8
0
 62
     0
 10
-364.54417472031452
 20
426.21180552517308
 30
0.0
 11
-364.54417472031452
 21
424.99659347863422
 31
0.0
  0
LINE
  5
1168E
  8
0
 62
     0
 10
-363.66917472031452
 20
426.21180552517308
 30
0.0
 11
-363.66917472031452
 21
424.99659347863422
 31
0.0
  0
LINE
  5
1168F
  8
0
 62
     0
 10
-364.54417472031452
 20
425.05909347863428
 30
0.0
 11
-363.66917472031452
 21
425.05909347863428
 31
0.0
  0
INSERT
  5
11690
  8
0
 62
     0
  2
_ARCHTICK
 10
-364.54417472031452
 20
425.05909347863428
 30
0.0
 41
0.046875
 42
0.046875
 43
0.046875
 50
180.0
  0
INSERT
  5
11691
  8
0
 62
     0
  2
_ARCHTICK
 10
-363.66917472031452
 20
425.05909347863428
 30
0.0
 41
0.046875
 42
0.046875
 43
0.046875
  0
INSERT
  5
11692
  8
0
  2
*U177
 10
0.0
 20
0.0
 30
0.0
  0
POINT
  5
11693
  8
DEFPOINTS
 62
     0
 10
-364.54417472031452
 20
426.30555552517302
 30
0.0
  0
POINT
  5
11694
  8
DEFPOINTS
 62
     0
 10
-363.66917472031452
 20
426.30555552517302
 30
0.0
  0
POINT
  5
11695
  8
DEFPOINTS
 62
     0
 10
-363.66917472031452
 20
425.05909347863428
 30
0.0
  0
ENDBLK
  5
11696
  8
0
  0
BLOCK
  8
0
  2
*D81
 70
     1
 10
0.0
 20
0.0
 30
0.0
  3
*D81
  1

  0
LINE
  5
11699
  8
0
 62
     0
 10
-363.88792472031452
 20
427.24305552517302
 30
0.0
 11
-362.93745003010213
 21
427.24305552517302
 31
0.0
  0
LINE
  5
1169A
  8
0
 62
     0
 10
-364.0129247203148
 20
425.72929858331162
 30
0.0
 11
-362.93745003010213
 21
425.72929858331162
 31
0.0
  0
LINE
  5
1169B
  8
0
 62
     0
 10
-362.99995003010213
 20
427.24305552517302
 30
0.0
 11
-362.99995003010213
 21
425.72929858331162
 31
0.0
  0
INSERT
  5
1169C
  8
0
 62
     0
  2
_ARCHTICK
 10
-362.99995003010213
 20
427.24305552517302
 30
0.0
 41
0.046875
 42
0.046875
 43
0.046875
 50
90.0
  0
INSERT
  5
1169D
  8
0
 62
     0
  2
_ARCHTICK
 10
-362.99995003010213
 20
425.72929858331162
 30
0.0
 41
0.046875
 42
0.046875
 43
0.046875
 50
270.0
  0
INSERT
  5
1169E
  8
0
  2
*U178
 10
0.0
 20
0.0
 30
0.0
  0
POINT
  5
1169F
  8
DEFPOINTS
 62
     0
 10
-363.98167472031452
 20
427.24305552517302
 30
0.0
  0
POINT
  5
116A0
  8
DEFPOINTS
 62
     0
 10
-364.1066747203148
 20
425.72929858331162
 30
0.0
  0
POINT
  5
116A1
  8
DEFPOINTS
 62
     0
 10
-362.99995003010213
 20
425.72929858331162
 30
0.0
  0
ENDBLK
  5
116A2
  8
0
  0
BLOCK
  8
0
  2
*D83
 70
     1
 10
0.0
 20
0.0
 30
0.0
  3
*D83
  1

  0
LINE
  5
11701
  8
0
 62
     0
 10
-386.76054169220339
 20
839.74518098663441
 30
0.0
 11
-387.88191406281021
 21
839.74518098663441
 31
0.0
  0
LINE
  5
11702
  8
0
 62
     0
 10
-386.76054169220339
 20
837.99518098663441
 30
0.0
 11
-387.88191406281021
 21
837.99518098663441
 31
0.0
  0
LINE
  5
11703
  8
0
 62
     0
 10
-387.81941406281021
 20
839.74518098663441
 30
0.0
 11
-387.81941406281021
 21
837.99518098663441
 31
0.0
  0
INSERT
  5
11704
  8
0
 62
     0
  2
_ARCHTICK
 10
-387.81941406281021
 20
839.74518098663441
 30
0.0
 41
0.046875
 42
0.046875
 43
0.046875
 50
90.0
  0
INSERT
  5
11705
  8
0
 62
     0
  2
_ARCHTICK
 10
-387.81941406281021
 20
837.99518098663441
 30
0.0
 41
0.046875
 42
0.046875
 43
0.046875
 50
270.0
  0
INSERT
  5
11706
  8
0
  2
*U179
 10
0.0
 20
0.0
 30
0.0
  0
POINT
  5
11707
  8
DEFPOINTS
 62
     0
 10
-386.66679169220339
 20
839.74518098663441
 30
0.0
  0
POINT
  5
11708
  8
DEFPOINTS
 62
     0
 10
-386.66679169220339
 20
837.99518098663441
 30
0.0
  0
POINT
  5
11709
  8
DEFPOINTS
 62
     0
 10
-387.81941406281021
 20
837.99518098663441
 30
0.0
  0
ENDBLK
  5
116E8
  8
0
  0
BLOCK
  8
0
  2
*D84
 70
     1
 10
0.0
 20
0.0
 30
0.0
  3
*D84
  1

  0
LINE
  5
1170A
  8
0
 62
     0
 10
-385.48653333765429
 20
838.60268792849581
 30
0.0
 11
-385.48653333765429
 21
837.3874758819569
 31
0.0
  0
LINE
  5
1170B
  8
0
 62
     0
 10
-384.61153333765429
 20
838.60268792849581
 30
0.0
 11
-384.61153333765429
 21
837.3874758819569
 31
0.0
  0
LINE
  5
1170C
  8
0
 62
     0
 10
-385.48653333765429
 20
837.44997588195702
 30
0.0
 11
-384.61153333765429
 21
837.44997588195702
 31
0.0
  0
INSERT
  5
1170D
  8
0
 62
     0
  2
_ARCHTICK
 10
-385.48653333765429
 20
837.44997588195702
 30
0.0
 41
0.046875
 42
0.046875
 43
0.046875
 50
180.0
  0
INSERT
  5
1170E
  8
0
 62
     0
  2
_ARCHTICK
 10
-384.61153333765429
 20
837.44997588195702
 30
0.0
 41
0.046875
 42
0.046875
 43
0.046875
  0
INSERT
  5
1170F
  8
0
  2
*U180
 10
0.0
 20
0.0
 30
0.0
  0
POINT
  5
11710
  8
DEFPOINTS
 62
     0
 10
-385.48653333765429
 20
838.6964379284957
 30
0.0
  0
POINT
  5
11711
  8
DEFPOINTS
 62
     0
 10
-384.61153333765429
 20
838.6964379284957
 30
0.0
  0
POINT
  5
11712
  8
DEFPOINTS
 62
     0
 10
-384.61153333765429
 20
837.44997588195702
 30
0.0
  0
ENDBLK
  5
116F4
  8
0
  0
BLOCK
  8
0
  2
*D85
 70
     1
 10
0.0
 20
0.0
 30
0.0
  3
*D85
  1

  0
LINE
  5
11713
  8
0
 62
     0
 10
-384.83028333765429
 20
839.63393792849581
 30
0.0
 11
-383.87980864744191
 21
839.63393792849581
 31
0.0
  0
LINE
  5
11714
  8
0
 62
     0
 10
-384.95528333765452
 20
838.1201809866343
 30
0.0
 11
-383.87980864744191
 21
838.1201809866343
 31
0.0
  0
LINE
  5
11715
  8
0
 62
     0
 10
-383.94230864744191
 20
839.63393792849581
 30
0.0
 11
-383.94230864744191
 21
838.1201809866343
 31
0.0
  0
INSERT
  5
11716
  8
0
 62
     0
  2
_ARCHTICK
 10
-383.94230864744191
 20
839.63393792849581
 30
0.0
 41
0.046875
 42
0.046875
 43
0.046875
 50
90.0
  0
INSERT
  5
11717
  8
0
 62
     0
  2
_ARCHTICK
 10
-383.94230864744191
 20
838.1201809866343
 30
0.0
 41
0.046875
 42
0.046875
 43
0.046875
 50
270.0
  0
INSERT
  5
11718
  8
0
  2
*U181
 10
0.0
 20
0.0
 30
0.0
  0
POINT
  5
11719
  8
DEFPOINTS
 62
     0
 10
-384.92403333765429
 20
839.63393792849581
 30
0.0
  0
POINT
  5
1171A
  8
DEFPOINTS
 62
     0
 10
-385.04903333765452
 20
838.1201809866343
 30
0.0
  0
POINT
  5
1171B
  8
DEFPOINTS
 62
     0
 10
-383.94230864744191
 20
838.1201809866343
 30
0.0
  0
ENDBLK
  5
11700
  8
0
  0
BLOCK
  8
0
  2
*D87
 70
     1
 10
0.0
 20
0.0
 30
0.0
  3
*D87
  1

  0
LINE
  5
11B0C
  8
0
 62
     0
 10
-321.4967715029747
 20
426.11559169813472
 30
0.0
 11
-323.04650060770268
 21
426.11559169813472
 31
0.0
  0
LINE
  5
11B0D
  8
0
 62
     0
 10
-321.4967715029747
 20
424.36559169813472
 30
0.0
 11
-323.04650060770268
 21
424.36559169813472
 31
0.0
  0
LINE
  5
11B0E
  8
0
 62
     0
 10
-322.98400060770268
 20
426.11559169813472
 30
0.0
 11
-322.98400060770268
 21
424.36559169813472
 31
0.0
  0
INSERT
  5
11B0F
  8
0
 62
     0
  2
_ARCHTICK
 10
-322.98400060770268
 20
426.11559169813472
 30
0.0
 41
0.046875
 42
0.046875
 43
0.046875
 50
90.0
  0
INSERT
  5
11B10
  8
0
 62
     0
  2
_ARCHTICK
 10
-322.98400060770268
 20
424.36559169813472
 30
0.0
 41
0.046875
 42
0.046875
 43
0.046875
 50
270.0
  0
INSERT
  5
11B11
  8
0
  2
*U182
 10
0.0
 20
0.0
 30
0.0
  0
POINT
  5
11B12
  8
DEFPOINTS
 62
     0
 10
-321.4030215029747
 20
426.11559169813472
 30
0.0
  0
POINT
  5
11B13
  8
DEFPOINTS
 62
     0
 10
-321.4030215029747
 20
424.36559169813472
 30
0.0
  0
POINT
  5
11B14
  8
DEFPOINTS
 62
     0
 10
-322.98400060770268
 20
424.36559169813472
 30
0.0
  0
ENDBLK
  5
11B15
  8
0
  0
BLOCK
  8
0
  2
*D88
 70
     1
 10
0.0
 20
0.0
 30
0.0
  3
*D88
  1

  0
LINE
  5
11B18
  8
0
 62
     0
 10
-319.28256169396042
 20
425.92809169813472
 30
0.0
 11
-318.41048055355549
 21
425.92809169813472
 31
0.0
  0
LINE
  5
11B19
  8
0
 62
     0
 10
-319.28256169396042
 20
424.55309169813472
 30
0.0
 11
-318.41048055355549
 21
424.55309169813472
 31
0.0
  0
LINE
  5
11B1A
  8
0
 62
     0
 10
-318.47298055355549
 20
425.92809169813472
 30
0.0
 11
-318.47298055355549
 21
424.55309169813472
 31
0.0
  0
INSERT
  5
11B1B
  8
0
 62
     0
  2
_ARCHTICK
 10
-318.47298055355549
 20
425.92809169813472
 30
0.0
 41
0.046875
 42
0.046875
 43
0.046875
 50
90.0
  0
INSERT
  5
11B1C
  8
0
 62
     0
  2
_ARCHTICK
 10
-318.47298055355549
 20
424.55309169813472
 30
0.0
 41
0.046875
 42
0.046875
 43
0.046875
 50
270.0
  0
INSERT
  5
11B1D
  8
0
  2
*U183
 10
0.0
 20
0.0
 30
0.0
  0
POINT
  5
11B1E
  8
DEFPOINTS
 62
     0
 10
-319.37631169396042
 20
425.92809169813472
 30
0.0
  0
POINT
  5
11B1F
  8
DEFPOINTS
 62
     0
 10
-319.37631169396042
 20
424.55309169813472
 30
0.0
  0
POINT
  5
11B20
  8
DEFPOINTS
 62
     0
 10
-318.47298055355549
 20
424.55309169813472
 30
0.0
  0
ENDBLK
  5
11B21
  8
0
  0
BLOCK
  8
0
  2
*D90
 70
     1
 10
0.0
 20
0.0
 30
0.0
  3
*D90
  1

  0
LINE
  5
11B82
  8
0
 62
     0
 10
-385.93155206415412
 20
839.89288512488679
 30
0.0
 11
-387.48128116888211
 21
839.89288512488679
 31
0.0
  0
LINE
  5
11B83
  8
0
 62
     0
 10
-385.93155206415412
 20
838.14288512488679
 30
0.0
 11
-387.48128116888211
 21
838.14288512488679
 31
0.0
  0
LINE
  5
11B84
  8
0
 62
     0
 10
-387.41878116888211
 20
839.89288512488679
 30
0.0
 11
-387.41878116888211
 21
838.14288512488679
 31
0.0
  0
INSERT
  5
11B85
  8
0
 62
     0
  2
_ARCHTICK
 10
-387.41878116888211
 20
839.89288512488679
 30
0.0
 41
0.046875
 42
0.046875
 43
0.046875
 50
90.0
  0
INSERT
  5
11B86
  8
0
 62
     0
  2
_ARCHTICK
 10
-387.41878116888211
 20
838.14288512488679
 30
0.0
 41
0.046875
 42
0.046875
 43
0.046875
 50
270.0
  0
INSERT
  5
11B87
  8
0
  2
*U184
 10
0.0
 20
0.0
 30
0.0
  0
POINT
  5
11B88
  8
DEFPOINTS
 62
     0
 10
-385.83780206415412
 20
839.89288512488679
 30
0.0
  0
POINT
  5
11B89
  8
DEFPOINTS
 62
     0
 10
-385.83780206415412
 20
838.14288512488679
 30
0.0
  0
POINT
  5
11B8A
  8
DEFPOINTS
 62
     0
 10
-387.41878116888211
 20
838.14288512488679
 30
0.0
  0
ENDBLK
  5
11B75
  8
0
  0
BLOCK
  8
0
  2
*D91
 70
     1
 10
0.0
 20
0.0
 30
0.0
  3
*D91
  1

  0
LINE
  5
11B8B
  8
0
 62
     0
 10
-383.71734225513978
 20
839.70538512488679
 30
0.0
 11
-382.84526111473491
 21
839.70538512488679
 31
0.0
  0
LINE
  5
11B8C
  8
0
 62
     0
 10
-383.71734225513978
 20
838.33038512488679
 30
0.0
 11
-382.84526111473491
 21
838.33038512488679
 31
0.0
  0
LINE
  5
11B8D
  8
0
 62
     0
 10
-382.90776111473491
 20
839.70538512488679
 30
0.0
 11
-382.90776111473491
 21
838.33038512488679
 31
0.0
  0
INSERT
  5
11B8E
  8
0
 62
     0
  2
_ARCHTICK
 10
-382.90776111473491
 20
839.70538512488679
 30
0.0
 41
0.046875
 42
0.046875
 43
0.046875
 50
90.0
  0
INSERT
  5
11B8F
  8
0
 62
     0
  2
_ARCHTICK
 10
-382.90776111473491
 20
838.33038512488679
 30
0.0
 41
0.046875
 42
0.046875
 43
0.046875
 50
270.0
  0
INSERT
  5
11B90
  8
0
  2
*U185
 10
0.0
 20
0.0
 30
0.0
  0
POINT
  5
11B91
  8
DEFPOINTS
 62
     0
 10
-383.81109225513978
 20
839.70538512488679
 30
0.0
  0
POINT
  5
11B92
  8
DEFPOINTS
 62
     0
 10
-383.81109225513978
 20
838.33038512488679
 30
0.0
  0
POINT
  5
11B93
  8
DEFPOINTS
 62
     0
 10
-382.90776111473491
 20
838.33038512488679
 30
0.0
  0
ENDBLK
  5
11B81
  8
0
  0
BLOCK
  8
0
  2
*U114
 70
     1
 10
0.0
 20
0.0
 30
0.0
  3
*U114
  1

  0
TEXT
  5
14E74
  8
0
 10
2.0520856342580478
 20
1.4053520973297959
 30
0.0
 40
0.125
  1
Exterior Casing
  0
TEXT
  5
14E75
  8
0
 10
2.0520856342580478
 20
1.1970187639964629
 30
0.0
 40
0.125
  1
TL-180
  0
TEXT
  5
14E76
  8
0
 10
2.0520856342580478
 20
0.9886854306631298
 30
0.0
 40
0.125
  1
1-1/4" x 2"
  0
TEXT
  5
14E77
  8
0
 10
2.0520856342580478
 20
0.7803520973297964
 30
0.0
 40
0.125
  1
800.66.TAGUE
  0
ENDBLK
  5
14E79
  8
0
  0
BLOCK
  8
0
  2
*U115
 70
     1
 10
0.0
 20
0.0
 30
0.0
  3
*U115
  1

  0
TEXT
  5
14E7B
  8
0
 10
1.875832532300876
 20
1.1538771312937111
 30
0.0
 40
0.125
  1
Exterior Casing
  0
TEXT
  5
14E7C
  8
0
 10
1.875832532300876
 20
0.9455437979603782
 30
0.0
 40
0.125
  1
TL-544
  0
TEXT
  5
14E7D
  8
0
 10
1.875832532300876
 20
0.7372104646270449
 30
0.0
 40
0.125
  1
1-1/8" x 1-9/16"
  0
TEXT
  5
14E7E
  8
0
 10
1.875832532300876
 20
0.5288771312937115
 30
0.0
 40
0.125
  1
800.66.TAGUE
  0
ENDBLK
  5
14E80
  8
0
  0
BLOCK
  8
0
  2
*U116
 70
     1
 10
0.0
 20
0.0
 30
0.0
  3
*U116
  1

  0
TEXT
  5
14E82
  8
0
 10
2.2653468102219558
 20
1.612015904330746
 30
0.0
 40
0.125
  1
Exterior Casing
  0
TEXT
  5
14E83
  8
0
 10
2.2653468102219558
 20
1.403682570997413
 30
0.0
 40
0.125
  1
TL-2023
  0
TEXT
  5
14E84
  8
0
 10
2.2653468102219558
 20
1.19534923766408
 30
0.0
 40
0.125
  1
1-13/16" x 3" 
  0
TEXT
  5
14E85
  8
0
 10
2.2653468102219558
 20
0.9870159043307467
 30
0.0
 40
0.125
  1
800.66.TAGUE
  0
ENDBLK
  5
14E87
  8
0
  0
BLOCK
  8
0
  2
*U117
 70
     1
 10
0.0
 20
0.0
 30
0.0
  3
*U117
  1

  0
TEXT
  5
14E89
  8
0
 10
2.0898675486657221
 20
0.9145072342178082
 30
0.0
 40
0.125
  1
Exterior Casing
  0
TEXT
  5
14E8A
  8
0
 10
2.0898675486657221
 20
0.706173900884475
 30
0.0
 40
0.125
  1
TL-2087
  0
TEXT
  5
14E8B
  8
0
 10
2.0898675486657221
 20
0.4978405675511416
 30
0.0
 40
0.125
  1
7/8" x 1-7/16"
  0
TEXT
  5
14E8C
  8
0
 10
2.0898675486657221
 20
0.2895072342178082
 30
0.0
 40
0.125
  1
800.66.TAGUE
  0
ENDBLK
  5
14E8E
  8
0
  0
BLOCK
  8
0
  2
*U118
 70
     1
 10
0.0
 20
0.0
 30
0.0
  3
*U118
  1

  0
TEXT
  5
14E90
  8
0
 10
2.1806631076311191
 20
0.8419101546792263
 30
0.0
 40
0.125
  1
Exterior Casing
  0
TEXT
  5
14E91
  8
0
 10
2.1806631076311191
 20
0.6335768213458931
 30
0.0
 40
0.125
  1
TL-2158
  0
TEXT
  5
14E92
  8
0
 10
2.1806631076311191
 20
0.4252434880125597
 30
0.0
 40
0.125
  1
1-1/16" x 1-5/16"
  0
TEXT
  5
14E93
  8
0
 10
2.1806631076311191
 20
0.2169101546792262
 30
0.0
 40
0.125
  1
800.66.TAGUE
  0
ENDBLK
  5
14E95
  8
0
  0
BLOCK
  8
0
  2
*U119
 70
     1
 10
0.0
 20
0.0
 30
0.0
  3
*U119
  1

  0
TEXT
  5
14E97
  8
0
 10
2.2408536425556909
 20
1.2992247915469759
 30
0.0
 40
0.125
  1
Exterior Casing
  0
TEXT
  5
14E98
  8
0
 10
2.2408536425556909
 20
1.090891458213642
 30
0.0
 40
0.125
  1
TL-2174
  0
TEXT
  5
14E99
  8
0
 10
2.2408536425556909
 20
0.8825581248803095
 30
0.0
 40
0.125
  1
1-3/8" x 1-7/16"
  0
TEXT
  5
14E9A
  8
0
 10
2.2408536425556909
 20
0.6742247915469762
 30
0.0
 40
0.125
  1
800.66.TAGUE
  0
ENDBLK
  5
14E9C
  8
0
  0
BLOCK
  8
0
  2
*U120
 70
     1
 10
0.0
 20
0.0
 30
0.0
  3
*U120
  1

  0
TEXT
  5
14E9E
  8
0
 10
2.8048346441314029
 20
1.129982283289336
 30
0.0
 40
0.125
  1
Exterior Casing
  0
TEXT
  5
14E9F
  8
0
 10
2.8048346441314029
 20
0.9216489499560037
 30
0.0
 40
0.125
  1
TL-2175
  0
TEXT
  5
14EA0
  8
0
 10
2.8048346441314029
 20
0.7133156166226704
 30
0.0
 40
0.125
  1
1-9/32" x 1-29/32"
  0
TEXT
  5
14EA1
  8
0
 10
2.8048346441314029
 20
0.504982283289337
 30
0.0
 40
0.125
  1
800.66.TAGUE
  0
ENDBLK
  5
14EA3
  8
0
  0
BLOCK
  8
0
  2
*U121
 70
     1
 10
0.0
 20
0.0
 30
0.0
  3
*U121
  1

  0
TEXT
  5
14EA5
  8
0
 10
2.5484960182450891
 20
0.679430053902138
 30
0.0
 40
0.125
  1
Exterior Casing
  0
TEXT
  5
14EA6
  8
0
 10
2.5484960182450891
 20
0.4710967205688046
 30
0.0
 40
0.125
  1
TL-2176
  0
TEXT
  5
14EA7
  8
0
 10
2.5484960182450891
 20
0.2627633872354712
 30
0.0
 40
0.125
  1
19/32" x 1-5/8"
  0
TEXT
  5
14EA8
  8
0
 10
2.5484960182450891
 20
0.0544300539021379
 30
0.0
 40
0.125
  1
800.66.TAGUE
  0
ENDBLK
  5
14EAA
  8
0
  0
BLOCK
  8
0
  2
*U122
 70
     1
 10
0.0
 20
0.0
 30
0.0
  3
*U122
  1

  0
TEXT
  5
14EAC
  8
0
 10
2.105732231568993
 20
0.7255830389262883
 30
0.0
 40
0.125
  1
Exterior Casing
  0
TEXT
  5
14EAD
  8
0
 10
2.105732231568993
 20
0.5172497055929551
 30
0.0
 40
0.125
  1
TL-2108
  0
TEXT
  5
14EAE
  8
0
 10
2.105732231568993
 20
0.3089163722596217
 30
0.0
 40
0.125
  1
15/16" x 1-1/16"
  0
TEXT
  5
14EAF
  8
0
 10
2.105732231568993
 20
0.1005830389262883
 30
0.0
 40
0.125
  1
800.66.TAGUE
  0
ENDBLK
  5
14EB1
  8
0
  0
BLOCK
  8
0
  2
*U123
 70
     1
 10
0.0
 20
0.0
 30
0.0
  3
*U123
  1

  0
TEXT
  5
14EB3
  8
0
 10
0.0469294570366401
 20
0.67943073463357
 30
0.0
 40
0.125
  1
Exterior Casing
  0
TEXT
  5
14EB4
  8
0
 10
0.0469294570366401
 20
0.4710974013002366
 30
0.0
 40
0.125
  1
TL-2206
  0
TEXT
  5
14EB5
  8
0
 10
0.0469294570366401
 20
0.2627640679669033
 30
0.0
 40
0.125
  1
1-3/32" x 1-23/32"
  0
TEXT
  5
14EB6
  8
0
 10
0.0469294570366401
 20
0.05443073463357
 30
0.0
 40
0.125
  1
800.66.TAGUE
  0
ENDBLK
  5
14EB8
  8
0
  0
BLOCK
  8
0
  2
*U124
 70
     1
 10
0.0
 20
0.0
 30
0.0
  3
*U124
  1

  0
TEXT
  5
14EBA
  8
0
 10
0.0449853036485593
 20
0.6794309447934666
 30
0.0
 40
0.125
  1
Exterior Casing
  0
TEXT
  5
14EBB
  8
0
 10
0.0449853036485593
 20
0.4710976114601333
 30
0.0
 40
0.125
  1
TL-2207
  0
TEXT
  5
14EBC
  8
0
 10
0.0449853036485593
 20
0.2627642781267999
 30
0.0
 40
0.125
  1
1-1/8" x 2-15/16"
  0
TEXT
  5
14EBD
  8
0
 10
0.0449853036485593
 20
0.0544309447934666
 30
0.0
 40
0.125
  1
800.66.TAGUE
  0
ENDBLK
  5
14EBF
  8
0
  0
BLOCK
  8
0
  2
*U125
 70
     1
 10
0.0
 20
0.0
 30
0.0
  3
*U125
  1

  0
TEXT
  5
14EC1
  8
0
 62
     0
 10
-346.15979271546257
 20
508.16262619726342
 30
0.0
 40
0.125
  1
Cutter
 50
90.0
  0
ENDBLK
  5
14EC3
  8
0
  0
BLOCK
  8
0
  2
*U126
 70
     1
 10
0.0
 20
0.0
 30
0.0
  3
*U126
  1

  0
TEXT
  5
14EC5
  8
0
 10
3.5112004937425918
 20
2.3236705000861089
 30
0.0
 40
0.125
  1
Exterior Casing
  0
TEXT
  5
14EC6
  8
0
 10
3.5112004937425918
 20
2.1153371667527749
 30
0.0
 40
0.125
  1
TL-2242
  0
TEXT
  5
14EC7
  8
0
 10
3.5112004937425918
 20
1.9070038334194419
 30
0.0
 40
0.125
  1
2" x 4-1/2"
  0
TEXT
  5
14EC8
  8
0
 10
3.5112004937425918
 20
1.6986705000861091
 30
0.0
 40
0.125
  1
800.66.TAGUE
  0
ENDBLK
  5
14ECA
  8
0
  0
BLOCK
  8
0
  2
*U127
 70
     1
 10
0.0
 20
0.0
 30
0.0
  3
*U127
  1

  0
TEXT
  5
14ECC
  8
0
 62
     0
 10
-386.5390653119602
 20
838.32040714068194
 30
0.0
 40
0.125
  1
Cutter
 50
90.0
  0
ENDBLK
  5
14ECE
  8
0
  0
BLOCK
  8
0
  2
*U128
 70
     1
 10
0.0
 20
0.0
 30
0.0
  3
*U128
  1

  0
TEXT
  5
14ED0
  8
0
 10
1.983241637717696
 20
1.2297917133489591
 30
0.0
 40
0.125
  1
Exterior Casing
  0
TEXT
  5
14ED1
  8
0
 10
1.983241637717696
 20
1.0214583800156249
 30
0.0
 40
0.125
  1
TL-2254
  0
TEXT
  5
14ED2
  8
0
 10
1.983241637717696
 20
0.8131250466822924
 30
0.0
 40
0.125
  1
1-1/4" x 1-3/4"
  0
TEXT
  5
14ED3
  8
0
 10
1.983241637717696
 20
0.6047917133489591
 30
0.0
 40
0.125
  1
800.66.TAGUE
  0
ENDBLK
  5
14ED5
  8
0
  0
BLOCK
  8
0
  2
*U129
 70
     1
 10
0.0
 20
0.0
 30
0.0
  3
*U129
  1

  0
TEXT
  5
14ED7
  8
0
 10
2.2285402119240412
 20
3.7215677387475798
 30
0.0
 40
0.125
  1
Exterior Jamb
  0
TEXT
  5
14ED8
  8
0
 10
2.2285402119240412
 20
3.5132344054142468
 30
0.0
 40
0.125
  1
TL-2126
  0
TEXT
  5
14ED9
  8
0
 10
2.2285402119240412
 20
3.3049010720809142
 30
0.0
 40
0.125
  1
1-1/4" x 6-5/8"
  0
TEXT
  5
14EDA
  8
0
 10
2.2285402119240412
 20
3.0965677387475798
 30
0.0
 40
0.125
  1
800.66.TAGUE
  0
ENDBLK
  5
14EDC
  8
0
  0
BLOCK
  8
0
  2
*U130
 70
     1
 10
0.0
 20
0.0
 30
0.0
  3
*U130
  1

  0
TEXT
  5
14EDE
  8
0
 10
2.025590122046196
 20
3.8877018206065941
 30
0.0
 40
0.125
  1
Exterior Jamb
  0
TEXT
  5
14EDF
  8
0
 10
2.025590122046196
 20
3.6793684872732602
 30
0.0
 40
0.125
  1
TL-2127
  0
TEXT
  5
14EE0
  8
0
 10
2.025590122046196
 20
3.4710351539399271
 30
0.0
 40
0.125
  1
1-1/4" x 6-5/8"
  0
TEXT
  5
14EE1
  8
0
 10
2.025590122046196
 20
3.2627018206065941
 30
0.0
 40
0.125
  1
800.66.TAGUE
  0
ENDBLK
  5
14EE3
  8
0
  0
BLOCK
  8
0
  2
*U131
 70
     1
 10
0.0
 20
0.0
 30
0.0
  3
*U131
  1

  0
TEXT
  5
14EE5
  8
0
 10
1.8279899277385421
 20
2.0085009357213721
 30
0.0
 40
0.125
  1
Fluting
  0
TEXT
  5
14EE6
  8
0
 10
1.8279899277385421
 20
1.800167602388038
 30
0.0
 40
0.125
  1
TL-123
  0
TEXT
  5
14EE7
  8
0
 10
1.8279899277385421
 20
1.5918342690547049
 30
0.0
 40
0.125
  1
3/4" x 3-1/2"
  0
TEXT
  5
14EE8
  8
0
 10
1.8279899277385421
 20
1.3835009357213719
 30
0.0
 40
0.125
  1
800.66.TAGUE
  0
ENDBLK
  5
14EEA
  8
0
  0
BLOCK
  8
0
  2
*U132
 70
     1
 10
0.0
 20
0.0
 30
0.0
  3
*U132
  1

  0
TEXT
  5
14EEC
  8
0
 10
1.9710461263608181
 20
3.9608870512416838
 30
0.0
 40
0.125
  1
Fluting
  0
TEXT
  5
14EED
  8
0
 10
1.9710461263608181
 20
3.7525537179083499
 30
0.0
 40
0.125
  1
TL-343
  0
TEXT
  5
14EEE
  8
0
 10
1.9710461263608181
 20
3.5442203845750169
 30
0.0
 40
0.125
  1
7/8" x 7-3/16"
  0
TEXT
  5
14EEF
  8
0
 10
1.9710461263608181
 20
3.3358870512416838
 30
0.0
 40
0.125
  1
800.66.TAGUE
  0
ENDBLK
  5
14EF1
  8
0
  0
BLOCK
  8
0
  2
*U133
 70
     1
 10
0.0
 20
0.0
 30
0.0
  3
*U133
  1

  0
TEXT
  5
14EF3
  8
0
 10
1.4662897697170929
 20
3.8395028676267202
 30
0.0
 40
0.125
  1
Fluting
  0
TEXT
  5
14EF4
  8
0
 10
1.4662897697170929
 20
3.6311695342933858
 30
0.0
 40
0.125
  1
TL-2183
  0
TEXT
  5
14EF5
  8
0
 10
1.4662897697170929
 20
3.4228362009600528
 30
0.0
 40
0.125
  1
3/4" x 7-1/4"
  0
TEXT
  5
14EF6
  8
0
 10
1.4662897697170929
 20
3.2145028676267202
 30
0.0
 40
0.125
  1
800.66.TAGUE
  0
ENDBLK
  5
14EF8
  8
0
  0
BLOCK
  8
0
  2
*U134
 70
     1
 10
0.0
 20
0.0
 30
0.0
  3
*U134
  1

  0
TEXT
  5
14EFA
  8
0
 10
2.0951853732560148
 20
2.6676693683394879
 30
0.0
 40
0.125
  1
Fluting
  0
TEXT
  5
14EFB
  8
0
 10
2.0951853732560148
 20
2.4593360350061548
 30
0.0
 40
0.125
  1
TL-2276
  0
TEXT
  5
14EFC
  8
0
 10
2.0951853732560148
 20
2.2510027016728218
 30
0.0
 40
0.125
  1
11/16" x 3"
  0
TEXT
  5
14EFD
  8
0
 10
2.0951853732560148
 20
2.0426693683394879
 30
0.0
 40
0.125
  1
800.66.TAGUE
  0
ENDBLK
  5
14EFF
  8
0
  0
BLOCK
  8
0
  2
*U135
 70
     1
 10
0.0
 20
0.0
 30
0.0
  3
*U135
  1

  0
TEXT
  5
14F01
  8
0
 10
2.4586482925877808
 20
1.0775582798773931
 30
0.0
 40
0.125
  1
Full Round
  0
TEXT
  5
14F02
  8
0
 10
2.4586482925877808
 20
0.8692249465440607
 30
0.0
 40
0.125
  1
TL-232
  0
TEXT
  5
14F03
  8
0
 10
2.4586482925877808
 20
0.6608916132107274
 30
0.0
 40
0.125
  1
1-7/16" x 1-7/16"
  0
TEXT
  5
14F04
  8
0
 10
2.4586482925877808
 20
0.452558279877394
 30
0.0
 40
0.125
  1
800.66.TAGUE
  0
ENDBLK
  5
14F06
  8
0
  0
BLOCK
  8
0
  2
*U136
 70
     1
 10
0.0
 20
0.0
 30
0.0
  3
*U136
  1

  0
TEXT
  5
14F08
  8
0
 10
2.339763263951113
 20
0.912090443150646
 30
0.0
 40
0.125
  1
Full Round
  0
TEXT
  5
14F09
  8
0
 10
2.339763263951113
 20
0.7037571098173128
 30
0.0
 40
0.125
  1
TL-233
  0
TEXT
  5
14F0A
  8
0
 10
2.339763263951113
 20
0.4954237764839795
 30
0.0
 40
0.125
  1
1-3/16" x 1-3/16"
  0
TEXT
  5
14F0B
  8
0
 10
2.339763263951113
 20
0.287090443150646
 30
0.0
 40
0.125
  1
800.66.TAGUE
  0
ENDBLK
  5
14F0D
  8
0
  0
BLOCK
  8
0
  2
*U137
 70
     1
 10
0.0
 20
0.0
 30
0.0
  3
*U137
  1

  0
TEXT
  5
14F0F
  8
0
 10
2.2927598682417729
 20
0.8643692839127652
 30
0.0
 40
0.125
  1
Full Round
  0
TEXT
  5
14F10
  8
0
 10
2.2927598682417729
 20
0.6560359505794321
 30
0.0
 40
0.125
  1
TL-234
  0
TEXT
  5
14F11
  8
0
 10
2.2927598682417729
 20
0.4477026172460987
 30
0.0
 40
0.125
  1
1-1/16" x 1-1/16"
  0
TEXT
  5
14F12
  8
0
 10
2.2927598682417729
 20
0.2393692839127652
 30
0.0
 40
0.125
  1
800.66.TAGUE
  0
ENDBLK
  5
14F14
  8
0
  0
BLOCK
  8
0
  2
*U138
 70
     1
 10
0.0
 20
0.0
 30
0.0
  3
*U138
  1

  0
TEXT
  5
14F16
  8
0
 10
2.0765905058337921
 20
1.0252762384561711
 30
0.0
 40
0.125
  1
Glass Bead
  0
TEXT
  5
14F17
  8
0
 10
2.0765905058337921
 20
0.8169429051228387
 30
0.0
 40
0.125
  1
TL-145
  0
TEXT
  5
14F18
  8
0
 10
2.0765905058337921
 20
0.6086095717895054
 30
0.0
 40
0.125
  1
11/16" x 3/4"
  0
TEXT
  5
14F19
  8
0
 10
2.0765905058337921
 20
0.400276238456172
 30
0.0
 40
0.125
  1
800.66.TAGUE
  0
ENDBLK
  5
14F1B
  8
0
  0
BLOCK
  8
0
  2
*U139
 70
     1
 10
0.0
 20
0.0
 30
0.0
  3
*U139
  1

  0
TEXT
  5
14F1D
  8
0
 10
1.468683703905185
 20
0.7455079879047162
 30
0.0
 40
0.125
  1
Glass Bead
  0
TEXT
  5
14F1E
  8
0
 10
1.468683703905185
 20
0.537174654571383
 30
0.0
 40
0.125
  1
TL-147
  0
TEXT
  5
14F1F
  8
0
 10
1.468683703905185
 20
0.3288413212380496
 30
0.0
 40
0.125
  1
1/2" x 9/16"
  0
TEXT
  5
14F20
  8
0
 10
1.468683703905185
 20
0.1205079879047162
 30
0.0
 40
0.125
  1
800.66.TAGUE
  0
ENDBLK
  5
14F22
  8
0
  0
BLOCK
  8
0
  2
*U140
 70
     1
 10
0.0
 20
0.0
 30
0.0
  3
*U140
  1

  0
TEXT
  5
14F24
  8
0
 10
1.584020839760341
 20
0.6794303041602916
 30
0.0
 40
0.125
  1
Glass Bead
  0
TEXT
  5
14F25
  8
0
 10
1.584020839760341
 20
0.4710969708269583
 30
0.0
 40
0.125
  1
TL-152
  0
TEXT
  5
14F26
  8
0
 10
1.584020839760341
 20
0.262763637493625
 30
0.0
 40
0.125
  1
3/8" x 11/16"
  0
TEXT
  5
14F27
  8
0
 10
1.584020839760341
 20
0.0544303041602916
 30
0.0
 40
0.125
  1
800.66.TAGUE
  0
ENDBLK
  5
14F29
  8
0
  0
BLOCK
  8
0
  2
*U141
 70
     1
 10
0.0
 20
0.0
 30
0.0
  3
*U141
  1

  0
TEXT
  5
14F2B
  8
0
 10
1.3526095965341931
 20
0.7381811042487243
 30
0.0
 40
0.125
  1
Glass Bead
  0
TEXT
  5
14F2C
  8
0
 10
1.3526095965341931
 20
0.5298477709153912
 30
0.0
 40
0.125
  1
TL-2142
  0
TEXT
  5
14F2D
  8
0
 10
1.3526095965341931
 20
0.3215144375820577
 30
0.0
 40
0.125
  1
11/32" x 29/32"
  0
TEXT
  5
14F2E
  8
0
 10
1.3526095965341931
 20
0.1131811042487243
 30
0.0
 40
0.125
  1
800.66.TAGUE
  0
ENDBLK
  5
14F30
  8
0
  0
BLOCK
  8
0
  2
*U142
 70
     1
 10
0.0
 20
0.0
 30
0.0
  3
*U142
  1

  0
TEXT
  5
14F32
  8
0
 10
1.3435544091540801
 20
0.6794309539541246
 30
0.0
 40
0.125
  1
Glass Bead
  0
TEXT
  5
14F33
  8
0
 10
1.3435544091540801
 20
0.4710976206207913
 30
0.0
 40
0.125
  1
TL-2149
  0
TEXT
  5
14F34
  8
0
 10
1.3435544091540801
 20
0.2627642872874579
 30
0.0
 40
0.125
  1
3/8" x 1/2"
  0
TEXT
  5
14F35
  8
0
 10
1.3435544091540801
 20
0.0544309539541246
 30
0.0
 40
0.125
  1
800.66.TAGUE
  0
ENDBLK
  5
14F37
  8
0
  0
BLOCK
  8
0
  2
*U143
 70
     1
 10
0.0
 20
0.0
 30
0.0
  3
*U143
  1

  0
TEXT
  5
14F39
  8
0
 10
1.488844305553698
 20
0.6807937379744545
 30
0.0
 40
0.125
  1
Glass Bead
  0
TEXT
  5
14F3A
  8
0
 10
1.488844305553698
 20
0.4724604046411212
 30
0.0
 40
0.125
  1
TL-2155
  0
TEXT
  5
14F3B
  8
0
 10
1.488844305553698
 20
0.2641270713077878
 30
0.0
 40
0.125
  1
1/2" x 13/16"
  0
TEXT
  5
14F3C
  8
0
 10
1.488844305553698
 20
0.0557937379744544
 30
0.0
 40
0.125
  1
800.66.TAGUE
  0
ENDBLK
  5
14F3E
  8
0
  0
BLOCK
  8
0
  2
*U144
 70
     1
 10
0.0
 20
0.0
 30
0.0
  3
*U144
  1

  0
TEXT
  5
14F40
  8
0
 10
1.52304343587059
 20
0.6794307504626432
 30
0.0
 40
0.125
  1
Glass Bead
  0
TEXT
  5
14F41
  8
0
 10
1.52304343587059
 20
0.4710974171293099
 30
0.0
 40
0.125
  1
TL-2218
  0
TEXT
  5
14F42
  8
0
 10
1.52304343587059
 20
0.2627640837959765
 30
0.0
 40
0.125
  1
1/4" x 5/8"
  0
TEXT
  5
14F43
  8
0
 10
1.52304343587059
 20
0.0544307504626431
 30
0.0
 40
0.125
  1
800.66.TAGUE
  0
ENDBLK
  5
14F45
  8
0
  0
BLOCK
  8
0
  2
*U145
 70
     1
 10
0.0
 20
0.0
 30
0.0
  3
*U145
  1

  0
TEXT
  5
14F47
  8
0
 10
2.8235364504146778
 20
0.7161662597191026
 30
0.0
 40
0.125
  1
Half Round
  0
TEXT
  5
14F48
  8
0
 10
2.8235364504146778
 20
0.5078329263857692
 30
0.0
 40
0.125
  1
TL-6
  0
TEXT
  5
14F49
  8
0
 10
2.8235364504146778
 20
0.2994995930524358
 30
0.0
 40
0.125
  1
7/8" x 1-3/4"
  0
TEXT
  5
14F4A
  8
0
 10
2.8235364504146778
 20
0.0911662597191025
 30
0.0
 40
0.125
  1
800.66.TAGUE
  0
ENDBLK
  5
14F4C
  8
0
  0
BLOCK
  8
0
  2
*U146
 70
     1
 10
0.0
 20
0.0
 30
0.0
  3
*U146
  1

  0
TEXT
  5
14F4E
  8
0
 10
2.8316039409763221
 20
0.7222806133900122
 30
0.0
 40
0.125
  1
Half Round
  0
TEXT
  5
14F4F
  8
0
 10
2.8316039409763221
 20
0.5139472800566788
 30
0.0
 40
0.125
  1
TL-7
  0
TEXT
  5
14F50
  8
0
 10
2.8316039409763221
 20
0.3056139467233454
 30
0.0
 40
0.125
  1
1" x 2"
  0
TEXT
  5
14F51
  8
0
 10
2.8316039409763221
 20
0.0972806133900122
 30
0.0
 40
0.125
  1
800.66.TAGUE
  0
ENDBLK
  5
14F53
  8
0
  0
BLOCK
  8
0
  2
*U147
 70
     1
 10
0.0
 20
0.0
 30
0.0
  3
*U147
  1

  0
TEXT
  5
14F55
  8
0
 10
4.3092556456276148
 20
0.8292621657587915
 30
0.0
 40
0.125
  1
Half Round
  0
TEXT
  5
14F56
  8
0
 10
4.3092556456276148
 20
0.6209288324254582
 30
0.0
 40
0.125
  1
TL-8
  0
TEXT
  5
14F57
  8
0
 10
4.3092556456276148
 20
0.4125954990921248
 30
0.0
 40
0.125
  1
1-1/2" x 3"
  0
TEXT
  5
14F58
  8
0
 10
4.3092556456276148
 20
0.2042621657587915
 30
0.0
 40
0.125
  1
800.66.TAGUE
  0
ENDBLK
  5
14F5A
  8
0
  0
BLOCK
  8
0
  2
*U148
 70
     1
 10
0.0
 20
0.0
 30
0.0
  3
*U148
  1

  0
TEXT
  5
14F5C
  8
0
 10
2.524104426630799
 20
0.6794299200373644
 30
0.0
 40
0.125
  1
Half Round
  0
TEXT
  5
14F5D
  8
0
 10
2.524104426630799
 20
0.471096586704031
 30
0.0
 40
0.125
  1
TL-116
  0
TEXT
  5
14F5E
  8
0
 10
2.524104426630799
 20
0.2627632533706976
 30
0.0
 40
0.125
  1
3/4" x 1-1/2"
  0
TEXT
  5
14F5F
  8
0
 10
2.524104426630799
 20
0.0544299200373644
 30
0.0
 40
0.125
  1
800.66.TAGUE
  0
ENDBLK
  5
14F61
  8
0
  0
BLOCK
  8
0
  2
*U149
 70
     1
 10
0.0
 20
0.0
 30
0.0
  3
*U149
  1

  0
TEXT
  5
14F63
  8
0
 10
2.4691699319003528
 20
0.6794301275302815
 30
0.0
 40
0.125
  1
Half Round
  0
TEXT
  5
14F64
  8
0
 10
2.4691699319003528
 20
0.4710967941969481
 30
0.0
 40
0.125
  1
TL-119
  0
TEXT
  5
14F65
  8
0
 10
2.4691699319003528
 20
0.2627634608636147
 30
0.0
 40
0.125
  1
5/8" x 1-1/4"
  0
TEXT
  5
14F66
  8
0
 10
2.4691699319003528
 20
0.0544301275302814
 30
0.0
 40
0.125
  1
800.66.TAGUE
  0
ENDBLK
  5
14F68
  8
0
  0
BLOCK
  8
0
  2
*U150
 70
     1
 10
0.0
 20
0.0
 30
0.0
  3
*U150
  1

  0
TEXT
  5
14F6A
  8
0
 10
1.96218194837894
 20
0.679429735423696
 30
0.0
 40
0.125
  1
Half Round
  0
TEXT
  5
14F6B
  8
0
 10
1.96218194837894
 20
0.4710964020903626
 30
0.0
 40
0.125
  1
TL-120
  0
TEXT
  5
14F6C
  8
0
 10
1.96218194837894
 20
0.2627630687570293
 30
0.0
 40
0.125
  1
1/2" x 1"
  0
TEXT
  5
14F6D
  8
0
 10
1.96218194837894
 20
0.054429735423696
 30
0.0
 40
0.125
  1
800.66.TAGUE
  0
ENDBLK
  5
14F6F
  8
0
  0
BLOCK
  8
0
  2
*U151
 70
     1
 10
0.0
 20
0.0
 30
0.0
  3
*U151
  1

  0
TEXT
  5
14F71
  8
0
 10
1.51989036816559
 20
0.679429754589819
 30
0.0
 40
0.125
  1
Half Round
  0
TEXT
  5
14F72
  8
0
 10
1.51989036816559
 20
0.4710964212564856
 30
0.0
 40
0.125
  1
TL-122
  0
TEXT
  5
14F73
  8
0
 10
1.51989036816559
 20
0.2627630879231522
 30
0.0
 40
0.125
  1
11/32" x 11/16"
  0
TEXT
  5
14F74
  8
0
 10
1.51989036816559
 20
0.0544297545898189
 30
0.0
 40
0.125
  1
800.66.TAGUE
  0
ENDBLK
  5
14F76
  8
0
  0
BLOCK
  8
0
  2
*U152
 70
     1
 10
0.0
 20
0.0
 30
0.0
  3
*U152
  1

  0
TEXT
  5
14F78
  8
0
 10
1.332760358760481
 20
0.6794306489528026
 30
0.0
 40
0.125
  1
Half Round
  0
TEXT
  5
14F79
  8
0
 10
1.332760358760481
 20
0.4710973156194692
 30
0.0
 40
0.125
  1
TL-124
  0
TEXT
  5
14F7A
  8
0
 10
1.332760358760481
 20
0.2627639822861358
 30
0.0
 40
0.125
  1
1/4" x 1/2"
  0
TEXT
  5
14F7B
  8
0
 10
1.332760358760481
 20
0.0544306489528026
 30
0.0
 40
0.125
  1
800.66.TAGUE
  0
ENDBLK
  5
14F7D
  8
0
  0
BLOCK
  8
0
  2
*U153
 70
     1
 10
0.0
 20
0.0
 30
0.0
  3
*U153
  1

  0
TEXT
  5
14F7F
  8
0
 10
2.6263646070054838
 20
2.827461056571678
 30
0.0
 40
0.125
  1
Hand Rail
  0
TEXT
  5
14F80
  8
0
 10
2.6263646070054838
 20
2.6191277232383441
 30
0.0
 40
0.125
  1
TL-14
  0
TEXT
  5
14F81
  8
0
 10
2.6263646070054838
 20
2.410794389905011
 30
0.0
 40
0.125
  1
1-5/8" x 5-1/4"
  0
TEXT
  5
14F82
  8
0
 10
2.6263646070054838
 20
2.202461056571678
 30
0.0
 40
0.125
  1
800.66.TAGUE
  0
ENDBLK
  5
14F84
  8
0
  0
BLOCK
  8
0
  2
*U154
 70
     1
 10
0.0
 20
0.0
 30
0.0
  3
*U154
  1

  0
TEXT
  5
14F86
  8
0
 10
2.2830209502855041
 20
2.755934710444194
 30
0.0
 40
0.125
  1
Hand Rail
  0
TEXT
  5
14F87
  8
0
 10
2.2830209502855041
 20
2.5476013771108601
 30
0.0
 40
0.125
  1
TL-15
  0
TEXT
  5
14F88
  8
0
 10
2.2830209502855041
 20
2.3392680437775271
 30
0.0
 40
0.125
  1
1-3/8" x 5-1/2"
  0
TEXT
  5
14F89
  8
0
 10
2.2830209502855041
 20
2.130934710444194
 30
0.0
 40
0.125
  1
800.66.TAGUE
  0
ENDBLK
  5
14F8B
  8
0
  0
BLOCK
  8
0
  2
*U155
 70
     1
 10
0.0
 20
0.0
 30
0.0
  3
*U155
  1

  0
TEXT
  5
14F8D
  8
0
 10
3.5100871080940119
 20
1.046126857764647
 30
0.0
 40
0.125
  1
Hand Rail
  0
TEXT
  5
14F8E
  8
0
 10
3.5100871080940119
 20
0.8377935244313146
 30
0.0
 40
0.125
  1
TL-96
  0
TEXT
  5
14F8F
  8
0
 10
3.5100871080940119
 20
0.6294601910979814
 30
0.0
 40
0.125
  1
1-1/4" x 2-1/4"
  0
TEXT
  5
14F90
  8
0
 10
3.5100871080940119
 20
0.4211268577646479
 30
0.0
 40
0.125
  1
800.66.TAGUE
  0
ENDBLK
  5
14F92
  8
0
  0
BLOCK
  8
0
  2
*U156
 70
     1
 10
0.0
 20
0.0
 30
0.0
  3
*U156
  1

  0
TEXT
  5
14F94
  8
0
 10
2.3417636350062589
 20
4.2171919217870482
 30
0.0
 40
0.125
  1
Hand Rail
  0
TEXT
  5
14F95
  8
0
 10
2.3417636350062589
 20
4.0088585884537151
 30
0.0
 40
0.125
  1
TL-117
  0
TEXT
  5
14F96
  8
0
 10
2.3417636350062589
 20
3.8005252551203812
 30
0.0
 40
0.125
  1
1-1/4" x 8-1/8"
  0
TEXT
  5
14F97
  8
0
 10
2.3417636350062589
 20
3.5921919217870482
 30
0.0
 40
0.125
  1
800.66.TAGUE
  0
ENDBLK
  5
14F99
  8
0
  0
BLOCK
  8
0
  2
*U157
 70
     1
 10
0.0
 20
0.0
 30
0.0
  3
*U157
  1

  0
TEXT
  5
14F9B
  8
0
 10
2.7125232555794119
 20
1.098442957172892
 30
0.0
 40
0.125
  1
Hand Rail
  0
TEXT
  5
14F9C
  8
0
 10
2.7125232555794119
 20
0.8901096238395592
 30
0.0
 40
0.125
  1
TL-231
  0
TEXT
  5
14F9D
  8
0
 10
2.7125232555794119
 20
0.6817762905062259
 30
0.0
 40
0.125
  1
1-1/2" x 1-11/16"
  0
TEXT
  5
14F9E
  8
0
 10
2.7125232555794119
 20
0.4734429571728925
 30
0.0
 40
0.125
  1
800.66.TAGUE
  0
ENDBLK
  5
14FA0
  8
0
  0
BLOCK
  8
0
  2
*U158
 70
     1
 10
0.0
 20
0.0
 30
0.0
  3
*U158
  1

  0
TEXT
  5
14FA2
  8
0
 10
2.960252587020249
 20
0.6772989443436474
 30
0.0
 40
0.125
  1
Lattice
  0
TEXT
  5
14FA3
  8
0
 10
2.960252587020249
 20
0.468965611010314
 30
0.0
 40
0.125
  1
TL-266
  0
TEXT
  5
14FA4
  8
0
 10
2.960252587020249
 20
0.2606322776769806
 30
0.0
 40
0.125
  1
1/4" x 1-5/8"
  0
TEXT
  5
14FA5
  8
0
 10
2.960252587020249
 20
0.0522989443436472
 30
0.0
 40
0.125
  1
800.66.TAGUE
  0
ENDBLK
  5
14FA7
  8
0
  0
BLOCK
  8
0
  2
*U159
 70
     1
 10
0.0
 20
0.0
 30
0.0
  3
*U159
  1

  0
TEXT
  5
14FA9
  8
0
 10
2.5177643903332401
 20
0.6772985360157691
 30
0.0
 40
0.125
  1
Lattice
  0
TEXT
  5
14FAA
  8
0
 10
2.5177643903332401
 20
0.4689652026824358
 30
0.0
 40
0.125
  1
TL-267
  0
TEXT
  5
14FAB
  8
0
 10
2.5177643903332401
 20
0.2606318693491024
 30
0.0
 40
0.125
  1
1/4" x 1-3/8"
  0
TEXT
  5
14FAC
  8
0
 10
2.5177643903332401
 20
0.0522985360157691
 30
0.0
 40
0.125
  1
800.66.TAGUE
  0
ENDBLK
  5
14FAE
  8
0
  0
BLOCK
  8
0
  2
*U160
 70
     1
 10
0.0
 20
0.0
 30
0.0
  3
*U160
  1

  0
TEXT
  5
14FB0
  8
0
 10
2.3872073702682419
 20
0.6772987437404936
 30
0.0
 40
0.125
  1
Lattice
  0
TEXT
  5
14FB1
  8
0
 10
2.3872073702682419
 20
0.4689654104071603
 30
0.0
 40
0.125
  1
TL-268
  0
TEXT
  5
14FB2
  8
0
 10
2.3872073702682419
 20
0.260632077073827
 30
0.0
 40
0.125
  1
1/4" x 1-1/8"
  0
TEXT
  5
14FB3
  8
0
 10
2.3872073702682419
 20
0.0522987437404936
 30
0.0
 40
0.125
  1
800.66.TAGUE
  0
ENDBLK
  5
14FB5
  8
0
  0
BLOCK
  8
0
  2
*U161
 70
     1
 10
0.0
 20
0.0
 30
0.0
  3
*U161
  1

  0
TEXT
  5
14FB7
  8
0
 10
1.7198452767448771
 20
0.6772982915522335
 30
0.0
 40
0.125
  1
Lattice
  0
TEXT
  5
14FB8
  8
0
 10
1.7198452767448771
 20
0.4689649582189002
 30
0.0
 40
0.125
  1
TL-269
  0
TEXT
  5
14FB9
  8
0
 10
1.7198452767448771
 20
0.2606316248855668
 30
0.0
 40
0.125
  1
1/4" x 3/4"
  0
TEXT
  5
14FBA
  8
0
 10
1.7198452767448771
 20
0.0522982915522334
 30
0.0
 40
0.125
  1
800.66.TAGUE
  0
ENDBLK
  5
14FBC
  8
0
  0
BLOCK
  8
0
  2
*U162
 70
     1
 10
0.0
 20
0.0
 30
0.0
  3
*U162
  1

  0
TEXT
  5
14FBE
  8
0
 10
2.0085733028087129
 20
0.6772989387914095
 30
0.0
 40
0.125
  1
Lattice
  0
TEXT
  5
14FBF
  8
0
 10
2.0085733028087129
 20
0.4689656054580762
 30
0.0
 40
0.125
  1
TL-270
  0
TEXT
  5
14FC0
  8
0
 10
2.0085733028087129
 20
0.2606322721247428
 30
0.0
 40
0.125
  1
1/4" x 7/8"
  0
TEXT
  5
14FC1
  8
0
 10
2.0085733028087129
 20
0.0522989387914095
 30
0.0
 40
0.125
  1
800.66.TAGUE
  0
ENDBLK
  5
14FC3
  8
0
  0
BLOCK
  8
0
  2
*U163
 70
     1
 10
0.0
 20
0.0
 30
0.0
  3
*U163
  1

  0
TEXT
  5
14FC5
  8
0
 10
2.940701223973178
 20
0.6772980715210224
 30
0.0
 40
0.125
  1
Lattice
  0
TEXT
  5
14FC6
  8
0
 10
2.940701223973178
 20
0.4689647381876891
 30
0.0
 40
0.125
  1
TL-962
  0
TEXT
  5
14FC7
  8
0
 10
2.940701223973178
 20
0.2606314048543558
 30
0.0
 40
0.125
  1
1/4" x 2"
  0
TEXT
  5
14FC8
  8
0
 10
2.940701223973178
 20
0.0522980715210224
 30
0.0
 40
0.125
  1
800.66.TAGUE
  0
ENDBLK
  5
14FCA
  8
0
  0
BLOCK
  8
0
  2
*U164
 70
     1
 10
0.0
 20
0.0
 30
0.0
  3
*U164
  1

  0
TEXT
  5
14FCC
  8
0
 10
1.983768624240724
 20
1.1498699559202801
 30
0.0
 40
0.125
  1
Lip Moulding
  0
TEXT
  5
14FCD
  8
0
 10
1.983768624240724
 20
0.9415366225869473
 30
0.0
 40
0.125
  1
TL-18
  0
TEXT
  5
14FCE
  8
0
 10
1.983768624240724
 20
0.7332032892536139
 30
0.0
 40
0.125
  1
3/4" x 1-15/16"
  0
TEXT
  5
14FCF
  8
0
 10
1.983768624240724
 20
0.5248699559202806
 30
0.0
 40
0.125
  1
800.66.TAGUE
  0
ENDBLK
  5
14FD1
  8
0
  0
BLOCK
  8
0
  2
*U165
 70
     1
 10
0.0
 20
0.0
 30
0.0
  3
*U165
  1

  0
TEXT
  5
14FD3
  8
0
 10
2.2853728967398861
 20
1.2855052394233999
 30
0.0
 40
0.125
  1
Lip Moulding
  0
TEXT
  5
14FD4
  8
0
 10
2.2853728967398861
 20
1.0771719060900671
 30
0.0
 40
0.125
  1
TL-530
  0
TEXT
  5
14FD5
  8
0
 10
2.2853728967398861
 20
0.8688385727567342
 30
0.0
 40
0.125
  1
5/8" x 1-5/8"
  0
TEXT
  5
14FD6
  8
0
 10
2.2853728967398861
 20
0.6605052394234008
 30
0.0
 40
0.125
  1
800.66.TAGUE
  0
ENDBLK
  5
14FD8
  8
0
  0
BLOCK
  8
0
  2
*U166
 70
     1
 10
0.0
 20
0.0
 30
0.0
  3
*U166
  1

  0
TEXT
  5
14FDA
  8
0
 10
2.269200201813987
 20
1.1997502285778401
 30
0.0
 40
0.125
  1
Lip Moulding
  0
TEXT
  5
14FDB
  8
0
 10
2.269200201813987
 20
0.9914168952445077
 30
0.0
 40
0.125
  1
TL-532
  0
TEXT
  5
14FDC
  8
0
 10
2.269200201813987
 20
0.7830835619111745
 30
0.0
 40
0.125
  1
3/4" x 1-3/4"
  0
TEXT
  5
14FDD
  8
0
 10
2.269200201813987
 20
0.574750228577841
 30
0.0
 40
0.125
  1
800.66.TAGUE
  0
ENDBLK
  5
14FDF
  8
0
  0
BLOCK
  8
0
  2
*U167
 70
     1
 10
0.0
 20
0.0
 30
0.0
  3
*U167
  1

  0
TEXT
  5
14FE1
  8
0
 10
1.8892783014391621
 20
1.241449235052527
 30
0.0
 40
0.125
  1
Lip Moulding
  0
TEXT
  5
14FE2
  8
0
 10
1.8892783014391621
 20
1.033115901719194
 30
0.0
 40
0.125
  1
TL-2169
  0
TEXT
  5
14FE3
  8
0
 10
1.8892783014391621
 20
0.8247825683858613
 30
0.0
 40
0.125
  1
11/16" x 1-7/8"
  0
TEXT
  5
14FE4
  8
0
 10
1.8892783014391621
 20
0.6164492350525279
 30
0.0
 40
0.125
  1
800.66.TAGUE
  0
ENDBLK
  5
14FE6
  8
0
  0
BLOCK
  8
0
  2
*U168
 70
     1
 10
0.0
 20
0.0
 30
0.0
  3
*U168
  1

  0
TEXT
  5
14FE8
  8
0
 10
1.620143794977025
 20
1.0038028284741349
 30
0.0
 40
0.125
  1
Lip Moulding
  0
TEXT
  5
14FE9
  8
0
 10
1.620143794977025
 20
0.7954694951408026
 30
0.0
 40
0.125
  1
TL-2179
  0
TEXT
  5
14FEA
  8
0
 10
1.620143794977025
 20
0.5871361618074693
 30
0.0
 40
0.125
  1
3/4" x 1-1/4"
  0
TEXT
  5
14FEB
  8
0
 10
1.620143794977025
 20
0.3788028284741358
 30
0.0
 40
0.125
  1
800.66.TAGUE
  0
ENDBLK
  5
14FED
  8
0
  0
BLOCK
  8
0
  2
*U169
 70
     1
 10
0.0
 20
0.0
 30
0.0
  3
*U169
  1

  0
TEXT
  5
14FEF
  8
0
 10
1.9163743563030939
 20
1.019442403193352
 30
0.0
 40
0.125
  1
Lip Moulding
  0
TEXT
  5
14FF0
  8
0
 10
1.9163743563030939
 20
0.811109069860019
 30
0.0
 40
0.125
  1
TL-2181
  0
TEXT
  5
14FF1
  8
0
 10
1.9163743563030939
 20
0.6027757365266857
 30
0.0
 40
0.125
  1
3/4" x 1-11/16"
  0
TEXT
  5
14FF2
  8
0
 10
1.9163743563030939
 20
0.3944424031933522
 30
0.0
 40
0.125
  1
800.66.TAGUE
  0
ENDBLK
  5
14FF4
  8
0
  0
BLOCK
  8
0
  2
*U170
 70
     1
 10
0.0
 20
0.0
 30
0.0
  3
*U170
  1

  0
TEXT
  5
14FF6
  8
0
 10
2.0010341316657332
 20
0.9876257387668374
 30
0.0
 40
0.125
  1
Lip Moulding
  0
TEXT
  5
14FF7
  8
0
 10
2.0010341316657332
 20
0.7792924054335043
 30
0.0
 40
0.125
  1
TL-2211
  0
TEXT
  5
14FF8
  8
0
 10
2.0010341316657332
 20
0.5709590721001709
 30
0.0
 40
0.125
  1
1" x 1-15/32"
  0
TEXT
  5
14FF9
  8
0
 10
2.0010341316657332
 20
0.3626257387668375
 30
0.0
 40
0.125
  1
800.66.TAGUE
  0
ENDBLK
  5
14FFB
  8
0
  0
BLOCK
  8
0
  2
*U171
 70
     1
 10
0.0
 20
0.0
 30
0.0
  3
*U171
  1

  0
TEXT
  5
14FFD
  8
0
 10
1.9547841412725111
 20
1.2443911534714971
 30
0.0
 40
0.125
  1
Lip Mldg
  0
TEXT
  5
14FFE
  8
0
 10
1.9547841412725111
 20
1.0360578201381629
 30
0.0
 40
0.125
  1
TL-2302
  0
TEXT
  5
14FFF
  8
0
 10
1.9547841412725111
 20
0.8277244868048304
 30
0.0
 40
0.125
  1
13/16" x 1-3/4"
  0
TEXT
  5
15000
  8
0
 10
1.9547841412725111
 20
0.6193911534714971
 30
0.0
 40
0.125
  1
800.66.TAGUE
  0
ENDBLK
  5
15002
  8
0
  0
BLOCK
  8
0
  2
*U172
 70
     1
 10
0.0
 20
0.0
 30
0.0
  3
*U172
  1

  0
TEXT
  5
15004
  8
0
 10
1.971391504344296
 20
2.3593485866246051
 30
0.0
 40
0.125
  1
Mantle Moulding
  0
TEXT
  5
15005
  8
0
 10
1.971391504344296
 20
2.1510152532912721
 30
0.0
 40
0.125
  1
TL-9
  0
TEXT
  5
15006
  8
0
 10
1.971391504344296
 20
1.942681919957939
 30
0.0
 40
0.125
  1
1-5/8" x 5-1/8"
  0
TEXT
  5
15007
  8
0
 10
1.971391504344296
 20
1.7343485866246049
 30
0.0
 40
0.125
  1
800.66.TAGUE
  0
ENDBLK
  5
15009
  8
0
  0
BLOCK
  8
0
  2
*U173
 70
     1
 10
0.0
 20
0.0
 30
0.0
  3
*U173
  1

  0
TEXT
  5
1500B
  8
0
 10
1.824484143033146
 20
2.7467482000251939
 30
0.0
 40
0.125
  1
Mantle Moulding
  0
TEXT
  5
1500C
  8
0
 10
1.824484143033146
 20
2.5384148666918609
 30
0.0
 40
0.125
  1
TL-10
  0
TEXT
  5
1500D
  8
0
 10
1.824484143033146
 20
2.3300815333585279
 30
0.0
 40
0.125
  1
1-3/8" x 5"
  0
TEXT
  5
1500E
  8
0
 10
1.824484143033146
 20
2.1217482000251939
 30
0.0
 40
0.125
  1
800.66.TAGUE
  0
ENDBLK
  5
15010
  8
0
  0
BLOCK
  8
0
  2
*U174
 70
     1
 10
0.0
 20
0.0
 30
0.0
  3
*U174
  1

  0
TEXT
  5
15012
  8
0
 10
1.778440342841463
 20
0.6794305349126262
 30
0.0
 40
0.125
  1
Mantle Shelf
  0
TEXT
  5
15013
  8
0
 10
1.778440342841463
 20
0.4710972015792928
 30
0.0
 40
0.125
  1
TL-2184
  0
TEXT
  5
15014
  8
0
 10
1.778440342841463
 20
0.2627638682459594
 30
0.0
 40
0.125
  1
1-1/4" x 5-1/2"
  0
TEXT
  5
15015
  8
0
 10
1.778440342841463
 20
0.0544305349126262
 30
0.0
 40
0.125
  1
800.66.TAGUE
  0
ENDBLK
  5
15017
  8
0
  0
BLOCK
  8
0
  2
*U175
 70
     1
 10
0.0
 20
0.0
 30
0.0
  3
*U175
  1

  0
TEXT
  5
15019
  8
0
 10
2.009611089016857
 20
0.679430549910876
 30
0.0
 40
0.125
  1
Mantle Shelf
  0
TEXT
  5
1501A
  8
0
 10
2.009611089016857
 20
0.4710972165775426
 30
0.0
 40
0.125
  1
TL-2185
  0
TEXT
  5
1501B
  8
0
 10
2.009611089016857
 20
0.2627638832442092
 30
0.0
 40
0.125
  1
1-1/2" x 5-1/2"
  0
TEXT
  5
1501C
  8
0
 10
2.009611089016857
 20
0.0544305499108759
 30
0.0
 40
0.125
  1
800.66.TAGUE
  0
ENDBLK
  5
1501E
  8
0
  0
BLOCK
  8
0
  2
*U176
 70
     1
 10
0.0
 20
0.0
 30
0.0
  3
*U176
  1

  0
TEXT
  5
15020
  8
0
 62
     0
 10
-367.02425303528412
 20
426.35429858331162
 30
0.0
 40
0.125
  1
1
 50
90.0
  0
TEXT
  5
15021
  8
0
 62
     0
 10
-367.10758636861738
 20
426.43763191664488
 30
0.0
 40
0.125
  1
3
 50
90.0
  0
LINE
  5
15022
  8
0
 62
     0
 10
-367.08675303528412
 20
426.43763191664488
 30
0.0
 11
-367.08675303528412
 21
426.52096524997819
 31
0.0
  0
TEXT
  5
15023
  8
0
 62
     0
 10
-366.9409197019508
 20
426.43763191664488
 30
0.0
 40
0.125
  1
4
 50
90.0
  0
TEXT
  5
15024
  8
0
 62
     0
 10
-367.02425303528412
 20
426.56263191664482
 30
0.0
 40
0.125
  1
"
 50
90.0
  0
ENDBLK
  5
15026
  8
0
  0
BLOCK
  8
0
  2
*U177
 70
     1
 10
0.0
 20
0.0
 30
0.0
  3
*U177
  1

  0
TEXT
  5
15028
  8
0
 62
     0
 10
-364.19000805364777
 20
425.28877174148101
 30
0.0
 40
0.125
  1
7
  0
LINE
  5
15029
  8
0
 62
     0
 10
-364.19000805364777
 20
425.2679384081477
 30
0.0
 11
-364.10667472031452
 21
425.2679384081477
 31
0.0
  0
TEXT
  5
1502A
  8
0
 62
     0
 10
-364.19000805364777
 20
425.12210507481433
 30
0.0
 40
0.125
  1
8
  0
TEXT
  5
1502B
  8
0
 62
     0
 10
-364.06500805364777
 20
425.2054384081477
 30
0.0
 40
0.125
  1
"
  0
ENDBLK
  5
1502D
  8
0
  0
BLOCK
  8
0
  2
*U178
 70
     1
 10
0.0
 20
0.0
 30
0.0
  3
*U178
  1

  0
TEXT
  5
1502F
  8
0
 62
     0
 10
-363.14629495961572
 20
426.36117705424232
 30
0.0
 40
0.125
  1
1
 50
90.0
  0
TEXT
  5
15030
  8
0
 62
     0
 10
-363.22962829294897
 20
426.46534372090889
 30
0.0
 40
0.125
  1
1
 50
90.0
  0
LINE
  5
15031
  8
0
 62
     0
 10
-363.20879495961572
 20
426.44451038757558
 30
0.0
 11
-363.20879495961572
 21
426.52784372090889
 31
0.0
  0
TEXT
  5
15032
  8
0
 62
     0
 10
-363.06296162628229
 20
426.44451038757558
 30
0.0
 40
0.125
  1
2
 50
90.0
  0
TEXT
  5
15033
  8
0
 62
     0
 10
-363.14629495961572
 20
426.56951038757558
 30
0.0
 40
0.125
  1
"
 50
90.0
  0
ENDBLK
  5
15035
  8
0
  0
BLOCK
  8
0
  2
*U179
 70
     1
 10
0.0
 20
0.0
 30
0.0
  3
*U179
  1

  0
TEXT
  5
15037
  8
0
 62
     0
 10
-387.96524739614358
 20
838.7451809866343
 30
0.0
 40
0.125
  1
1
 50
90.0
  0
TEXT
  5
15038
  8
0
 62
     0
 10
-388.0485807294769
 20
838.82851431996767
 30
0.0
 40
0.125
  1
3
 50
90.0
  0
LINE
  5
15039
  8
0
 62
     0
 10
-388.02774739614358
 20
838.82851431996767
 30
0.0
 11
-388.02774739614358
 21
838.91184765330104
 31
0.0
  0
TEXT
  5
1503A
  8
0
 62
     0
 10
-387.88191406281032
 20
838.82851431996767
 30
0.0
 40
0.125
  1
4
 50
90.0
  0
TEXT
  5
1503B
  8
0
 62
     0
 10
-387.96524739614358
 20
838.95351431996755
 30
0.0
 40
0.125
  1
"
 50
90.0
  0
ENDBLK
  5
1503D
  8
0
  0
BLOCK
  8
0
  2
*U180
 70
     1
 10
0.0
 20
0.0
 30
0.0
  3
*U180
  1

  0
TEXT
  5
1503F
  8
0
 62
     0
 10
-385.13236667098761
 20
837.67914254862364
 30
0.0
 40
0.125
  1
7
  0
LINE
  5
15040
  8
0
 62
     0
 10
-385.13236667098761
 20
837.65830921529016
 30
0.0
 11
-385.04903333765429
 21
837.65830921529016
 31
0.0
  0
TEXT
  5
15041
  8
0
 62
     0
 10
-385.13236667098761
 20
837.51247588195702
 30
0.0
 40
0.125
  1
8
  0
TEXT
  5
15042
  8
0
 62
     0
 10
-385.00736667098761
 20
837.59580921529039
 30
0.0
 40
0.125
  1
"
  0
ENDBLK
  5
15044
  8
0
  0
BLOCK
  8
0
  2
*U181
 70
     1
 10
0.0
 20
0.0
 30
0.0
  3
*U181
  1

  0
TEXT
  5
15046
  8
0
 62
     0
 10
-384.08814198077528
 20
838.75205945756488
 30
0.0
 40
0.125
  1
1
 50
90.0
  0
TEXT
  5
15047
  8
0
 62
     0
 10
-384.1714753141087
 20
838.85622612423163
 30
0.0
 40
0.125
  1
1
 50
90.0
  0
LINE
  5
15048
  8
0
 62
     0
 10
-384.15064198077539
 20
838.83539279089825
 30
0.0
 11
-384.15064198077539
 21
838.91872612423185
 31
0.0
  0
TEXT
  5
15049
  8
0
 62
     0
 10
-384.00480864744202
 20
838.83539279089825
 30
0.0
 40
0.125
  1
2
 50
90.0
  0
TEXT
  5
1504A
  8
0
 62
     0
 10
-384.08814198077528
 20
838.96039279089837
 30
0.0
 40
0.125
  1
"
 50
90.0
  0
ENDBLK
  5
1504C
  8
0
  0
BLOCK
  8
0
  2
*U182
 70
     1
 10
0.0
 20
0.0
 30
0.0
  3
*U182
  1

  0
TEXT
  5
1504E
  8
0
 62
     0
 10
-323.13119819751643
 20
425.11559169813461
 30
0.0
 40
0.125
  1
1
 50
90.0
  0
TEXT
  5
1504F
  8
0
 62
     0
 10
-323.2145315308498
 20
425.19892503146798
 30
0.0
 40
0.125
  1
3
 50
90.0
  0
LINE
  5
15050
  8
0
 62
     0
 10
-323.19369819751643
 20
425.19892503146798
 30
0.0
 11
-323.19369819751643
 21
425.28225836480118
 31
0.0
  0
TEXT
  5
15051
  8
0
 62
     0
 10
-323.04786486418311
 20
425.19892503146798
 30
0.0
 40
0.125
  1
4
 50
90.0
  0
TEXT
  5
15052
  8
0
 62
     0
 10
-323.13119819751643
 20
425.32392503146792
 30
0.0
 40
0.125
  1
"
 50
90.0
  0
ENDBLK
  5
15054
  8
0
  0
BLOCK
  8
0
  2
*U183
 70
     1
 10
0.0
 20
0.0
 30
0.0
  3
*U183
  1

  0
TEXT
  5
15056
  8
0
 62
     0
 10
-318.6214997668344
 20
425.11559169813461
 30
0.0
 40
0.125
  1
1
 50
90.0
  0
TEXT
  5
15057
  8
0
 62
     0
 10
-318.70483310016772
 20
425.19892503146798
 30
0.0
 40
0.125
  1
3
 50
90.0
  0
LINE
  5
15058
  8
0
 62
     0
 10
-318.6839997668344
 20
425.19892503146798
 30
0.0
 11
-318.6839997668344
 21
425.28225836480118
 31
0.0
  0
TEXT
  5
15059
  8
0
 62
     0
 10
-318.53816643350109
 20
425.19892503146798
 30
0.0
 40
0.125
  1
8
 50
90.0
  0
TEXT
  5
1505A
  8
0
 62
     0
 10
-318.6214997668344
 20
425.32392503146792
 30
0.0
 40
0.125
  1
"
 50
90.0
  0
ENDBLK
  5
1505C
  8
0
  0
BLOCK
  8
0
  2
*U184
 70
     1
 10
0.0
 20
0.0
 30
0.0
  3
*U184
  1

  0
TEXT
  5
1505E
  8
0
 62
     0
 10
-387.56461450221548
 20
838.89288512488679
 30
0.0
 40
0.125
  1
1
 50
90.0
  0
TEXT
  5
1505F
  8
0
 62
     0
 10
-387.64794783554891
 20
838.97621845822005
 30
0.0
 40
0.125
  1
3
 50
90.0
  0
LINE
  5
15060
  8
0
 62
     0
 10
-387.62711450221559
 20
838.97621845822005
 30
0.0
 11
-387.62711450221559
 21
839.05955179155353
 31
0.0
  0
TEXT
  5
15061
  8
0
 62
     0
 10
-387.48128116888222
 20
838.97621845822005
 30
0.0
 40
0.125
  1
4
 50
90.0
  0
TEXT
  5
15062
  8
0
 62
     0
 10
-387.56461450221548
 20
839.10121845822005
 30
0.0
 40
0.125
  1
"
 50
90.0
  0
ENDBLK
  5
15064
  8
0
  0
BLOCK
  8
0
  2
*U185
 70
     1
 10
0.0
 20
0.0
 30
0.0
  3
*U185
  1

  0
TEXT
  5
15066
  8
0
 62
     0
 10
-383.05359444806828
 20
838.89288512488679
 30
0.0
 40
0.125
  1
1
 50
90.0
  0
TEXT
  5
15067
  8
0
 62
     0
 10
-383.13692778140171
 20
838.97621845822005
 30
0.0
 40
0.125
  1
3
 50
90.0
  0
LINE
  5
15068
  8
0
 62
     0
 10
-383.1160944480684
 20
838.97621845822005
 30
0.0
 11
-383.1160944480684
 21
839.05955179155353
 31
0.0
  0
TEXT
  5
15069
  8
0
 62
     0
 10
-382.97026111473502
 20
838.97621845822005
 30
0.0
 40
0.125
  1
8
 50
90.0
  0
TEXT
  5
1506A
  8
0
 62
     0
 10
-383.05359444806828
 20
839.10121845822005
 30
0.0
 40
0.125
  1
"
 50
90.0
  0
ENDBLK
  5
1506C
  8
0
  0
BLOCK
  8
0
  2
*U186
 70
     1
 10
0.0
 20
0.0
 30
0.0
  3
*U186
  1

  0
TEXT
  5
1506E
  8
0
 10
1.872123119890716
 20
0.7588046473348414
 30
0.0
 40
0.125
  1
Nosing & Cove
  0
TEXT
  5
1506F
  8
0
 10
1.872123119890716
 20
0.5504713140015081
 30
0.0
 40
0.125
  1
TL-20
  0
TEXT
  5
15070
  8
0
 10
1.872123119890716
 20
0.3421379806681747
 30
0.0
 40
0.125
  1
3/4" x 1-5/16"
  0
TEXT
  5
15071
  8
0
 10
1.872123119890716
 20
0.1338046473348413
 30
0.0
 40
0.125
  1
800.66.TAGUE
  0
ENDBLK
  5
15073
  8
0
  0
BLOCK
  8
0
  2
*U187
 70
     1
 10
0.0
 20
0.0
 30
0.0
  3
*U187
  1

  0
TEXT
  5
15075
  8
0
 10
1.914126813415123
 20
0.8585704022782466
 30
0.0
 40
0.125
  1
Nosing & Cove
  0
TEXT
  5
15076
  8
0
 10
1.914126813415123
 20
0.6502370689449134
 30
0.0
 40
0.125
  1
TL-21
  0
TEXT
  5
15077
  8
0
 10
1.914126813415123
 20
0.44190373561158
 30
0.0
 40
0.125
  1
1-1/8" x 1-3/4"
  0
TEXT
  5
15078
  8
0
 10
1.914126813415123
 20
0.2335704022782465
 30
0.0
 40
0.125
  1
800.66.TAGUE
  0
ENDBLK
  5
1507A
  8
0
  0
BLOCK
  8
0
  2
*U188
 70
     1
 10
0.0
 20
0.0
 30
0.0
  3
*U188
  1

  0
TEXT
  5
1507C
  8
0
 10
2.1633643582791811
 20
1.2559710060997979
 30
0.0
 40
0.125
  1
Nosing & Cove
  0
TEXT
  5
1507D
  8
0
 10
2.1633643582791811
 20
1.0476376727664649
 30
0.0
 40
0.125
  1
TL-22
  0
TEXT
  5
1507E
  8
0
 10
2.1633643582791811
 20
0.839304339433132
 30
0.0
 40
0.125
  1
1-5/16" x 2-1/4"
  0
TEXT
  5
1507F
  8
0
 10
2.1633643582791811
 20
0.6309710060997987
 30
0.0
 40
0.125
  1
800.66.TAGUE
  0
ENDBLK
  5
15081
  8
0
  0
BLOCK
  8
0
  2
*U189
 70
     1
 10
0.0
 20
0.0
 30
0.0
  3
*U189
  1

  0
TEXT
  5
15083
  8
0
 10
1.1386258441601731
 20
1.192489029325315
 30
0.0
 40
0.125
  1
Nosing & Cove
  0
TEXT
  5
15084
  8
0
 10
1.1386258441601731
 20
0.9841556959919824
 30
0.0
 40
0.125
  1
TL-2256
  0
TEXT
  5
15085
  8
0
 10
1.1386258441601731
 20
0.7758223626586491
 30
0.0
 40
0.125
  1
5/8" x 1-1/2"
  0
TEXT
  5
15086
  8
0
 10
1.1386258441601731
 20
0.5674890293253158
 30
0.0
 40
0.125
  1
800.66.TAGUE
  0
ENDBLK
  5
15088
  8
0
  0
BLOCK
  8
0
  2
*U190
 70
     1
 10
0.0
 20
0.0
 30
0.0
  3
*U190
  1

  0
TEXT
  5
1508A
  8
0
 10
0.8465252202594228
 20
0.679429976342135
 30
0.0
 40
0.125
  1
Nosing & Cove
  0
TEXT
  5
1508B
  8
0
 10
0.8465252202594228
 20
0.4710966430088017
 30
0.0
 40
0.125
  1
TL-2257
  0
TEXT
  5
1508C
  8
0
 10
0.8465252202594228
 20
0.2627633096754684
 30
0.0
 40
0.125
  1
5/16" x 1/2"
  0
TEXT
  5
1508D
  8
0
 10
0.8465252202594228
 20
0.054429976342135
 30
0.0
 40
0.125
  1
800.66.TAGUE
  0
ENDBLK
  5
1508F
  8
0
  0
BLOCK
  8
0
  2
*U191
 70
     1
 10
0.0
 20
0.0
 30
0.0
  3
*U191
  1

  0
TEXT
  5
15091
  8
0
 10
2.3806405474079488
 20
1.3133539302667709
 30
0.0
 40
0.125
  1
Ogee
  0
TEXT
  5
15092
  8
0
 10
2.3806405474079488
 20
1.1050205969334379
 30
0.0
 40
0.125
  1
TL-16
  0
TEXT
  5
15093
  8
0
 10
2.3806405474079488
 20
0.8966872636001046
 30
0.0
 40
0.125
  1
1-3/8" x 2"
  0
TEXT
  5
15094
  8
0
 10
2.3806405474079488
 20
0.6883539302667714
 30
0.0
 40
0.125
  1
800.66.TAGUE
  0
ENDBLK
  5
15096
  8
0
  0
BLOCK
  8
0
  2
*U192
 70
     1
 10
0.0
 20
0.0
 30
0.0
  3
*U192
  1

  0
TEXT
  5
150A9
  8
0
 10
2.7261344289668719
 20
1.6601320963039821
 30
0.0
 40
0.125
  1
Ogee
  0
TEXT
  5
150AA
  8
0
 10
2.7261344289668719
 20
1.451798762970649
 30
0.0
 40
0.125
  1
TL-17
  0
TEXT
  5
150AB
  8
0
 10
2.7261344289668719
 20
1.2434654296373151
 30
0.0
 40
0.125
  1
2-5/16" x 1-7/8"
  0
TEXT
  5
150AC
  8
0
 10
2.7261344289668719
 20
1.0351320963039821
 30
0.0
 40
0.125
  1
800.66.TAGUE
  0
ENDBLK
  5
150AE
  8
0
  0
BLOCK
  8
0
  2
*U193
 70
     1
 10
0.0
 20
0.0
 30
0.0
  3
*U193
  1

  0
TEXT
  5
150B0
  8
0
 10
1.8303727118446309
 20
0.9120296408366357
 30
0.0
 40
0.125
  1
Ogee
  0
TEXT
  5
150B1
  8
0
 10
1.8303727118446309
 20
0.7036963075033026
 30
0.0
 40
0.125
  1
TL-166
  0
TEXT
  5
150B2
  8
0
 10
1.8303727118446309
 20
0.4953629741699692
 30
0.0
 40
0.125
  1
11/16" x 1-1/4"
  0
TEXT
  5
150B3
  8
0
 10
1.8303727118446309
 20
0.2870296408366357
 30
0.0
 40
0.125
  1
800.66.TAGUE
  0
ENDBLK
  5
150B5
  8
0
  0
BLOCK
  8
0
  2
*U194
 70
     1
 10
0.0
 20
0.0
 30
0.0
  3
*U194
  1

  0
TEXT
  5
150B7
  8
0
 10
1.573032674973148
 20
0.835411988577448
 30
0.0
 40
0.125
  1
Ogee
  0
TEXT
  5
150B8
  8
0
 10
1.573032674973148
 20
0.6270786552441149
 30
0.0
 40
0.125
  1
TL-167
  0
TEXT
  5
150B9
  8
0
 10
1.573032674973148
 20
0.4187453219107815
 30
0.0
 40
0.125
  1
11/16" x 7/8"
  0
TEXT
  5
150BA
  8
0
 10
1.573032674973148
 20
0.210411988577448
 30
0.0
 40
0.125
  1
800.66.TAGUE
  0
ENDBLK
  5
150BC
  8
0
  0
BLOCK
  8
0
  2
*U195
 70
     1
 10
0.0
 20
0.0
 30
0.0
  3
*U195
  1

  0
TEXT
  5
150BE
  8
0
 10
1.814825501310565
 20
1.0878383681827011
 30
0.0
 40
0.125
  1
Ogee Moulding
  0
TEXT
  5
150BF
  8
0
 10
1.814825501310565
 20
0.8795050348493685
 30
0.0
 40
0.125
  1
TL-2240
  0
TEXT
  5
150C0
  8
0
 10
1.814825501310565
 20
0.6711717015160352
 30
0.0
 40
0.125
  1
25/32" x 13/16"
  0
TEXT
  5
150C1
  8
0
 10
1.814825501310565
 20
0.4628383681827018
 30
0.0
 40
0.125
  1
800.66.TAGUE
  0
ENDBLK
  5
150C3
  8
0
  0
BLOCK
  8
0
  2
*U196
 70
     1
 10
0.0
 20
0.0
 30
0.0
  3
*U196
  1

  0
TEXT
  5
150C5
  8
0
 10
2.966704883543116
 20
1.2733224952305591
 30
0.0
 40
0.125
  1
Ogee Moulding
  0
TEXT
  5
150C6
  8
0
 10
2.966704883543116
 20
1.0649891618972249
 30
0.0
 40
0.125
  1
TL-2255
  0
TEXT
  5
150C7
  8
0
 10
2.966704883543116
 20
0.8566558285638924
 30
0.0
 40
0.125
  1
1-1/2" x 2-1/8"
  0
TEXT
  5
150C8
  8
0
 10
2.966704883543116
 20
0.6483224952305591
 30
0.0
 40
0.125
  1
800.66.TAGUE
  0
ENDBLK
  5
150CA
  8
0
  0
BLOCK
  8
0
  2
*U197
 70
     1
 10
0.0
 20
0.0
 30
0.0
  3
*U197
  1

  0
TEXT
  5
150CC
  8
0
 10
1.767740232165522
 20
0.6795164786933583
 30
0.0
 40
0.125
  1
Ogee
  0
TEXT
  5
150CD
  8
0
 10
1.767740232165522
 20
0.471183145360025
 30
0.0
 40
0.125
  1
TL-2280
  0
TEXT
  5
150CE
  8
0
 10
1.767740232165522
 20
0.2628498120266917
 30
0.0
 40
0.125
  1
1/2"  x 5/8"
  0
TEXT
  5
150CF
  8
0
 10
1.767740232165522
 20
0.0545164786933583
 30
0.0
 40
0.125
  1
800.66.TAGUE
  0
ENDBLK
  5
150D1
  8
0
  0
BLOCK
  8
0
  2
*U198
 70
     1
 10
0.0
 20
0.0
 30
0.0
  3
*U198
  1

  0
TEXT
  5
150D3
  8
0
 10
2.5765420776576198
 20
0.9513347006069352
 30
0.0
 40
0.125
  1
Ogee
  0
TEXT
  5
150D4
  8
0
 10
2.5765420776576198
 20
0.7430013672736021
 30
0.0
 40
0.125
  1
TL-2326
  0
TEXT
  5
150D5
  8
0
 10
2.5765420776576198
 20
0.5346680339402687
 30
0.0
 40
0.125
  1
1-3/4" x 1-13/32"
  0
TEXT
  5
150D6
  8
0
 10
2.5765420776576198
 20
0.3263347006069353
 30
0.0
 40
0.125
  1
800.66.TAGUE
  0
ENDBLK
  5
150D8
  8
0
  0
BLOCK
  8
0
  2
*U199
 70
     1
 10
0.0
 20
0.0
 30
0.0
  3
*U199
  1

  0
TEXT
  5
150DA
  8
0
 10
1.8232672208571321
 20
1.0097170300313101
 30
0.0
 40
0.125
  1
Panel Moulding
  0
TEXT
  5
150DB
  8
0
 10
1.8232672208571321
 20
0.8013836966979775
 30
0.0
 40
0.125
  1
TL-54
  0
TEXT
  5
150DC
  8
0
 10
1.8232672208571321
 20
0.5930503633646445
 30
0.0
 40
0.125
  1
5/8" x 1-3/8"
  0
TEXT
  5
150DD
  8
0
 10
1.8232672208571321
 20
0.384717030031311
 30
0.0
 40
0.125
  1
800.66.TAGUE
  0
ENDBLK
  5
150DF
  8
0
  0
BLOCK
  8
0
  2
*U200
 70
     1
 10
0.0
 20
0.0
 30
0.0
  3
*U200
  1

  0
TEXT
  5
150E1
  8
0
 10
1.6082414945508381
 20
0.8848429445537249
 30
0.0
 40
0.125
  1
Panel Moulding
  0
TEXT
  5
150E2
  8
0
 10
1.6082414945508381
 20
0.6765096112203916
 30
0.0
 40
0.125
  1
TL-56
  0
TEXT
  5
150E3
  8
0
 10
1.6082414945508381
 20
0.4681762778870584
 30
0.0
 40
0.125
  1
3/4" x 1-1/2"
  0
TEXT
  5
150E4
  8
0
 10
1.6082414945508381
 20
0.2598429445537249
 30
0.0
 40
0.125
  1
800.66.TAGUE
  0
ENDBLK
  5
150E6
  8
0
  0
BLOCK
  8
0
  2
*U201
 70
     1
 10
0.0
 20
0.0
 30
0.0
  3
*U201
  1

  0
TEXT
  5
150E8
  8
0
 10
1.430001145945198
 20
1.055442987142782
 30
0.0
 40
0.125
  1
Panel Moulding
  0
TEXT
  5
150E9
  8
0
 10
1.430001145945198
 20
0.8471096538094494
 30
0.0
 40
0.125
  1
TL-57
  0
TEXT
  5
150EA
  8
0
 10
1.430001145945198
 20
0.6387763204761163
 30
0.0
 40
0.125
  1
9/16" x 1-15/16"
  0
TEXT
  5
150EB
  8
0
 10
1.430001145945198
 20
0.4304429871427829
 30
0.0
 40
0.125
  1
800.66.TAGUE
  0
ENDBLK
  5
150ED
  8
0
  0
BLOCK
  8
0
  2
*U202
 70
     1
 10
0.0
 20
0.0
 30
0.0
  3
*U202
  1

  0
TEXT
  5
150EF
  8
0
 10
1.681303805809534
 20
1.2026941795735411
 30
0.0
 40
0.125
  1
Panel Moulding
  0
TEXT
  5
150F0
  8
0
 10
1.681303805809534
 20
0.9943608462402076
 30
0.0
 40
0.125
  1
TL-62
  0
TEXT
  5
150F1
  8
0
 10
1.681303805809534
 20
0.7860275129068745
 30
0.0
 40
0.125
  1
1" x 1-3/4"
  0
TEXT
  5
150F2
  8
0
 10
1.681303805809534
 20
0.5776941795735411
 30
0.0
 40
0.125
  1
800.66.TAGUE
  0
ENDBLK
  5
150F4
  8
0
  0
BLOCK
  8
0
  2
*U203
 70
     1
 10
0.0
 20
0.0
 30
0.0
  3
*U203
  1

  0
TEXT
  5
150F6
  8
0
 10
2.133056331073703
 20
1.437235578786044
 30
0.0
 40
0.125
  1
Panel Moulding
  0
TEXT
  5
150F7
  8
0
 10
2.133056331073703
 20
1.2289022454527101
 30
0.0
 40
0.125
  1
TL-64
  0
TEXT
  5
150F8
  8
0
 10
2.133056331073703
 20
1.0205689121193771
 30
0.0
 40
0.125
  1
1-1/4" x 1-15/16"
  0
TEXT
  5
150F9
  8
0
 10
2.133056331073703
 20
0.8122355787860442
 30
0.0
 40
0.125
  1
800.66.TAGUE
  0
ENDBLK
  5
150FB
  8
0
  0
BLOCK
  8
0
  2
*U204
 70
     1
 10
0.0
 20
0.0
 30
0.0
  3
*U204
  1

  0
TEXT
  5
150FD
  8
0
 10
1.6378445869512459
 20
1.1242484052883119
 30
0.0
 40
0.125
  1
Panel Moulding
  0
TEXT
  5
150FE
  8
0
 10
1.6378445869512459
 20
0.9159150719549795
 30
0.0
 40
0.125
  1
TL-314
  0
TEXT
  5
150FF
  8
0
 10
1.6378445869512459
 20
0.7075817386216463
 30
0.0
 40
0.125
  1
3/4" x 1-3/8"
  0
TEXT
  5
15100
  8
0
 10
1.6378445869512459
 20
0.4992484052883129
 30
0.0
 40
0.125
  1
800.66.TAGUE
  0
ENDBLK
  5
15102
  8
0
  0
BLOCK
  8
0
  2
*U205
 70
     1
 10
0.0
 20
0.0
 30
0.0
  3
*U205
  1

  0
TEXT
  5
15104
  8
0
 10
1.793042575215281
 20
1.3157146661659449
 30
0.0
 40
0.125
  1
Panel Moulding
  0
TEXT
  5
15105
  8
0
 10
1.793042575215281
 20
1.107381332832611
 30
0.0
 40
0.125
  1
TL-2032
  0
TEXT
  5
15106
  8
0
 10
1.793042575215281
 20
0.8990479994992785
 30
0.0
 40
0.125
  1
3/4" x 2"
  0
TEXT
  5
15107
  8
0
 10
1.793042575215281
 20
0.6907146661659454
 30
0.0
 40
0.125
  1
800.66.TAGUE
  0
ENDBLK
  5
15109
  8
0
  0
BLOCK
  8
0
  2
*U206
 70
     1
 10
0.0
 20
0.0
 30
0.0
  3
*U206
  1

  0
TEXT
  5
1510B
  8
0
 10
-386.19026140409551
 20
838.79991359019459
 30
0.0
 40
0.125
  1
Panel Moulding
  0
TEXT
  5
1510C
  8
0
 10
-386.19026140409551
 20
838.59158025686133
 30
0.0
 40
0.125
  1
TL-2032
  0
TEXT
  5
1510D
  8
0
 10
-386.19026140409551
 20
838.38324692352808
 30
0.0
 40
0.125
  1
3/4" x 2"
  0
TEXT
  5
1510E
  8
0
 10
-386.19026140409551
 20
838.17491359019459
 30
0.0
 40
0.125
  1
800.66.TAGUE
  0
ENDBLK
  5
15110
  8
0
  0
ENDSEC
  0
SECTION
  2
ENTITIES
  0
INSERT
  5
14E54
  8
0
  2
*U206
 10
0.0
 20
0.0
 30
0.0
  0
LINE
  5
14E55
  8
0
 10
-387.56217587142947
 20
838.05069526869318
 30
0.0
 11
-387.56217587142947
 21
837.78435585337763
 31
0.0
  0
LINE
  5
14E56
  8
0
 10
-387.56217587142947
 20
838.43565142997988
 30
0.0
 11
-387.56217587142947
 21
838.24251658540175
 31
0.0
  0
LINE
  5
14E57
  8
0
 10
-387.55341019823061
 20
839.17894810573262
 30
0.0
 11
-387.55341019823049
 21
839.11605429336885
 31
0.0
  0
LINE
  5
14E58
  8
0
 10
-387.983303246687
 20
837.48419837237213
 30
0.0
 11
-387.983303246687
 21
839.51544837237225
 31
0.0
  0
LINE
  5
14E59
  8
0
 10
-387.78484826853747
 20
839.51544837237225
 30
0.0
 11
-387.983303246687
 21
839.51544837237225
 31
0.0
  0
POLYLINE
  8
0
  5
15111
  66
     1
 10
0.000000
 20
0.000000
 30
0.000000
  70
     8
  0
VERTEX
  8
0
  5
15112
 10
-387.983
 20
837.484
 30
0.000000
  70
    32
  0
VERTEX
  8
0
  5
15113
 10
-387.982
 20
837.484
 30
0.000000
  70
    32
  0
VERTEX
  8
0
  5
15114
 10
-387.980
 20
837.484
 30
0.000000
  70
    32
  0
VERTEX
  8
0
  5
15115
 10
-387.978
 20
837.484
 30
0.000000
  70
    32
  0
VERTEX
  8
0
  5
15116
 10
-387.976
 20
837.484
 30
0.000000
  70
    32
  0
VERTEX
  8
0
  5
15117
 10
-387.975
 20
837.484
 30
0.000000
  70
    32
  0
VERTEX
  8
0
  5
15118
 10
-387.973
 20
837.484
 30
0.000000
  70
    32
  0
VERTEX
  8
0
  5
15119
 10
-387.971
 20
837.484
 30
0.000000
  70
    32
  0
VERTEX
  8
0
  5
1511A
 10
-387.969
 20
837.484
 30
0.000000
  70
    32
  0
VERTEX
  8
0
  5
1511B
 10
-387.967
 20
837.484
 30
0.000000
  70
    32
  0
VERTEX
  8
0
  5
1511C
 10
-387.966
 20
837.484
 30
0.000000
  70
    32
  0
VERTEX
  8
0
  5
1511D
 10
-387.964
 20
837.484
 30
0.000000
  70
    32
  0
VERTEX
  8
0
  5
1511E
 10
-387.962
 20
837.484
 30
0.000000
  70
    32
  0
VERTEX
  8
0
  5
1511F
 10
-387.960
 20
837.484
 30
0.000000
  70
    32
  0
VERTEX
  8
0
  5
15120
 10
-387.959
 20
837.484
 30
0.000000
  70
    32
  0
VERTEX
  8
0
  5
15121
 10
-387.957
 20
837.484
 30
0.000000
  70
    32
  0
VERTEX
  8
0
  5
15122
 10
-387.955
 20
837.484
 30
0.000000
  70
    32
  0
VERTEX
  8
0
  5
15123
 10
-387.953
 20
837.484
 30
0.000000
  70
    32
  0
VERTEX
  8
0
  5
15124
 10
-387.952
 20
837.484
 30
0.000000
  70
    32
  0
VERTEX
  8
0
  5
15125
 10
-387.950
 20
837.484
 30
0.000000
  70
    32
  0
VERTEX
  8
0
  5
15126
 10
-387.948
 20
837.484
 30
0.000000
  70
    32
  0
VERTEX
  8
0
  5
15127
 10
-387.946
 20
837.485
 30
0.000000
  70
    32
  0
VERTEX
  8
0
  5
15128
 10
-387.945
 20
837.485
 30
0.000000
  70
    32
  0
VERTEX
  8
0
  5
15129
 10
-387.943
 20
837.485
 30
0.000000
  70
    32
  0
VERTEX
  8
0
  5
1512A
 10
-387.941
 20
837.485
 30
0.000000
  70
    32
  0
VERTEX
  8
0
  5
1512B
 10
-387.939
 20
837.485
 30
0.000000
  70
    32
  0
VERTEX
  8
0
  5
1512C
 10
-387.938
 20
837.485
 30
0.000000
  70
    32
  0
VERTEX
  8
0
  5
1512D
 10
-387.936
 20
837.485
 30
0.000000
  70
    32
  0
VERTEX
  8
0
  5
1512E
 10
-387.934
 20
837.486
 30
0.000000
  70
    32
  0
VERTEX
  8
0
  5
1512F
 10
-387.932
 20
837.486
 30
0.000000
  70
    32
  0
VERTEX
  8
0
  5
15130
 10
-387.931
 20
837.486
 30
0.000000
  70
    32
  0
VERTEX
  8
0
  5
15131
 10
-387.929
 20
837.486
 30
0.000000
  70
    32
  0
VERTEX
  8
0
  5
15132
 10
-387.927
 20
837.486
 30
0.000000
  70
    32
  0
VERTEX
  8
0
  5
15133
 10
-387.925
 20
837.487
 30
0.000000
  70
    32
  0
VERTEX
  8
0
  5
15134
 10
-387.924
 20
837.487
 30
0.000000
  70
    32
  0
VERTEX
  8
0
  5
15135
 10
-387.922
 20
837.487
 30
0.000000
  70
    32
  0
VERTEX
  8
0
  5
15136
 10
-387.920
 20
837.487
 30
0.000000
  70
    32
  0
VERTEX
  8
0
  5
15137
 10
-387.918
 20
837.488
 30
0.000000
  70
    32
  0
VERTEX
  8
0
  5
15138
 10
-387.917
 20
837.488
 30
0.000000
  70
    32
  0
VERTEX
  8
0
  5
15139
 10
-387.915
 20
837.488
 30
0.000000
  70
    32
  0
VERTEX
  8
0
  5
1513A
 10
-387.913
 20
837.489
 30
0.000000
  70
    32
  0
VERTEX
  8
0
  5
1513B
 10
-387.911
 20
837.489
 30
0.000000
  70
    32
  0
VERTEX
  8
0
  5
1513C
 10
-387.910
 20
837.489
 30
0.000000
  70
    32
  0
VERTEX
  8
0
  5
1513D
 10
-387.908
 20
837.490
 30
0.000000
  70
    32
  0
VERTEX
  8
0
  5
1513E
 10
-387.906
 20
837.490
 30
0.000000
  70
    32
  0
VERTEX
  8
0
  5
1513F
 10
-387.904
 20
837.490
 30
0.000000
  70
    32
  0
VERTEX
  8
0
  5
15140
 10
-387.903
 20
837.491
 30
0.000000
  70
    32
  0
VERTEX
  8
0
  5
15141
 10
-387.901
 20
837.491
 30
0.000000
  70
    32
  0
VERTEX
  8
0
  5
15142
 10
-387.899
 20
837.491
 30
0.000000
  70
    32
  0
VERTEX
  8
0
  5
15143
 10
-387.898
 20
837.492
 30
0.000000
  70
    32
  0
VERTEX
  8
0
  5
15144
 10
-387.896
 20
837.492
 30
0.000000
  70
    32
  0
VERTEX
  8
0
  5
15145
 10
-387.894
 20
837.492
 30
0.000000
  70
    32
  0
VERTEX
  8
0
  5
15146
 10
-387.892
 20
837.493
 30
0.000000
  70
    32
  0
VERTEX
  8
0
  5
15147
 10
-387.891
 20
837.493
 30
0.000000
  70
    32
  0
VERTEX
  8
0
  5
15148
 10
-387.889
 20
837.494
 30
0.000000
  70
    32
  0
VERTEX
  8
0
  5
15149
 10
-387.887
 20
837.494
 30
0.000000
  70
    32
  0
VERTEX
  8
0
  5
1514A
 10
-387.885
 20
837.495
 30
0.000000
  70
    32
  0
VERTEX
  8
0
  5
1514B
 10
-387.884
 20
837.495
 30
0.000000
  70
    32
  0
VERTEX
  8
0
  5
1514C
 10
-387.882
 20
837.496
 30
0.000000
  70
    32
  0
VERTEX
  8
0
  5
1514D
 10
-387.880
 20
837.496
 30
0.000000
  70
    32
  0
VERTEX
  8
0
  5
1514E
 10
-387.879
 20
837.496
 30
0.000000
  70
    32
  0
VERTEX
  8
0
  5
1514F
 10
-387.877
 20
837.497
 30
0.000000
  70
    32
  0
VERTEX
  8
0
  5
15150
 10
-387.875
 20
837.497
 30
0.000000
  70
    32
  0
VERTEX
  8
0
  5
15151
 10
-387.874
 20
837.498
 30
0.000000
  70
    32
  0
VERTEX
  8
0
  5
15152
 10
-387.872
 20
837.498
 30
0.000000
  70
    32
  0
VERTEX
  8
0
  5
15153
 10
-387.870
 20
837.499
 30
0.000000
  70
    32
  0
VERTEX
  8
0
  5
15154
 10
-387.868
 20
837.500
 30
0.000000
  70
    32
  0
VERTEX
  8
0
  5
15155
 10
-387.867
 20
837.500
 30
0.000000
  70
    32
  0
VERTEX
  8
0
  5
15156
 10
-387.865
 20
837.501
 30
0.000000
  70
    32
  0
VERTEX
  8
0
  5
15157
 10
-387.863
 20
837.501
 30
0.000000
  70
    32
  0
VERTEX
  8
0
  5
15158
 10
-387.862
 20
837.502
 30
0.000000
  70
    32
  0
VERTEX
  8
0
  5
15159
 10
-387.860
 20
837.502
 30
0.000000
  70
    32
  0
VERTEX
  8
0
  5
1515A
 10
-387.858
 20
837.503
 30
0.000000
  70
    32
  0
VERTEX
  8
0
  5
1515B
 10
-387.857
 20
837.504
 30
0.000000
  70
    32
  0
VERTEX
  8
0
  5
1515C
 10
-387.855
 20
837.504
 30
0.000000
  70
    32
  0
VERTEX
  8
0
  5
1515D
 10
-387.853
 20
837.505
 30
0.000000
  70
    32
  0
VERTEX
  8
0
  5
1515E
 10
-387.852
 20
837.506
 30
0.000000
  70
    32
  0
VERTEX
  8
0
  5
1515F
 10
-387.850
 20
837.506
 30
0.000000
  70
    32
  0
VERTEX
  8
0
  5
15160
 10
-387.849
 20
837.507
 30
0.000000
  70
    32
  0
VERTEX
  8
0
  5
15161
 10
-387.847
 20
837.508
 30
0.000000
  70
    32
  0
VERTEX
  8
0
  5
15162
 10
-387.845
 20
837.508
 30
0.000000
  70
    32
  0
VERTEX
  8
0
  5
15163
 10
-387.844
 20
837.509
 30
0.000000
  70
    32
  0
VERTEX
  8
0
  5
15164
 10
-387.842
 20
837.510
 30
0.000000
  70
    32
  0
VERTEX
  8
0
  5
15165
 10
-387.840
 20
837.510
 30
0.000000
  70
    32
  0
VERTEX
  8
0
  5
15166
 10
-387.839
 20
837.511
 30
0.000000
  70
    32
  0
VERTEX
  8
0
  5
15167
 10
-387.837
 20
837.512
 30
0.000000
  70
    32
  0
VERTEX
  8
0
  5
15168
 10
-387.836
 20
837.513
 30
0.000000
  70
    32
  0
VERTEX
  8
0
  5
15169
 10
-387.834
 20
837.513
 30
0.000000
  70
    32
  0
VERTEX
  8
0
  5
1516A
 10
-387.832
 20
837.514
 30
0.000000
  70
    32
  0
VERTEX
  8
0
  5
1516B
 10
-387.831
 20
837.515
 30
0.000000
  70
    32
  0
VERTEX
  8
0
  5
1516C
 10
-387.829
 20
837.516
 30
0.000000
  70
    32
  0
VERTEX
  8
0
  5
1516D
 10
-387.828
 20
837.517
 30
0.000000
  70
    32
  0
VERTEX
  8
0
  5
1516E
 10
-387.826
 20
837.517
 30
0.000000
  70
    32
  0
VERTEX
  8
0
  5
1516F
 10
-387.825
 20
837.518
 30
0.000000
  70
    32
  0
VERTEX
  8
0
  5
15170
 10
-387.823
 20
837.519
 30
0.000000
  70
    32
  0
VERTEX
  8
0
  5
15171
 10
-387.822
 20
837.520
 30
0.000000
  70
    32
  0
VERTEX
  8
0
  5
15172
 10
-387.820
 20
837.521
 30
0.000000
  70
    32
  0
VERTEX
  8
0
  5
15173
 10
-387.818
 20
837.522
 30
0.000000
  70
    32
  0
VERTEX
  8
0
  5
15174
 10
-387.817
 20
837.523
 30
0.000000
  70
    32
  0
VERTEX
  8
0
  5
15175
 10
-387.815
 20
837.523
 30
0.000000
  70
    32
  0
VERTEX
  8
0
  5
15176
 10
-387.814
 20
837.524
 30
0.000000
  70
    32
  0
VERTEX
  8
0
  5
15177
 10
-387.812
 20
837.525
 30
0.000000
  70
    32
  0
VERTEX
  8
0
  5
15178
 10
-387.811
 20
837.526
 30
0.000000
  70
    32
  0
VERTEX
  8
0
  5
15179
 10
-387.809
 20
837.527
 30
0.000000
  70
    32
  0
VERTEX
  8
0
  5
1517A
 10
-387.808
 20
837.528
 30
0.000000
  70
    32
  0
VERTEX
  8
0
  5
1517B
 10
-387.807
 20
837.529
 30
0.000000
  70
    32
  0
VERTEX
  8
0
  5
1517C
 10
-387.805
 20
837.530
 30
0.000000
  70
    32
  0
VERTEX
  8
0
  5
1517D
 10
-387.804
 20
837.531
 30
0.000000
  70
    32
  0
VERTEX
  8
0
  5
1517E
 10
-387.802
 20
837.532
 30
0.000000
  70
    32
  0
VERTEX
  8
0
  5
1517F
 10
-387.801
 20
837.533
 30
0.000000
  70
    32
  0
VERTEX
  8
0
  5
15180
 10
-387.799
 20
837.534
 30
0.000000
  70
    32
  0
VERTEX
  8
0
  5
15181
 10
-387.798
 20
837.535
 30
0.000000
  70
    32
  0
VERTEX
  8
0
  5
15182
 10
-387.796
 20
837.536
 30
0.000000
  70
    32
  0
VERTEX
  8
0
  5
15183
 10
-387.795
 20
837.538
 30
0.000000
  70
    32
  0
VERTEX
  8
0
  5
15184
 10
-387.794
 20
837.539
 30
0.000000
  70
    32
  0
VERTEX
  8
0
  5
15185
 10
-387.792
 20
837.540
 30
0.000000
  70
    32
  0
VERTEX
  8
0
  5
15186
 10
-387.791
 20
837.541
 30
0.000000
  70
    32
  0
VERTEX
  8
0
  5
15187
 10
-387.790
 20
837.542
 30
0.000000
  70
    32
  0
VERTEX
  8
0
  5
15188
 10
-387.788
 20
837.543
 30
0.000000
  70
    32
  0
VERTEX
  8
0
  5
15189
 10
-387.787
 20
837.544
 30
0.000000
  70
    32
  0
VERTEX
  8
0
  5
1518A
 10
-387.785
 20
837.546
 30
0.000000
  70
    32
  0
VERTEX
  8
0
  5
1518B
 10
-387.784
 20
837.547
 30
0.000000
  70
    32
  0
VERTEX
  8
0
  5
1518C
 10
-387.783
 20
837.548
 30
0.000000
  70
    32
  0
VERTEX
  8
0
  5
1518D
 10
-387.781
 20
837.549
 30
0.000000
  70
    32
  0
VERTEX
  8
0
  5
1518E
 10
-387.780
 20
837.550
 30
0.000000
  70
    32
  0
VERTEX
  8
0
  5
1518F
 10
-387.779
 20
837.552
 30
0.000000
  70
    32
  0
VERTEX
  8
0
  5
15190
 10
-387.778
 20
837.553
 30
0.000000
  70
    32
  0
VERTEX
  8
0
  5
15191
 10
-387.776
 20
837.554
 30
0.000000
  70
    32
  0
VERTEX
  8
0
  5
15192
 10
-387.775
 20
837.555
 30
0.000000
  70
    32
  0
VERTEX
  8
0
  5
15193
 10
-387.774
 20
837.557
 30
0.000000
  70
    32
  0
VERTEX
  8
0
  5
15194
 10
-387.773
 20
837.558
 30
0.000000
  70
    32
  0
VERTEX
  8
0
  5
15195
 10
-387.771
 20
837.559
 30
0.000000
  70
    32
  0
VERTEX
  8
0
  5
15196
 10
-387.770
 20
837.560
 30
0.000000
  70
    32
  0
VERTEX
  8
0
  5
15197
 10
-387.769
 20
837.562
 30
0.000000
  70
    32
  0
VERTEX
  8
0
  5
15198
 10
-387.768
 20
837.563
 30
0.000000
  70
    32
  0
VERTEX
  8
0
  5
15199
 10
-387.767
 20
837.564
 30
0.000000
  70
    32
  0
VERTEX
  8
0
  5
1519A
 10
-387.765
 20
837.566
 30
0.000000
  70
    32
  0
VERTEX
  8
0
  5
1519B
 10
-387.764
 20
837.567
 30
0.000000
  70
    32
  0
VERTEX
  8
0
  5
1519C
 10
-387.763
 20
837.568
 30
0.000000
  70
    32
  0
VERTEX
  8
0
  5
1519D
 10
-387.762
 20
837.570
 30
0.000000
  70
    32
  0
VERTEX
  8
0
  5
1519E
 10
-387.761
 20
837.571
 30
0.000000
  70
    32
  0
VERTEX
  8
0
  5
1519F
 10
-387.760
 20
837.572
 30
0.000000
  70
    32
  0
VERTEX
  8
0
  5
151A0
 10
-387.759
 20
837.574
 30
0.000000
  70
    32
  0
VERTEX
  8
0
  5
151A1
 10
-387.757
 20
837.575
 30
0.000000
  70
    32
  0
VERTEX
  8
0
  5
151A2
 10
-387.756
 20
837.577
 30
0.000000
  70
    32
  0
VERTEX
  8
0
  5
151A3
 10
-387.755
 20
837.578
 30
0.000000
  70
    32
  0
VERTEX
  8
0
  5
151A4
 10
-387.754
 20
837.580
 30
0.000000
  70
    32
  0
VERTEX
  8
0
  5
151A5
 10
-387.753
 20
837.581
 30
0.000000
  70
    32
  0
VERTEX
  8
0
  5
151A6
 10
-387.752
 20
837.582
 30
0.000000
  70
    32
  0
VERTEX
  8
0
  5
151A7
 10
-387.751
 20
837.584
 30
0.000000
  70
    32
  0
VERTEX
  8
0
  5
151A8
 10
-387.750
 20
837.585
 30
0.000000
  70
    32
  0
VERTEX
  8
0
  5
151A9
 10
-387.749
 20
837.587
 30
0.000000
  70
    32
  0
VERTEX
  8
0
  5
151AA
 10
-387.748
 20
837.588
 30
0.000000
  70
    32
  0
VERTEX
  8
0
  5
151AB
 10
-387.747
 20
837.590
 30
0.000000
  70
    32
  0
VERTEX
  8
0
  5
151AC
 10
-387.746
 20
837.591
 30
0.000000
  70
    32
  0
VERTEX
  8
0
  5
151AD
 10
-387.745
 20
837.593
 30
0.000000
  70
    32
  0
VERTEX
  8
0
  5
151AE
 10
-387.745
 20
837.594
 30
0.000000
  70
    32
  0
VERTEX
  8
0
  5
151AF
 10
-387.744
 20
837.596
 30
0.000000
  70
    32
  0
VERTEX
  8
0
  5
151B0
 10
-387.743
 20
837.597
 30
0.000000
  70
    32
  0
VERTEX
  8
0
  5
151B1
 10
-387.742
 20
837.599
 30
0.000000
  70
    32
  0
VERTEX
  8
0
  5
151B2
 10
-387.741
 20
837.600
 30
0.000000
  70
    32
  0
VERTEX
  8
0
  5
151B3
 10
-387.740
 20
837.602
 30
0.000000
  70
    32
  0
VERTEX
  8
0
  5
151B4
 10
-387.739
 20
837.603
 30
0.000000
  70
    32
  0
VERTEX
  8
0
  5
151B5
 10
-387.738
 20
837.605
 30
0.000000
  70
    32
  0
VERTEX
  8
0
  5
151B6
 10
-387.738
 20
837.607
 30
0.000000
  70
    32
  0
VERTEX
  8
0
  5
151B7
 10
-387.737
 20
837.608
 30
0.000000
  70
    32
  0
VERTEX
  8
0
  5
151B8
 10
-387.736
 20
837.610
 30
0.000000
  70
    32
  0
VERTEX
  8
0
  5
151B9
 10
-387.735
 20
837.611
 30
0.000000
  70
    32
  0
VERTEX
  8
0
  5
151BA
 10
-387.735
 20
837.613
 30
0.000000
  70
    32
  0
VERTEX
  8
0
  5
151BB
 10
-387.734
 20
837.615
 30
0.000000
  70
    32
  0
VERTEX
  8
0
  5
151BC
 10
-387.733
 20
837.616
 30
0.000000
  70
    32
  0
VERTEX
  8
0
  5
151BD
 10
-387.732
 20
837.618
 30
0.000000
  70
    32
  0
VERTEX
  8
0
  5
151BE
 10
-387.732
 20
837.619
 30
0.000000
  70
    32
  0
VERTEX
  8
0
  5
151BF
 10
-387.731
 20
837.621
 30
0.000000
  70
    32
  0
VERTEX
  8
0
  5
151C0
 10
-387.730
 20
837.623
 30
0.000000
  70
    32
  0
VERTEX
  8
0
  5
151C1
 10
-387.730
 20
837.624
 30
0.000000
  70
    32
  0
VERTEX
  8
0
  5
151C2
 10
-387.729
 20
837.626
 30
0.000000
  70
    32
  0
VERTEX
  8
0
  5
151C3
 10
-387.728
 20
837.627
 30
0.000000
  70
    32
  0
VERTEX
  8
0
  5
151C4
 10
-387.728
 20
837.629
 30
0.000000
  70
    32
  0
VERTEX
  8
0
  5
151C5
 10
-387.727
 20
837.631
 30
0.000000
  70
    32
  0
VERTEX
  8
0
  5
151C6
 10
-387.726
 20
837.632
 30
0.000000
  70
    32
  0
VERTEX
  8
0
  5
151C7
 10
-387.726
 20
837.634
 30
0.000000
  70
    32
  0
VERTEX
  8
0
  5
151C8
 10
-387.725
 20
837.636
 30
0.000000
  70
    32
  0
VERTEX
  8
0
  5
151C9
 10
-387.724
 20
837.637
 30
0.000000
  70
    32
  0
VERTEX
  8
0
  5
151CA
 10
-387.724
 20
837.639
 30
0.000000
  70
    32
  0
VERTEX
  8
0
  5
151CB
 10
-387.723
 20
837.641
 30
0.000000
  70
    32
  0
VERTEX
  8
0
  5
151CC
 10
-387.722
 20
837.642
 30
0.000000
  70
    32
  0
VERTEX
  8
0
  5
151CD
 10
-387.722
 20
837.644
 30
0.000000
  70
    32
  0
VERTEX
  8
0
  5
151CE
 10
-387.721
 20
837.645
 30
0.000000
  70
    32
  0
VERTEX
  8
0
  5
151CF
 10
-387.720
 20
837.647
 30
0.000000
  70
    32
  0
VERTEX
  8
0
  5
151D0
 10
-387.720
 20
837.649
 30
0.000000
  70
    32
  0
VERTEX
  8
0
  5
151D1
 10
-387.719
 20
837.650
 30
0.000000
  70
    32
  0
VERTEX
  8
0
  5
151D2
 10
-387.718
 20
837.652
 30
0.000000
  70
    32
  0
VERTEX
  8
0
  5
151D3
 10
-387.718
 20
837.654
 30
0.000000
  70
    32
  0
VERTEX
  8
0
  5
151D4
 10
-387.717
 20
837.655
 30
0.000000
  70
    32
  0
VERTEX
  8
0
  5
151D5
 10
-387.716
 20
837.657
 30
0.000000
  70
    32
  0
VERTEX
  8
0
  5
151D6
 10
-387.716
 20
837.658
 30
0.000000
  70
    32
  0
VERTEX
  8
0
  5
151D7
 10
-387.715
 20
837.660
 30
0.000000
  70
    32
  0
VERTEX
  8
0
  5
151D8
 10
-387.714
 20
837.662
 30
0.000000
  70
    32
  0
VERTEX
  8
0
  5
151D9
 10
-387.714
 20
837.663
 30
0.000000
  70
    32
  0
VERTEX
  8
0
  5
151DA
 10
-387.713
 20
837.665
 30
0.000000
  70
    32
  0
VERTEX
  8
0
  5
151DB
 10
-387.712
 20
837.667
 30
0.000000
  70
    32
  0
VERTEX
  8
0
  5
151DC
 10
-387.711
 20
837.668
 30
0.000000
  70
    32
  0
VERTEX
  8
0
  5
151DD
 10
-387.711
 20
837.670
 30
0.000000
  70
    32
  0
VERTEX
  8
0
  5
151DE
 10
-387.710
 20
837.671
 30
0.000000
  70
    32
  0
VERTEX
  8
0
  5
151DF
 10
-387.709
 20
837.673
 30
0.000000
  70
    32
  0
VERTEX
  8
0
  5
151E0
 10
-387.708
 20
837.674
 30
0.000000
  70
    32
  0
VERTEX
  8
0
  5
151E1
 10
-387.708
 20
837.676
 30
0.000000
  70
    32
  0
VERTEX
  8
0
  5
151E2
 10
-387.707
 20
837.678
 30
0.000000
  70
    32
  0
VERTEX
  8
0
  5
151E3
 10
-387.706
 20
837.679
 30
0.000000
  70
    32
  0
VERTEX
  8
0
  5
151E4
 10
-387.705
 20
837.681
 30
0.000000
  70
    32
  0
VERTEX
  8
0
  5
151E5
 10
-387.704
 20
837.682
 30
0.000000
  70
    32
  0
VERTEX
  8
0
  5
151E6
 10
-387.704
 20
837.684
 30
0.000000
  70
    32
  0
VERTEX
  8
0
  5
151E7
 10
-387.703
 20
837.685
 30
0.000000
  70
    32
  0
VERTEX
  8
0
  5
151E8
 10
-387.702
 20
837.687
 30
0.000000
  70
    32
  0
VERTEX
  8
0
  5
151E9
 10
-387.701
 20
837.688
 30
0.000000
  70
    32
  0
VERTEX
  8
0
  5
151EA
 10
-387.700
 20
837.690
 30
0.000000
  70
    32
  0
VERTEX
  8
0
  5
151EB
 10
-387.699
 20
837.691
 30
0.000000
  70
    32
  0
VERTEX
  8
0
  5
151EC
 10
-387.698
 20
837.693
 30
0.000000
  70
    32
  0
VERTEX
  8
0
  5
151ED
 10
-387.697
 20
837.694
 30
0.000000
  70
    32
  0
VERTEX
  8
0
  5
151EE
 10
-387.696
 20
837.696
 30
0.000000
  70
    32
  0
VERTEX
  8
0
  5
151EF
 10
-387.695
 20
837.697
 30
0.000000
  70
    32
  0
VERTEX
  8
0
  5
151F0
 10
-387.694
 20
837.699
 30
0.000000
  70
    32
  0
VERTEX
  8
0
  5
151F1
 10
-387.693
 20
837.700
 30
0.000000
  70
    32
  0
VERTEX
  8
0
  5
151F2
 10
-387.692
 20
837.702
 30
0.000000
  70
    32
  0
VERTEX
  8
0
  5
151F3
 10
-387.691
 20
837.703
 30
0.000000
  70
    32
  0
VERTEX
  8
0
  5
151F4
 10
-387.690
 20
837.704
 30
0.000000
  70
    32
  0
VERTEX
  8
0
  5
151F5
 10
-387.689
 20
837.706
 30
0.000000
  70
    32
  0
VERTEX
  8
0
  5
151F6
 10
-387.687
 20
837.707
 30
0.000000
  70
    32
  0
VERTEX
  8
0
  5
151F7
 10
-387.686
 20
837.708
 30
0.000000
  70
    32
  0
VERTEX
  8
0
  5
151F8
 10
-387.685
 20
837.710
 30
0.000000
  70
    32
  0
VERTEX
  8
0
  5
151F9
 10
-387.684
 20
837.711
 30
0.000000
  70
    32
  0
VERTEX
  8
0
  5
151FA
 10
-387.683
 20
837.712
 30
0.000000
  70
    32
  0
VERTEX
  8
0
  5
151FB
 10
-387.681
 20
837.714
 30
0.000000
  70
    32
  0
VERTEX
  8
0
  5
151FC
 10
-387.680
 20
837.715
 30
0.000000
  70
    32
  0
VERTEX
  8
0
  5
151FD
 10
-387.679
 20
837.716
 30
0.000000
  70
    32
  0
VERTEX
  8
0
  5
151FE
 10
-387.678
 20
837.718
 30
0.000000
  70
    32
  0
VERTEX
  8
0
  5
151FF
 10
-387.676
 20
837.719
 30
0.000000
  70
    32
  0
VERTEX
  8
0
  5
15200
 10
-387.675
 20
837.720
 30
0.000000
  70
    32
  0
VERTEX
  8
0
  5
15201
 10
-387.674
 20
837.721
 30
0.000000
  70
    32
  0
VERTEX
  8
0
  5
15202
 10
-387.672
 20
837.722
 30
0.000000
  70
    32
  0
VERTEX
  8
0
  5
15203
 10
-387.671
 20
837.724
 30
0.000000
  70
    32
  0
VERTEX
  8
0
  5
15204
 10
-387.670
 20
837.725
 30
0.000000
  70
    32
  0
VERTEX
  8
0
  5
15205
 10
-387.668
 20
837.726
 30
0.000000
  70
    32
  0
VERTEX
  8
0
  5
15206
 10
-387.667
 20
837.727
 30
0.000000
  70
    32
  0
VERTEX
  8
0
  5
15207
 10
-387.666
 20
837.728
 30
0.000000
  70
    32
  0
VERTEX
  8
0
  5
15208
 10
-387.664
 20
837.729
 30
0.000000
  70
    32
  0
VERTEX
  8
0
  5
15209
 10
-387.663
 20
837.730
 30
0.000000
  70
    32
  0
VERTEX
  8
0
  5
1520A
 10
-387.661
 20
837.731
 30
0.000000
  70
    32
  0
VERTEX
  8
0
  5
1520B
 10
-387.660
 20
837.732
 30
0.000000
  70
    32
  0
VERTEX
  8
0
  5
1520C
 10
-387.658
 20
837.733
 30
0.000000
  70
    32
  0
VERTEX
  8
0
  5
1520D
 10
-387.657
 20
837.734
 30
0.000000
  70
    32
  0
VERTEX
  8
0
  5
1520E
 10
-387.655
 20
837.735
 30
0.000000
  70
    32
  0
VERTEX
  8
0
  5
1520F
 10
-387.654
 20
837.736
 30
0.000000
  70
    32
  0
VERTEX
  8
0
  5
15210
 10
-387.652
 20
837.737
 30
0.000000
  70
    32
  0
VERTEX
  8
0
  5
15211
 10
-387.651
 20
837.737
 30
0.000000
  70
    32
  0
VERTEX
  8
0
  5
15212
 10
-387.649
 20
837.738
 30
0.000000
  70
    32
  0
VERTEX
  8
0
  5
15213
 10
-387.647
 20
837.739
 30
0.000000
  70
    32
  0
VERTEX
  8
0
  5
15214
 10
-387.646
 20
837.740
 30
0.000000
  70
    32
  0
VERTEX
  8
0
  5
15215
 10
-387.644
 20
837.741
 30
0.000000
  70
    32
  0
VERTEX
  8
0
  5
15216
 10
-387.643
 20
837.741
 30
0.000000
  70
    32
  0
VERTEX
  8
0
  5
15217
 10
-387.641
 20
837.742
 30
0.000000
  70
    32
  0
VERTEX
  8
0
  5
15218
 10
-387.639
 20
837.743
 30
0.000000
  70
    32
  0
VERTEX
  8
0
  5
15219
 10
-387.638
 20
837.743
 30
0.000000
  70
    32
  0
VERTEX
  8
0
  5
1521A
 10
-387.636
 20
837.744
 30
0.000000
  70
    32
  0
VERTEX
  8
0
  5
1521B
 10
-387.634
 20
837.745
 30
0.000000
  70
    32
  0
VERTEX
  8
0
  5
1521C
 10
-387.633
 20
837.745
 30
0.000000
  70
    32
  0
VERTEX
  8
0
  5
1521D
 10
-387.631
 20
837.746
 30
0.000000
  70
    32
  0
VERTEX
  8
0
  5
1521E
 10
-387.629
 20
837.746
 30
0.000000
  70
    32
  0
VERTEX
  8
0
  5
1521F
 10
-387.628
 20
837.747
 30
0.000000
  70
    32
  0
VERTEX
  8
0
  5
15220
 10
-387.626
 20
837.747
 30
0.000000
  70
    32
  0
VERTEX
  8
0
  5
15221
 10
-387.624
 20
837.748
 30
0.000000
  70
    32
  0
VERTEX
  8
0
  5
15222
 10
-387.623
 20
837.748
 30
0.000000
  70
    32
  0
VERTEX
  8
0
  5
15223
 10
-387.621
 20
837.749
 30
0.000000
  70
    32
  0
VERTEX
  8
0
  5
15224
 10
-387.619
 20
837.749
 30
0.000000
  70
    32
  0
VERTEX
  8
0
  5
15225
 10
-387.618
 20
837.749
 30
0.000000
  70
    32
  0
VERTEX
  8
0
  5
15226
 10
-387.616
 20
837.750
 30
0.000000
  70
    32
  0
VERTEX
  8
0
  5
15227
 10
-387.614
 20
837.750
 30
0.000000
  70
    32
  0
VERTEX
  8
0
  5
15228
 10
-387.612
 20
837.751
 30
0.000000
  70
    32
  0
VERTEX
  8
0
  5
15229
 10
-387.611
 20
837.751
 30
0.000000
  70
    32
  0
VERTEX
  8
0
  5
1522A
 10
-387.609
 20
837.751
 30
0.000000
  70
    32
  0
VERTEX
  8
0
  5
1522B
 10
-387.607
 20
837.752
 30
0.000000
  70
    32
  0
VERTEX
  8
0
  5
1522C
 10
-387.605
 20
837.752
 30
0.000000
  70
    32
  0
VERTEX
  8
0
  5
1522D
 10
-387.604
 20
837.752
 30
0.000000
  70
    32
  0
VERTEX
  8
0
  5
1522E
 10
-387.602
 20
837.752
 30
0.000000
  70
    32
  0
VERTEX
  8
0
  5
1522F
 10
-387.600
 20
837.753
 30
0.000000
  70
    32
  0
VERTEX
  8
0
  5
15230
 10
-387.598
 20
837.753
 30
0.000000
  70
    32
  0
VERTEX
  8
0
  5
15231
 10
-387.597
 20
837.753
 30
0.000000
  70
    32
  0
SEQEND
  8
0
  5
15232
  0
ARC
  5
14E5B
  8
0
  6
CONTINUOUS
 10
-387.57753096304219
 20
838.14660592704763
 30
0.0
 40
0.0959106583542564
 50
90.0
 51
270.0
  0
ARC
  5
14E5C
  8
0
  6
CONTINUOUS
 10
-387.5655174920351
 20
838.77595237634603
 30
0.0
 40
0.3403173526664301
 50
270.56260379522098
 51
87.961187556181017
  0
ARC
  5
14E5D
  8
0
  6
CONTINUOUS
 10
-387.5728808864406
 20
839.44138091330376
 30
0.0
 40
0.2121147064719231
 50
177.864425711096
 51
250.49810770423429
  0
ARC
  5
14E5E
  8
0
  6
CONTINUOUS
 10
-387.66778478923419
 20
839.11016184968605
 30
0.0
 40
0.1334657112824708
 50
31.023207641216452
 51
79.600506688323279
  0
LINE
  5
14E5F
  8
0
  6
CONTINUOUS
 10
-387.59661526712023
 20
837.75310585337763
 30
0.0
 11
-387.59342587142947
 21
837.75310585337763
 31
0.0
  0
LINE
  5
14E60
  8
0
  6
CONTINUOUS
 10
-387.78484826853747
 20
839.44928519243877
 30
0.0
 11
-387.78484826853747
 21
839.51544837237225
 31
0.0
  0
LINE
  5
14E61
  8
0
  6
CONTINUOUS
 10
-387.57753096304219
 20
838.24251658540175
 30
0.0
 11
-387.56217587142947
 21
838.24251658540175
 31
0.0
  0
LINE
  5
14E62
  8
0
  6
CONTINUOUS
 10
-387.57753096304219
 20
838.05069526869318
 30
0.0
 11
-387.56217587142947
 21
838.05069526869318
 31
0.0
  0
ARC
  5
14E63
  8
0
  6
CONTINUOUS
 10
-387.59342587142947
 20
837.78435585337763
 30
0.0
 40
0.03125
 50
270.0
 51
0.0
  0
VIEWPORT
  5
BADA
 67
     1
  8
0
 10
5.249999665167528
 20
4.016860864854312
 30
0.0
 40
16.259362384438411
 41
8.0158201110956853
 68
     2
 69
     1
1001
ACAD
1000
MVIEW
1002
{
1070
    16
1010
0.0
1020
0.0
1030
0.0
1010
0.0
1020
0.0
1030
1.0
1040
0.0
1040
8.0158201110956853
1040
5.249999665167528
1040
4.016860864854312
1040
50.0
1040
0.0
1040
0.0
1070
     0
1070
   100
1070
     1
1070
     1
1070
     0
1070
     0
1070
     0
1070
     0
1040
0.0
1040
0.0
1040
0.0
1040
0.5
1040
0.5
1040
0.5
1040
0.5
1070
     0
1002
{
1002
}
1002
}
  0
VIEWPORT
  5
BADD
 67
     1
  8
0
 10
5.249999629487192
 20
4.0166741807634683
 30
0.0
 40
10.44245679893058
 41
7.8813805131999892
 68
     1
 69
     2
1001
ACAD
1000
MVIEW
1002
{
1070
    16
1010
0.0
1020
0.0
1030
0.0
1010
0.0
1020
0.0
1030
1.0
1040
0.0
1040
7.8813805131999892
1040
-386.98228224175318
1040
838.55170720428066
1040
50.0
1040
0.0
1040
0.0
1070
     0
1070
   100
1070
     1
1070
     2
1070
     0
1070
     0
1070
     0
1070
     0
1040
0.0
1040
0.0
1040
0.0
1040
0.5
1040
0.5
1040
0.5
1040
0.5
1070
     0
1002
{
1002
}
1002
}
  0
ENDSEC
  0
EOF
