  0
SECTION
  2
HEADER
  9
$ACADVER
  1
AC1009
  9
$INSBASE
 10
0.0
 20
0.0
 30
0.0
  9
$EXTMIN
 10
-388.0615153254812
 20
830.71141642465341
 30
-0.0015258207003583
  9
$EXTMAX
 10
-379.52287259496342
 20
854.92308910391705
 30
0.0000000349246037
  9
$LIMMIN
 10
0.0
 20
0.0
  9
$LIMMAX
 10
1500.0
 20
1500.0
  9
$ORTHOMODE
 70
     0
  9
$REGENMODE
 70
     1
  9
$FILLMODE
 70
     1
  9
$QTEXTMODE
 70
     0
  9
$MIRRTEXT
 70
     1
  9
$DRAGMODE
 70
     2
  9
$LTSCALE
 40
1.0
  9
$OSMODE
 70
    37
  9
$ATTMODE
 70
     1
  9
$TEXTSIZE
 40
1.5
  9
$TRACEWID
 40
0.05
  9
$TEXTSTYLE
  7
STANDARD
  9
$CLAYER
  8
0
  9
$CELTYPE
  6
BYLAYER
  9
$CECOLOR
 62
   256
  9
$DIMSCALE
 40
1.0
  9
$DIMASZ
 40
0.75
  9
$DIMEXO
 40
1.5
  9
$DIMDLI
 40
2.0
  9
$DIMRND
 40
0.0
  9
$DIMDLE
 40
0.0
  9
$DIMEXE
 40
1.0
  9
$DIMTP
 40
0.0
  9
$DIMTM
 40
0.0
  9
$DIMTXT
 40
1.5
  9
$DIMCEN
 40
2.0
  9
$DIMTSZ
 40
0.0
  9
$DIMTOL
 70
     0
  9
$DIMLIM
 70
     0
  9
$DIMTIH
 70
     0
  9
$DIMTOH
 70
     0
  9
$DIMSE1
 70
     0
  9
$DIMSE2
 70
     0
  9
$DIMTAD
 70
     1
  9
$DIMZIN
 70
     0
  9
$DIMBLK
  1
ARCHTICK
  9
$DIMASO
 70
     1
  9
$DIMSHO
 70
     1
  9
$DIMPOST
  1
"
  9
$DIMAPOST
  1

  9
$DIMALT
 70
     0
  9
$DIMALTD
 70
     2
  9
$DIMALTF
 40
25.399999999999999
  9
$DIMLFAC
 40
1.0
  9
$DIMTOFL
 70
     0
  9
$DIMTVP
 40
0.0
  9
$DIMTIX
 70
     1
  9
$DIMSOXD
 70
     0
  9
$DIMSAH
 70
     0
  9
$DIMBLK1
  1

  9
$DIMBLK2
  1

  9
$DIMSTYLE
  2
THREE_QUARTER_INCH_SCALE
  9
$DIMCLRD
 70
     0
  9
$DIMCLRE
 70
     0
  9
$DIMCLRT
 70
     0
  9
$DIMTFAC
 40
1.0
  9
$DIMGAP
 40
1.0
  9
$LUNITS
 70
     2
  9
$LUPREC
 70
     4
  9
$SKETCHINC
 40
0.1
  9
$FILLETRAD
 40
0.0
  9
$AUNITS
 70
     0
  9
$AUPREC
 70
     0
  9
$MENU
  1
.
  9
$ELEVATION
 40
0.0
  9
$PELEVATION
 40
0.0
  9
$THICKNESS
 40
0.0
  9
$LIMCHECK
 70
     0
  9
$BLIPMODE
 70
     0
  9
$CHAMFERA
 40
0.5
  9
$CHAMFERB
 40
0.5
  9
$SKPOLY
 70
     0
  9
$TDCREATE
 40
2452089.395738773
  9
$TDUPDATE
 40
2453607.4200249538
  9
$TDINDWG
 40
1.0993568056
  9
$TDUSRTIMER
 40
1.0993568056
  9
$USRTIMER
 70
     1
  9
$ANGBASE
 50
0.0
  9
$ANGDIR
 70
     0
  9
$PDMODE
 70
     0
  9
$PDSIZE
 40
10.0
  9
$PLINEWID
 40
0.0
  9
$COORDS
 70
     1
  9
$SPLFRAME
 70
     0
  9
$SPLINETYPE
 70
     6
  9
$SPLINESEGS
 70
     8
  9
$ATTDIA
 70
     0
  9
$ATTREQ
 70
     1
  9
$HANDLING
 70
     1
  9
$HANDSEED
  5
1515A
  9
$SURFTAB1
 70
     6
  9
$SURFTAB2
 70
     6
  9
$SURFTYPE
 70
     6
  9
$SURFU
 70
     6
  9
$SURFV
 70
     6
  9
$UCSNAME
  2

  9
$UCSORG
 10
0.0
 20
0.0
 30
0.0
  9
$UCSXDIR
 10
1.0
 20
0.0
 30
0.0
  9
$UCSYDIR
 10
0.0
 20
1.0
 30
0.0
  9
$PUCSNAME
  2

  9
$PUCSORG
 10
0.0
 20
0.0
 30
0.0
  9
$PUCSXDIR
 10
1.0
 20
0.0
 30
0.0
  9
$PUCSYDIR
 10
0.0
 20
1.0
 30
0.0
  9
$USERI1
 70
     0
  9
$USERI2
 70
     0
  9
$USERI3
 70
     0
  9
$USERI4
 70
     0
  9
$USERI5
 70
     0
  9
$USERR1
 40
0.0
  9
$USERR2
 40
0.0
  9
$USERR3
 40
0.0
  9
$USERR4
 40
0.0
  9
$USERR5
 40
0.0
  9
$WORLDVIEW
 70
     1
  9
$SHADEDGE
 70
     3
  9
$SHADEDIF
 70
    70
  9
$TILEMODE
 70
     0
  9
$MAXACTVP
 70
    64
  9
$PLIMCHECK
 70
     0
  9
$PEXTMIN
 10
0.0287712300219028
 20
0.0759839241634737
 30
0.0
  9
$PEXTMAX
 10
10.47122802895248
 20
7.957364437363462
 30
0.0
  9
$PLIMMIN
 10
-0.2500002402958907
 20
-0.2499999962453767
  9
$PLIMMAX
 10
10.74999951940821
 20
8.2499997634587316
  9
$UNITMODE
 70
     0
  9
$VISRETAIN
 70
     1
  9
$PLINEGEN
 70
     0
  9
$PSLTSCALE
 70
     1
  0
ENDSEC
  0
SECTION
  2
TABLES
  0
TABLE
  2
VPORT
 70
    73
  0
VPORT
  2
*ACTIVE
 70
     0
 10
0.0
 20
0.0
 11
1.0
 21
1.0
 12
-385.31102153865987
 22
840.81340258964326
 13
0.0
 23
0.0
 14
0.5
 24
0.5
 15
0.5
 25
0.5
 16
0.0
 26
0.0
 36
1.0
 17
0.0
 27
0.0
 37
0.0
 40
7.491125714905146
 41
2.0284090909090899
 42
50.0
 43
0.0
 44
0.0
 50
0.0
 51
0.0
 71
     0
 72
   100
 73
     1
 74
     2
 75
     0
 76
     0
 77
     0
 78
     0
  0
ENDTAB
  0
TABLE
  2
LTYPE
 70
     1
  0
LTYPE
  2
CONTINUOUS
 70
     0
  3
Solid line
 72
    65
 73
     0
 40
0.0
  0
ENDTAB
  0
TABLE
  2
LAYER
 70
    10
  0
LAYER
  2
0
 70
     0
 62
     7
  6
CONTINUOUS
  0
LAYER
  2
DEFPOINTS
 70
     0
 62
     7
  6
CONTINUOUS
  0
LAYER
  2
FRAME_200
 70
     0
 62
     8
  6
CONTINUOUS
  0
LAYER
  2
FRAME_070
 70
     0
 62
     5
  6
CONTINUOUS
  0
LAYER
  2
FRAME_050
 70
     0
 62
     6
  6
CONTINUOUS
  0
LAYER
  2
TITLE_BLOCK
 70
     0
 62
     7
  6
CONTINUOUS
  0
LAYER
  2
FRAME_025
 70
     0
 62
     7
  6
CONTINUOUS
  0
LAYER
  2
VIEWPORT
 70
     0
 62
     7
  6
CONTINUOUS
  0
LAYER
  2
PROF
 70
     0
 62
     7
  6
CONTINUOUS
  0
LAYER
  2
PROFILE
 70
     0
 62
     7
  6
CONTINUOUS
  0
ENDTAB
  0
TABLE
  2
STYLE
 70
     2
  0
STYLE
  2
STANDARD
 70
     0
 40
0.0
 41
1.0
 50
0.0
 71
     0
 42
1.5
  3
txt
  4

  0
STYLE
  2
ISO_PROPORTIONAL
 70
     0
 40
0.0
 41
1.0
 50
0.0
 71
     0
 42
2.5
  3
isocp.shx
  4

  0
ENDTAB
  0
TABLE
  2
VIEW
 70
    78
  0
ENDTAB
  0
TABLE
  2
UCS
 70
     0
  0
ENDTAB
  0
TABLE
  2
APPID
 70
     6
  0
APPID
  2
ACAD
 70
     0
  0
APPID
  2
DCO15
 70
     0
  0
APPID
  2
ACAD_EXEMPT_FROM_CAD_STANDARDS
 70
     0
  0
APPID
  2
ACAD_PSEXT
 70
     0
  0
APPID
  2
CONTENTBLOCKDESCRIPTION
 70
     0
  0
APPID
  2
CONTENTBLOCKICON
 70
     0
  0
ENDTAB
  0
TABLE
  2
DIMSTYLE
 70
     5
  0
DIMSTYLE
  2
FULL_SCALE
 70
     0
  3
"
  4

  5
ARCHTICK
  6

  7

 40
1.0
 41
0.046875
 42
0.09375
 43
0.125
 44
0.0625
 45
0.0
 46
0.0
 47
0.0
 48
0.0
140
0.125
141
0.125
142
0.0
143
25.399999999999999
144
1.0
145
0.0
146
1.0
147
0.0625
 71
     0
 72
     0
 73
     0
 74
     0
 75
     0
 76
     0
 77
     1
 78
     0
170
     0
171
     2
172
     0
173
     0
174
     1
175
     0
176
     0
177
     0
178
     0
  0
DIMSTYLE
  2
HALF_SCALE
 70
     0
  3
"
  4

  5
ARCHTICK
  6

  7

 40
1.0
 41
0.09375
 42
0.1875
 43
0.25
 44
0.125
 45
0.0
 46
0.0
 47
0.0
 48
0.0
140
0.25
141
0.25
142
0.0
143
25.399999999999999
144
1.0
145
0.0
146
1.0
147
0.125
 71
     0
 72
     0
 73
     0
 74
     0
 75
     0
 76
     0
 77
     1
 78
     0
170
     0
171
     2
172
     0
173
     0
174
     1
175
     0
176
     0
177
     0
178
     0
  0
DIMSTYLE
  2
INCH_SCALE
 70
     0
  3
"
  4

  5
ARCHTICK
  6

  7

 40
1.0
 41
0.5625
 42
1.125
 43
1.5
 44
0.75
 45
0.0
 46
0.0
 47
0.0
 48
0.0
140
1.125
141
1.5
142
0.0
143
25.399999999999999
144
1.0
145
0.0
146
1.0
147
0.75
 71
     0
 72
     0
 73
     0
 74
     0
 75
     0
 76
     0
 77
     1
 78
     0
170
     0
171
     2
172
     0
173
     0
174
     1
175
     0
176
     0
177
     0
178
     0
  0
DIMSTYLE
  2
THREE_QUARTER_INCH_SCALE
 70
     0
  3
"
  4

  5
ARCHTICK
  6

  7

 40
1.0
 41
0.75
 42
1.5
 43
2.0
 44
1.0
 45
0.0
 46
0.0
 47
0.0
 48
0.0
140
1.5
141
2.0
142
0.0
143
25.399999999999999
144
1.0
145
0.0
146
1.0
147
1.0
 71
     0
 72
     0
 73
     0
 74
     0
 75
     0
 76
     0
 77
     1
 78
     0
170
     0
171
     2
172
     0
173
     0
174
     1
175
     0
176
     0
177
     0
178
     0
  0
DIMSTYLE
  2
ZHALF_INCH_SCALE
 70
     0
  3
"
  4

  5
ARCHTICK
  6

  7

 40
1.0
 41
1.125
 42
2.25
 43
3.0
 44
1.5
 45
0.0
 46
0.0
 47
0.0
 48
0.0
140
2.25
141
3.0
142
0.0
143
25.399999999999999
144
1.0
145
0.0
146
1.0
147
1.5
 71
     0
 72
     0
 73
     0
 74
     0
 75
     0
 76
     0
 77
     1
 78
     0
170
     0
171
     2
172
     0
173
     0
174
     1
175
     0
176
     0
177
     0
178
     0
  0
ENDTAB
  0
ENDSEC
  0
SECTION
  2
BLOCKS
  0
BLOCK
  8
0
  2
$MODEL_SPACE
 70
     0
 10
0.0
 20
0.0
 30
0.0
  3
$MODEL_SPACE
  1

  0
ENDBLK
  5
21
  8
0
  0
BLOCK
 67
     1
  8
0
  2
$PAPER_SPACE
 70
     0
 10
0.0
 20
0.0
 30
0.0
  3
$PAPER_SPACE
  1

  0
ENDBLK
  5
BAD5
 67
     1
  8
0
  0
BLOCK
  8
0
  2
_ARCHTICK
 70
     0
 10
0.0
 20
0.0
 30
0.0
  3
_ARCHTICK
  1

  0
POLYLINE
  5
158
  8
0
  6
BYBLOCK
 62
     0
 66
     1
 10
0.0
 20
0.0
 30
0.0
 40
0.15
 41
0.15
  0
VERTEX
  5
14CAB
  8
0
  6
BYBLOCK
 62
     0
 10
-0.5
 20
-0.5
 30
0.0
  0
VERTEX
  5
14CAC
  8
0
  6
BYBLOCK
 62
     0
 10
0.5
 20
0.5
 30
0.0
  0
SEQEND
  5
14CAD
  8
0
  6
BYBLOCK
 62
     0
  0
ENDBLK
  5
15A
  8
0
  0
BLOCK
  8
0
  2
_OPEN30
 70
     0
 10
0.0
 20
0.0
 30
0.0
  3
_OPEN30
  1

  0
LINE
  5
15C
  8
0
  6
BYBLOCK
 62
     0
 10
-1.0
 20
0.26794919
 30
0.0
 11
0.0
 21
0.0
 31
0.0
  0
LINE
  5
15D
  8
0
  6
BYBLOCK
 62
     0
 10
0.0
 20
0.0
 30
0.0
 11
-1.0
 21
-0.26794919
 31
0.0
  0
LINE
  5
15E
  8
0
  6
BYBLOCK
 62
     0
 10
0.0
 20
0.0
 30
0.0
 11
-1.0
 21
0.0
 31
0.0
  0
ENDBLK
  5
160
  8
0
  0
BLOCK
  8
0
  2
ISO_A2_TITLE_BLOCK
 70
     2
 10
0.0
 20
0.0
 30
0.0
  3
ISO_A2_TITLE_BLOCK
  1

  0
LINE
  5
BDD
  8
FRAME_050
 10
299.5
 20
12.5
 30
0.0
 11
297.0
 21
7.5
 31
0.0
  0
LINE
  5
BDE
  8
FRAME_050
 10
294.5
 20
12.5
 30
0.0
 11
299.5
 21
12.5
 31
0.0
  0
LINE
  5
BDF
  8
FRAME_050
 10
247.0
 20
5.0
 30
0.0
 11
347.0
 21
5.0
 31
0.0
  0
LINE
  5
BE0
  8
FRAME_070
 10
584.0
 20
410.0
 30
0.0
 11
10.0
 21
410.0
 31
0.0
  0
LINE
  5
BE1
  8
FRAME_070
 10
10.0
 20
10.0
 30
0.0
 11
584.0
 21
10.0
 31
0.0
  0
LINE
  5
BE2
  8
FRAME_050
 10
12.5
 20
207.5
 30
0.0
 11
7.5
 21
210.0
 31
0.0
  0
LINE
  5
BE3
  8
FRAME_050
 10
12.5
 20
212.5
 30
0.0
 11
12.5
 21
207.5
 31
0.0
  0
LINE
  5
BE4
  8
FRAME_070
 10
10.0
 20
410.0
 30
0.0
 11
10.0
 21
10.0
 31
0.0
  0
LINE
  5
BE5
  8
FRAME_200
 10
0.0
 20
0.0
 30
0.0
 11
0.0
 21
10.0
 31
0.0
  0
LINE
  5
BE6
  8
FRAME_200
 10
0.0
 20
0.0
 30
0.0
 11
10.0
 21
0.0
 31
0.0
  0
TEXT
  5
BE7
  8
FRAME_050
 10
5.9000000000000004
 20
35.0
 30
0.0
 40
4.0
  1
H
  7
ISO_PROPORTIONAL
 72
     4
 11
7.5
 21
37.0
 31
0.0
  0
LINE
  5
BE8
  8
FRAME_050
 10
10.0
 20
60.0
 30
0.0
 11
5.0
 21
60.0
 31
0.0
  0
LINE
  5
BE9
  8
FRAME_050
 10
81.75
 20
5.0
 30
0.0
 11
81.75
 21
10.0
 31
0.0
  0
TEXT
  5
BEA
  8
FRAME_050
 10
44.874999999999993
 20
5.5
 30
0.0
 40
4.0
  1
1
  7
ISO_PROPORTIONAL
 72
     4
 11
45.875
 21
7.5
 31
0.0
  0
TEXT
  5
BEB
  8
FRAME_050
 10
6.0035533905932743
 20
85.0
 30
0.0
 40
4.0
  1
G
  7
ISO_PROPORTIONAL
 72
     4
 11
7.5
 21
87.0
 31
0.0
  0
LINE
  5
BEC
  8
FRAME_050
 10
10.0
 20
110.0
 30
0.0
 11
5.0
 21
110.0
 31
0.0
  0
TEXT
  5
BED
  8
FRAME_050
 10
6.0999999999999988
 20
135.0
 30
0.0
 40
4.0
  1
F
  7
ISO_PROPORTIONAL
 72
     4
 11
7.5
 21
137.0
 31
0.0
  0
LINE
  5
BEE
  8
FRAME_050
 10
10.0
 20
160.0
 30
0.0
 11
5.0
 21
160.0
 31
0.0
  0
TEXT
  5
BEF
  8
FRAME_050
 10
6.0999999999999988
 20
185.0
 30
0.0
 40
4.0
  1
E
  7
ISO_PROPORTIONAL
 72
     4
 11
7.5
 21
187.0
 31
0.0
  0
LINE
  5
BF0
  8
FRAME_050
 10
153.5
 20
5.0
 30
0.0
 11
153.5
 21
10.0
 31
0.0
  0
TEXT
  5
BF1
  8
FRAME_050
 10
116.1556692913386
 20
5.3996062992125982
 30
0.0
 40
4.0
  1
2
  7
ISO_PROPORTIONAL
 72
     4
 11
117.625
 21
7.5
 31
0.0
  0
TEXT
  5
BF2
  8
FRAME_050
 10
187.89215728752529
 20
5.5828427124746138
 30
0.0
 40
4.0
  1
3
  7
ISO_PROPORTIONAL
 72
     4
 11
189.375
 21
7.5
 31
0.0
  0
LINE
  5
BF3
  8
FRAME_050
 10
225.25
 20
5.0
 30
0.0
 11
225.25
 21
10.0
 31
0.0
  0
LINE
  5
BF4
  8
FRAME_050
 10
297.0
 20
7.5
 30
0.0
 11
294.5
 21
12.5
 31
0.0
  0
LINE
  5
BF5
  8
FRAME_050
 10
287.0
 20
5.0
 30
0.0
 11
287.0
 21
10.0
 31
0.0
  0
LINE
  5
BF6
  8
FRAME_050
 10
277.0
 20
5.0
 30
0.0
 11
277.0
 21
10.0
 31
0.0
  0
LINE
  5
BF7
  8
FRAME_050
 10
267.0
 20
5.0
 30
0.0
 11
267.0
 21
10.0
 31
0.0
  0
LINE
  5
BF8
  8
FRAME_050
 10
257.0
 20
5.0
 30
0.0
 11
257.0
 21
10.0
 31
0.0
  0
LINE
  5
BF9
  8
FRAME_050
 10
247.0
 20
5.0
 30
0.0
 11
247.0
 21
10.0
 31
0.0
  0
LINE
  5
BFA
  8
FRAME_050
 10
297.0
 20
10.0
 30
0.0
 11
297.0
 21
5.0
 31
0.0
  0
LINE
  5
BFB
  8
FRAME_050
 10
297.0
 20
10.0
 30
0.0
 11
297.0
 21
15.0
 31
0.0
  0
LINE
  5
BFC
  8
FRAME_050
 10
5.0
 20
210.0
 30
0.0
 11
15.0
 21
210.0
 31
0.0
  0
LINE
  5
BFD
  8
FRAME_050
 10
7.5
 20
210.0
 30
0.0
 11
12.5
 21
212.5
 31
0.0
  0
TEXT
  5
BFE
  8
FRAME_050
 10
5.7860912703473977
 20
235.0
 30
0.0
 40
4.0
  1
D
  7
ISO_PROPORTIONAL
 72
     4
 11
7.5
 21
237.0
 31
0.0
  0
LINE
  5
BFF
  8
FRAME_050
 10
10.0
 20
260.0
 30
0.0
 11
5.0
 21
260.0
 31
0.0
  0
TEXT
  5
C00
  8
FRAME_050
 10
6.1931980515339466
 20
285.0
 30
0.0
 40
4.0
  1
C
  7
ISO_PROPORTIONAL
 72
     4
 11
7.5
 21
287.0
 31
0.0
  0
LINE
  5
C01
  8
FRAME_050
 10
10.0
 20
310.0
 30
0.0
 11
5.0
 21
310.0
 31
0.0
  0
TEXT
  5
C02
  8
FRAME_050
 10
5.8999999999999959
 20
335.0
 30
0.0
 40
4.0
  1
B
  7
ISO_PROPORTIONAL
 72
     4
 11
7.5
 21
337.0
 31
0.0
  0
LINE
  5
C03
  8
FRAME_050
 10
10.0
 20
360.0
 30
0.0
 11
5.0
 21
360.0
 31
0.0
  0
TEXT
  5
C04
  8
FRAME_050
 10
5.6999999999999993
 20
385.0
 30
0.0
 40
4.0
  1
A
  7
ISO_PROPORTIONAL
 72
     4
 11
7.5
 21
387.0
 31
0.0
  0
LINE
  5
C05
  8
FRAME_200
 10
10.0
 20
420.0
 30
0.0
 11
0.0
 21
420.0
 31
0.0
  0
LINE
  5
C06
  8
FRAME_200
 10
0.0
 20
420.0
 30
0.0
 11
0.0
 21
410.0
 31
0.0
  0
TEXT
  5
C07
  8
FRAME_050
 10
44.874999999999993
 20
410.5
 30
0.0
 40
4.0
  1
1
  7
ISO_PROPORTIONAL
 72
     4
 11
45.875
 21
412.5
 31
0.0
  0
LINE
  5
C08
  8
FRAME_050
 10
81.75
 20
410.0
 30
0.0
 11
81.75
 21
415.0
 31
0.0
  0
TEXT
  5
C09
  8
FRAME_050
 10
116.1556692913386
 20
410.39960629921262
 30
0.0
 40
4.0
  1
2
  7
ISO_PROPORTIONAL
 72
     4
 11
117.625
 21
412.5
 31
0.0
  0
LINE
  5
C0A
  8
FRAME_050
 10
153.5
 20
410.0
 30
0.0
 11
153.5
 21
415.0
 31
0.0
  0
TEXT
  5
C0B
  8
FRAME_050
 10
187.89215728752529
 20
410.58284271247459
 30
0.0
 40
4.0
  1
3
  7
ISO_PROPORTIONAL
 72
     4
 11
189.375
 21
412.5
 31
0.0
  0
LINE
  5
C0C
  8
FRAME_050
 10
297.0
 20
405.0
 30
0.0
 11
297.0
 21
415.0
 31
0.0
  0
LINE
  5
C0D
  8
FRAME_050
 10
225.25
 20
410.0
 30
0.0
 11
225.25
 21
415.0
 31
0.0
  0
TEXT
  5
C0E
  8
FRAME_050
 10
259.52499999999998
 20
410.5
 30
0.0
 40
4.0
  1
4
  7
ISO_PROPORTIONAL
 72
     4
 11
261.125
 21
412.5
 31
0.0
  0
LINE
  5
C0F
  8
FRAME_070
 10
584.0
 20
10.0
 30
0.0
 11
584.0
 21
410.0
 31
0.0
  0
ATTDEF
  5
C10
  8
FRAME_025
 10
473.0
 20
31.75
 30
0.0
 40
2.5
  1
XXX - 00/00/00
  7
ISO_PROPORTIONAL
 11
473.0
 21
33.0
 31
0.0
  3
Approved by - Date
  2
APPROVED_BY_DATE
 70
     8
 74
     2
  0
TEXT
  5
C11
  8
FRAME_025
 10
448.0
 20
41.749999999999993
 30
0.0
 40
2.5
  1
Title/Name, designation, material, dimension etc
  7
ISO_PROPORTIONAL
 11
448.0
 21
43.0
 31
0.0
 73
     2
  0
TEXT
  5
C12
  8
FRAME_025
 10
473.0
 20
35.75
 30
0.0
 40
2.5
  1
Approved by - date
  7
ISO_PROPORTIONAL
 11
473.0
 21
37.0
 31
0.0
 73
     2
  0
LINE
  5
C13
  8
FRAME_070
 10
414.0
 20
46.0
 30
0.0
 11
584.0
 21
46.0
 31
0.0
  0
LINE
  5
C14
  8
FRAME_070
 10
414.0
 20
40.0
 30
0.0
 11
584.0
 21
40.0
 31
0.0
  0
LINE
  5
C15
  8
FRAME_070
 10
414.0
 20
30.0
 30
0.0
 11
584.0
 21
30.0
 31
0.0
  0
LINE
  5
C16
  8
FRAME_050
 10
368.75
 20
5.0
 30
0.0
 11
368.75
 21
10.0
 31
0.0
  0
LINE
  5
C17
  8
FRAME_050
 10
337.0
 20
5.0
 30
0.0
 11
337.0
 21
10.0
 31
0.0
  0
LINE
  5
C18
  8
FRAME_050
 10
327.0
 20
5.0
 30
0.0
 11
327.0
 21
10.0
 31
0.0
  0
LINE
  5
C19
  8
FRAME_050
 10
317.0
 20
5.0
 30
0.0
 11
317.0
 21
10.0
 31
0.0
  0
LINE
  5
C1A
  8
FRAME_050
 10
307.0
 20
5.0
 30
0.0
 11
307.0
 21
10.0
 31
0.0
  0
LINE
  5
C1B
  8
FRAME_050
 10
347.0
 20
5.0
 30
0.0
 11
347.0
 21
10.0
 31
0.0
  0
LINE
  5
C1C
  8
FRAME_050
 10
440.5
 20
5.0
 30
0.0
 11
440.5
 21
10.0
 31
0.0
  0
TEXT
  5
C1D
  8
FRAME_050
 10
403.24547244094481
 20
5.4102362204724406
 30
0.0
 40
4.0
  1
6
  7
ISO_PROPORTIONAL
 72
     4
 11
404.62499999999989
 21
7.5
 31
0.0
  0
TEXT
  5
C1E
  8
FRAME_050
 10
474.97500000000002
 20
5.5
 30
0.0
 40
4.0
  1
7
  7
ISO_PROPORTIONAL
 72
     4
 11
476.37499999999989
 21
7.5
 31
0.0
  0
TEXT
  5
C1F
  8
FRAME_025
 10
431.0
 20
41.749999999999993
 30
0.0
 40
2.5
  1
Quantity
  7
ISO_PROPORTIONAL
 11
431.0
 21
43.0
 31
0.0
 73
     2
  0
TEXT
  5
C20
  8
FRAME_025
 10
416.0
 20
41.749999999999993
 30
0.0
 40
2.5
  1
Itemref
  7
ISO_PROPORTIONAL
 11
416.0
 21
43.0
 31
0.0
 73
     2
  0
LINE
  5
C21
  8
FRAME_070
 10
414.0
 20
40.0
 30
0.0
 11
414.0
 21
46.0
 31
0.0
  0
LINE
  5
C22
  8
FRAME_070
 10
429.0
 20
40.0
 30
0.0
 11
429.0
 21
46.0
 31
0.0
  0
LINE
  5
C23
  8
FRAME_070
 10
414.0
 20
10.0
 30
0.0
 11
414.0
 21
40.0
 31
0.0
  0
ATTDEF
  5
C24
  8
FRAME_025
 10
416.0
 20
31.75
 30
0.0
 40
2.5
  1
XXX
  7
ISO_PROPORTIONAL
 11
416.0
 21
33.0
 31
0.0
  3
Designed by
  2
DESIGNED_BY
 70
     8
 74
     2
  0
TEXT
  5
C25
  8
FRAME_025
 10
416.0
 20
35.75
 30
0.0
 40
2.5
  1
Designed by
  7
ISO_PROPORTIONAL
 11
416.0
 21
37.0
 31
0.0
 73
     2
  0
LINE
  5
C26
  8
FRAME_070
 10
446.0
 20
40.0
 30
0.0
 11
446.0
 21
46.0
 31
0.0
  0
ATTDEF
  5
C27
  8
FRAME_025
 10
448.0
 20
31.75
 30
0.0
 40
2.5
  1
XXX
  7
ISO_PROPORTIONAL
 11
448.0
 21
33.0
 31
0.0
  3
Checked by
  2
CHECKED_BY
 70
     8
 74
     2
  0
TEXT
  5
C28
  8
FRAME_025
 10
448.0
 20
35.75
 30
0.0
 40
2.5
  1
Checked by
  7
ISO_PROPORTIONAL
 11
448.0
 21
37.0
 31
0.0
 73
     2
  0
ATTDEF
  5
C29
  8
FRAME_050
 10
444.74999999999989
 20
17.5
 30
0.0
 40
5.0
  1
XXX
  7
ISO_PROPORTIONAL
 72
     4
 11
451.49999999999989
 21
20.0
 31
0.0
  3
Owner
  2
OWNER
 70
     8
  0
LINE
  5
C2A
  8
FRAME_070
 10
446.0
 20
30.0
 30
0.0
 11
446.0
 21
40.0
 31
0.0
  0
LINE
  5
C2B
  8
FRAME_070
 10
471.0
 20
30.0
 30
0.0
 11
471.0
 21
40.0
 31
0.0
  0
LINE
  5
C2C
  8
FRAME_070
 10
489.0
 20
20.0
 30
0.0
 11
584.0
 21
20.0
 31
0.0
  0
LINE
  5
C2D
  8
FRAME_050
 10
512.25
 20
5.0
 30
0.0
 11
512.25
 21
10.0
 31
0.0
  0
TEXT
  5
C2E
  8
FRAME_050
 10
546.72499999999991
 20
5.5
 30
0.0
 40
4.0
  1
8
  7
ISO_PROPORTIONAL
 72
     4
 11
548.125
 21
7.5
 31
0.0
  0
ATTDEF
  5
C2F
  8
FRAME_050
 10
517.64999999999986
 20
13.5
 30
0.0
 40
3.0
  1
X
  7
ISO_PROPORTIONAL
 72
     4
 11
519.0
 21
15.0
 31
0.0
  3
Drawing number
  2
DRAWING_NUMBER
 70
     8
  0
ATTDEF
  5
C30
  8
FRAME_050
 10
529.75
 20
22.5
 30
0.0
 40
5.0
  1
XXX
  7
ISO_PROPORTIONAL
 72
     4
 11
536.5
 21
25.0
 31
0.0
  3
Title / Name
  2
TITLE
 70
     8
  0
LINE
  5
C31
  8
FRAME_070
 10
489.0
 20
10.0
 30
0.0
 11
489.0
 21
30.0
 31
0.0
  0
ATTDEF
  5
C32
  8
FRAME_025
 10
511.0
 20
31.75
 30
0.0
 40
2.5
  1
XXX
  7
ISO_PROPORTIONAL
 11
511.0
 21
33.0
 31
0.0
  3
Filename
  2
FILENAME
 70
     8
 74
     2
  0
TEXT
  5
C33
  8
FRAME_025
 10
511.0
 20
35.75
 30
0.0
 40
2.5
  1
Filename
  7
ISO_PROPORTIONAL
 11
511.0
 21
37.0
 31
0.0
 73
     2
  0
LINE
  5
C34
  8
FRAME_070
 10
509.0
 20
30.0
 30
0.0
 11
509.0
 21
40.0
 31
0.0
  0
TEXT
  5
C35
  8
FRAME_025
 10
536.0
 20
41.749999999999993
 30
0.0
 40
2.5
  1
Article No./Reference
  7
ISO_PROPORTIONAL
 11
536.0
 21
43.0
 31
0.0
 73
     2
  0
LINE
  5
C36
  8
FRAME_070
 10
534.0
 20
40.0
 30
0.0
 11
534.0
 21
46.0
 31
0.0
  0
ATTDEF
  5
C37
  8
FRAME_025
 10
551.0
 20
11.75
 30
0.0
 40
2.5
  1
0
  7
ISO_PROPORTIONAL
 11
551.0
 21
13.0
 31
0.0
  3
Edition
  2
EDITION
 70
     8
 74
     2
  0
TEXT
  5
C38
  8
FRAME_025
 10
551.0
 20
15.75
 30
0.0
 40
2.5
  1
Edition
  7
ISO_PROPORTIONAL
 11
551.0
 21
17.0
 31
0.0
 73
     2
  0
LINE
  5
C39
  8
FRAME_070
 10
549.0
 20
10.0
 30
0.0
 11
549.0
 21
20.0
 31
0.0
  0
ATTDEF
  5
C3A
  8
FRAME_025
 10
536.0
 20
31.75
 30
0.0
 40
2.5
  1
00/00/00
  7
ISO_PROPORTIONAL
 11
536.0
 21
33.0
 31
0.0
  3
Date
  2
DATE
 70
     8
 74
     2
  0
TEXT
  5
C3B
  8
FRAME_025
 10
536.0
 20
35.75
 30
0.0
 40
2.5
  1
Date
  7
ISO_PROPORTIONAL
 11
536.0
 21
37.0
 31
0.0
 73
     2
  0
LINE
  5
C3C
  8
FRAME_070
 10
534.0
 20
30.0
 30
0.0
 11
534.0
 21
40.0
 31
0.0
  0
ATTDEF
  5
C3D
  8
FRAME_025
 10
566.0
 20
11.75
 30
0.0
 40
2.5
  1
1/1
  7
ISO_PROPORTIONAL
 11
566.0
 21
13.0
 31
0.0
  3
Sheet
  2
SHEET
 70
     8
 74
     2
  0
TEXT
  5
C3E
  8
FRAME_025
 10
566.0
 20
15.75
 30
0.0
 40
2.5
  1
Sheet
  7
ISO_PROPORTIONAL
 11
566.0
 21
17.0
 31
0.0
 73
     2
  0
LINE
  5
C3F
  8
FRAME_070
 10
564.0
 20
10.0
 30
0.0
 11
564.0
 21
20.0
 31
0.0
  0
ATTDEF
  5
C40
  8
FRAME_025
 10
566.0
 20
31.75
 30
0.0
 40
2.5
  1
1:1
  7
ISO_PROPORTIONAL
 11
566.0
 21
33.0
 31
0.0
  3
Scale
  2
SCALE
 70
     8
 74
     2
  0
TEXT
  5
C41
  8
FRAME_025
 10
566.0
 20
35.75
 30
0.0
 40
2.5
  1
Scale
  7
ISO_PROPORTIONAL
 11
566.0
 21
37.0
 31
0.0
 73
     2
  0
LINE
  5
C42
  8
FRAME_070
 10
564.0
 20
30.0
 30
0.0
 11
564.0
 21
40.0
 31
0.0
  0
LINE
  5
C43
  8
FRAME_200
 10
594.0
 20
0.0
 30
0.0
 11
594.0
 21
10.0
 31
0.0
  0
LINE
  5
C44
  8
FRAME_200
 10
594.0
 20
0.0
 30
0.0
 11
584.0
 21
0.0
 31
0.0
  0
TEXT
  5
C45
  8
FRAME_050
 10
584.89999999999998
 20
35.0
 30
0.0
 40
4.0
  1
H
  7
ISO_PROPORTIONAL
 72
     4
 11
586.5
 21
37.0
 31
0.0
  0
LINE
  5
C46
  8
FRAME_050
 10
589.0
 20
60.0
 30
0.0
 11
584.0
 21
60.0
 31
0.0
  0
TEXT
  5
C47
  8
FRAME_050
 10
585.0035533905932
 20
85.0
 30
0.0
 40
4.0
  1
G
  7
ISO_PROPORTIONAL
 72
     4
 11
586.5
 21
87.0
 31
0.0
  0
LINE
  5
C48
  8
FRAME_050
 10
589.0
 20
110.0
 30
0.0
 11
584.0
 21
110.0
 31
0.0
  0
TEXT
  5
C49
  8
FRAME_050
 10
585.09999999999991
 20
135.0
 30
0.0
 40
4.0
  1
F
  7
ISO_PROPORTIONAL
 72
     4
 11
586.5
 21
137.0
 31
0.0
  0
LINE
  5
C4A
  8
FRAME_050
 10
589.0
 20
160.0
 30
0.0
 11
584.0
 21
160.0
 31
0.0
  0
TEXT
  5
C4B
  8
FRAME_050
 10
585.09999999999991
 20
185.0
 30
0.0
 40
4.0
  1
E
  7
ISO_PROPORTIONAL
 72
     4
 11
586.5
 21
187.0
 31
0.0
  0
LINE
  5
C4C
  8
FRAME_070
 10
414.0
 20
404.0
 30
0.0
 11
584.0
 21
404.0
 31
0.0
  0
TEXT
  5
C4D
  8
FRAME_050
 10
331.39215728752538
 20
410.58284271247459
 30
0.0
 40
4.0
  1
5
  7
ISO_PROPORTIONAL
 72
     4
 11
332.875
 21
412.5
 31
0.0
  0
LINE
  5
C4E
  8
FRAME_050
 10
368.75
 20
410.0
 30
0.0
 11
368.75
 21
415.0
 31
0.0
  0
TEXT
  5
C4F
  8
FRAME_025
 10
428.0
 20
405.75
 30
0.0
 40
2.5
  1
Revision note
  7
ISO_PROPORTIONAL
 11
428.0
 21
407.0
 31
0.0
 73
     2
  0
TEXT
  5
C50
  8
FRAME_025
 10
416.0
 20
405.75
 30
0.0
 40
2.5
  1
RevNo
  7
ISO_PROPORTIONAL
 11
416.0
 21
407.0
 31
0.0
 73
     2
  0
LINE
  5
C51
  8
FRAME_070
 10
426.0
 20
404.0
 30
0.0
 11
426.0
 21
410.0
 31
0.0
  0
LINE
  5
C52
  8
FRAME_070
 10
414.0
 20
404.0
 30
0.0
 11
414.0
 21
410.0
 31
0.0
  0
TEXT
  5
C53
  8
FRAME_050
 10
403.24547244094481
 20
410.41023622047243
 30
0.0
 40
4.0
  1
6
  7
ISO_PROPORTIONAL
 72
     4
 11
404.62499999999989
 21
412.5
 31
0.0
  0
LINE
  5
C54
  8
FRAME_050
 10
440.5
 20
410.0
 30
0.0
 11
440.5
 21
415.0
 31
0.0
  0
TEXT
  5
C55
  8
FRAME_050
 10
474.97500000000002
 20
410.5
 30
0.0
 40
4.0
  1
7
  7
ISO_PROPORTIONAL
 72
     4
 11
476.37499999999989
 21
412.5
 31
0.0
  0
LINE
  5
C56
  8
FRAME_050
 10
579.0
 20
210.0
 30
0.0
 11
589.0
 21
210.0
 31
0.0
  0
TEXT
  5
C57
  8
FRAME_050
 10
584.78609127034736
 20
235.0
 30
0.0
 40
4.0
  1
D
  7
ISO_PROPORTIONAL
 72
     4
 11
586.5
 21
237.0
 31
0.0
  0
LINE
  5
C58
  8
FRAME_050
 10
589.0
 20
260.0
 30
0.0
 11
584.0
 21
260.0
 31
0.0
  0
TEXT
  5
C59
  8
FRAME_050
 10
585.19319805153395
 20
285.0
 30
0.0
 40
4.0
  1
C
  7
ISO_PROPORTIONAL
 72
     4
 11
586.5
 21
287.0
 31
0.0
  0
LINE
  5
C5A
  8
FRAME_050
 10
589.0
 20
310.0
 30
0.0
 11
584.0
 21
310.0
 31
0.0
  0
TEXT
  5
C5B
  8
FRAME_050
 10
584.89999999999998
 20
335.0
 30
0.0
 40
4.0
  1
B
  7
ISO_PROPORTIONAL
 72
     4
 11
586.5
 21
337.0
 31
0.0
  0
TEXT
  5
C5C
  8
FRAME_025
 10
571.08299391850551
 20
405.75
 30
0.0
 40
2.5
  1
Checked
  7
ISO_PROPORTIONAL
 11
571.08299391850551
 21
407.0
 31
0.0
 73
     2
  0
TEXT
  5
C5D
  8
FRAME_025
 10
555.36099797283532
 20
405.75
 30
0.0
 40
2.5
  1
Signature
  7
ISO_PROPORTIONAL
 11
555.36099797283532
 21
407.0
 31
0.0
 73
     2
  0
TEXT
  5
C5E
  8
FRAME_025
 10
537.0
 20
405.75
 30
0.0
 40
2.5
  1
Date
  7
ISO_PROPORTIONAL
 11
537.0
 21
407.0
 31
0.0
 73
     2
  0
LINE
  5
C5F
  8
FRAME_070
 10
570.0
 20
404.0
 30
0.0
 11
570.0
 21
410.0
 31
0.0
  0
LINE
  5
C60
  8
FRAME_070
 10
555.0
 20
404.0
 30
0.0
 11
555.0
 21
410.0
 31
0.0
  0
LINE
  5
C61
  8
FRAME_070
 10
535.0
 20
404.0
 30
0.0
 11
535.0
 21
410.0
 31
0.0
  0
LINE
  5
C62
  8
FRAME_050
 10
512.25
 20
410.0
 30
0.0
 11
512.25
 21
415.0
 31
0.0
  0
TEXT
  5
C63
  8
FRAME_050
 10
546.72499999999991
 20
410.5
 30
0.0
 40
4.0
  1
8
  7
ISO_PROPORTIONAL
 72
     4
 11
548.125
 21
412.5
 31
0.0
  0
LINE
  5
C64
  8
FRAME_050
 10
589.0
 20
360.0
 30
0.0
 11
584.0
 21
360.0
 31
0.0
  0
TEXT
  5
C65
  8
FRAME_050
 10
584.70000000000005
 20
385.0
 30
0.0
 40
4.0
  1
A
  7
ISO_PROPORTIONAL
 72
     4
 11
586.5
 21
387.0
 31
0.0
  0
LINE
  5
C66
  8
FRAME_200
 10
594.0
 20
420.0
 30
0.0
 11
584.0
 21
420.0
 31
0.0
  0
LINE
  5
C67
  8
FRAME_200
 10
594.0
 20
410.0
 30
0.0
 11
594.0
 21
420.0
 31
0.0
  0
ENDBLK
  5
C69
  8
0
  0
BLOCK
  8
0
  2
WOBB001END
 70
     0
 10
0.0
 20
0.0
 30
0.0
  3
WOBB001END
  1

  0
LINE
  5
4D66
  8
0
  6
CONTINUOUS
 10
0.0
 20
0.0
 30
0.0
 11
0.8749999999999998
 21
0.0
 31
0.0
  0
ARC
  5
4D67
  8
0
  6
CONTINUOUS
 10
0.0331648379439287
 20
-0.5087238935900232
 30
0.0
 40
0.8790130605592325
 50
284.06490243660443
 51
312.19222981924361
  0
ARC
  5
4D68
  8
0
  6
CONTINUOUS
 10
0.2841534338796767
 20
-1.510548310625538
 30
0.0
 40
0.1537731892806598
 50
104.0649024366044
 51
179.4721730735024
  0
LINE
  5
4D69
  8
0
  6
CONTINUOUS
 10
0.0
 20
0.0
 30
0.0
 11
-0.0000000000000003
 21
-1.7501564476661919
 31
0.0
  0
ARC
  5
4D6A
  8
0
  6
CONTINUOUS
 10
0.1404622019506122
 20
-1.6303137183546199
 30
0.0
 40
0.1198427293115722
 50
275.0
 51
85.000000000000057
  0
LINE
  5
4D6B
  8
0
  6
CONTINUOUS
 10
-0.0000000000000003
 20
-1.7501564476661919
 30
0.0
 11
0.1456946485130855
 21
-1.7501564476661919
 31
0.0
  0
LINE
  5
4D6C
  8
0
  6
CONTINUOUS
 10
0.1377603739254348
 20
-1.7508506067459131
 30
0.0
 11
0.150907184036669
 21
-1.749700409899652
 31
0.0
  0
LINE
  5
4D6D
  8
0
  6
CONTINUOUS
 10
0.1303867696719884
 20
-1.5091317231818231
 30
0.0
 11
0.1509071840366689
 21
-1.5109270268095869
 31
0.0
  0
LINE
  5
4D6E
  8
0
  6
CONTINUOUS
 10
0.8749999999999998
 20
0.0
 30
0.0
 11
0.8749999999999996
 21
-0.8649327026588228
 31
0.0
  0
LINE
  5
4D6F
  8
0
  6
CONTINUOUS
 10
0.727014513830997
 20
-0.8726882933550612
 30
0.0
 11
0.727014513830997
 21
-0.9264923397184784
 31
0.0
  0
ARC
  5
4D70
  8
0
  6
CONTINUOUS
 10
0.41187090827646
 20
-0.9264923397184784
 30
0.0
 40
0.315143605554537
 50
312.19222981924361
 51
0.0
  0
LINE
  5
4D71
  8
0
  6
CONTINUOUS
 10
0.727014513830997
 20
-0.8726882933550612
 30
0.0
 11
0.8749999999999996
 21
-0.8649327026588228
 31
0.0
  0
ENDBLK
  5
4D72
  8
0
  0
BLOCK
  8
0
  2
A$C0A61123B
 70
     0
 10
0.0
 20
0.0
 30
0.0
  3
A$C0A61123B
  1

  0
LINE
  5
C0AD
  8
PROF
  6
CONTINUOUS
 10
4.9012016798694162
 20
13.325025853350891
 30
0.0000000000000002
 11
4.9012016798694162
 21
12.88585218805485
 31
0.0000000000000003
  0
INSERT
  5
C0AE
  8
0
  2
*U70
 10
0.0
 20
0.0
 30
0.0
  0
LINE
  5
C0AF
  8
PROF
 10
4.5198575031869259
 20
12.72227734589444
 30
0.0000000000000001
 11
4.5198575031869259
 21
12.88585218805485
 31
0.0000000000000001
  0
LINE
  5
C0B0
  8
PROF
  6
CONTINUOUS
 10
3.6306271195888371
 20
13.325025853350891
 30
0.0000000000000002
 11
4.9012016798694162
 21
13.325025853350891
 31
0.0000000000000002
  0
LINE
  5
C0B1
  8
PROF
 10
1.9750295148747341
 20
10.37671325491794
 30
0.0000000000000002
 11
1.9750295148747341
 21
10.11391186758919
 31
0.0000000000000002
  0
LINE
  5
C0B2
  8
PROF
 10
1.607967335755631
 20
10.11391186758919
 30
0.0000000000000001
 11
1.9750295148747341
 21
10.11391186758919
 31
0.0000000000000001
  0
LINE
  5
C0B3
  8
PROF
 10
1.9750295148747341
 20
10.11391186758919
 30
0.0000000000000001
 11
1.944958486898144
 21
10.11391186758919
 31
0.0000000000000001
  0
LINE
  5
C0B4
  8
PROF
 10
1.9750295148747341
 20
10.11391186758919
 30
0.0000000000000001
 11
1.944958486898144
 21
10.11391186758919
 31
0.0000000000000001
  0
LINE
  5
C0B5
  8
PROF
 10
0.3222605517169654
 20
7.5247473351056442
 30
-0.0000000000000002
 11
-0.0000008570117416
 21
7.5247473351056442
 31
0.0
  0
LINE
  5
C0B6
  8
PROF
 10
-0.0000008570117416
 20
7.5247473351056442
 30
0.0
 11
-0.0000008570117416
 21
9.1943336957369866
 31
0.0
  0
POLYLINE
  5
C0B7
  8
PROF
 66
     1
 10
0.0
 20
0.0
 30
0.0000000000000001
 70
     4
 75
     6
  0
VERTEX
  5
C0B8
  8
PROF
 10
1.607967335755631
 20
10.11391186758919
 30
0.0000000000000001
 70
    16
  0
VERTEX
  5
C0B9
  8
PROF
 10
1.607967335755631
 20
10.11391186758919
 30
0.0000000000000001
 70
     8
  0
VERTEX
  5
C0BA
  8
PROF
 10
1.646813232648582
 20
10.02198069336111
 30
0.0000000000000001
 70
     8
  0
VERTEX
  5
C0BB
  8
PROF
 10
1.67335966680929
 20
9.9344134163010267
 30
0.0000000000000001
 70
     8
  0
VERTEX
  5
C0BC
  8
PROF
 10
1.689008640046324
 20
9.8512576644480987
 30
0.0000000000000001
 70
     8
  0
VERTEX
  5
C0BD
  8
PROF
 10
1.695162154168258
 20
9.7725610658417281
 30
0.0000000000000001
 70
     8
  0
VERTEX
  5
C0BE
  8
PROF
 10
1.6932222109836059
 20
9.6983712485214255
 30
0.0000000000000001
 70
     8
  0
VERTEX
  5
C0BF
  8
PROF
 10
1.6845908123009961
 20
9.6287358405263603
 30
0.0000000000000001
 70
     8
  0
VERTEX
  5
C0C0
  8
PROF
 10
1.6706699599288859
 20
9.5637024698960431
 30
0.0000000000000001
 70
     8
  0
VERTEX
  5
C0C1
  8
PROF
 10
1.6528616556759621
 20
9.503318764669757
 30
0.0000000000000001
 70
     8
  0
VERTEX
  5
C0C2
  8
PROF
 10
1.6323562992730549
 20
9.4475843259650674
 30
0.0000000000000001
 70
     8
  0
VERTEX
  5
C0C3
  8
PROF
 10
1.609497882140658
 20
9.3963066472123273
 30
0.0000000000000001
 70
     8
  0
VERTEX
  5
C0C4
  8
PROF
 10
1.584418793621637
 20
9.3492451949202842
 30
0.0000000000000001
 70
     8
  0
VERTEX
  5
C0C5
  8
PROF
 10
1.557251423058744
 20
9.3061594355972375
 30
0.0000000000000001
 70
     8
  0
VERTEX
  5
C0C6
  8
PROF
 10
1.5281281597949601
 20
9.2668088357519292
 30
0.0000000000000001
 70
     8
  0
VERTEX
  5
C0C7
  8
PROF
 10
1.4971813931729789
 20
9.2309528618930017
 30
0.0000000000000001
 70
     8
  0
VERTEX
  5
C0C8
  8
PROF
 10
1.464543512535726
 20
9.1983509805288577
 30
0.0000000000000001
 70
     8
  0
VERTEX
  5
C0C9
  8
PROF
 10
1.4303469072260091
 20
9.1687626581682462
 30
0.0000000000000001
 70
     8
  0
VERTEX
  5
C0CA
  8
PROF
 10
1.3947360332574019
 20
9.1419547918675335
 30
0.0000000000000001
 70
     8
  0
VERTEX
  5
C0CB
  8
PROF
 10
1.3579036133264131
 20
9.1177240008747731
 30
0.0000000000000001
 70
     8
  0
VERTEX
  5
C0CC
  8
PROF
 10
1.3200544368004321
 20
9.0958743349860924
 30
0.0000000000000001
 70
     8
  0
VERTEX
  5
C0CD
  8
PROF
 10
1.281393293046676
 20
9.0762098439975034
 30
0.0000000000000001
 70
     8
  0
VERTEX
  5
C0CE
  8
PROF
 10
1.242124971432417
 20
9.0585345777049042
 30
0.0000000000000001
 70
     8
  0
VERTEX
  5
C0CF
  8
PROF
 10
1.2024542613249869
 20
9.0426525859044204
 30
0.0000000000000001
 70
     8
  0
VERTEX
  5
C0D0
  8
PROF
 10
1.1625859520916599
 20
9.0283679183919503
 30
0.0000000000000001
 70
     8
  0
VERTEX
  5
C0D1
  8
PROF
 10
1.1227248330997091
 20
9.0154846249635057
 30
0.0000000000000001
 70
     8
  0
VERTEX
  5
C0D2
  8
PROF
 10
1.0829726247361
 20
9.0034643862466055
 30
0.0000000000000001
 70
     8
  0
VERTEX
  5
C0D3
  8
PROF
 10
1.043018771466222
 20
8.9903994061946833
 30
0.0000000000000001
 70
     8
  0
VERTEX
  5
C0D4
  8
PROF
 10
1.002449648775211
 20
8.9740395195925657
 30
0.0000000000000001
 70
     8
  0
VERTEX
  5
C0D5
  8
PROF
 10
0.9608516321480919
 20
8.9521345612251935
 30
0.0000000000000001
 70
     8
  0
VERTEX
  5
C0D6
  8
PROF
 10
0.9178110970699435
 20
8.9224343658775052
 30
0.0000000000000001
 70
     8
  0
VERTEX
  5
C0D7
  8
PROF
 10
0.8729144190259034
 20
8.8826887683343312
 30
0.0000000000000001
 70
     8
  0
VERTEX
  5
C0D8
  8
PROF
 10
0.8257479735009951
 20
8.8306476033806121
 30
0.0000000000000001
 70
     8
  0
VERTEX
  5
C0D9
  8
PROF
 10
0.7758981359802988
 20
8.764060705801171
 30
0.0000000000000001
 70
     8
  0
VERTEX
  5
C0DA
  8
PROF
 10
1.729201901609656
 20
9.8629858761255491
 30
0.0000000000000001
 70
    16
  0
VERTEX
  5
C0DB
  8
PROF
 10
1.6793731231140889
 20
9.4532143012734196
 30
0.0000000000000001
 70
    16
  0
VERTEX
  5
C0DC
  8
PROF
 10
1.4455611507419801
 20
9.1391837193732481
 30
0.0000000000000001
 70
    16
  0
VERTEX
  5
C0DD
  8
PROF
 10
1.120463717273821
 20
9.0026267702428413
 30
0.0000000000000001
 70
    16
  0
VERTEX
  5
C0DE
  8
PROF
 10
0.9127765582653638
 20
8.9630202230383702
 30
0.0000000000000001
 70
    16
  0
VERTEX
  5
C0DF
  8
PROF
 10
0.7758981359802988
 20
8.764060705801171
 30
0.0000000000000001
 70
    16
  0
SEQEND
  5
C0E0
  8
PROF
  0
ARC
  5
C0E1
  8
PROF
 10
0.733429816733235
 20
8.4849506952165257
 30
0.0000000000000001
 40
0.2823224329524727
 50
269.73652020831901
 51
81.348449993176914
  0
LINE
  5
C0E2
  8
PROF
  6
CONTINUOUS
 10
-0.0000008570117416
 20
9.1943336957369866
 30
-0.0000000000000001
 11
3.6306271195888371
 21
13.325025853350891
 31
0.0000000000000002
  0
POLYLINE
  5
C0E3
  8
PROF
 66
     1
 10
0.0
 20
0.0
 30
0.0000000000000001
 70
     4
 75
     6
  0
VERTEX
  5
C0E4
  8
PROF
 10
4.5198575031869259
 20
12.72227734589444
 30
0.0000000000000001
 70
    16
  0
VERTEX
  5
C0E5
  8
PROF
 10
4.5198575031869259
 20
12.72227734589444
 30
0.0000000000000001
 70
     8
  0
VERTEX
  5
C0E6
  8
PROF
 10
4.4467035366886298
 20
12.741128108778071
 30
0.0000000000000001
 70
     8
  0
VERTEX
  5
C0E7
  8
PROF
 10
4.3786645761268801
 20
12.754675269913941
 30
0.0000000000000001
 70
     8
  0
VERTEX
  5
C0E8
  8
PROF
 10
4.3154364111440477
 20
12.76334314092332
 30
0.0000000000000001
 70
     8
  0
VERTEX
  5
C0E9
  8
PROF
 10
4.256714831382566
 20
12.76755603342724
 30
0.0000000000000001
 70
     8
  0
VERTEX
  5
C0EA
  8
PROF
 10
4.2021956264849791
 20
12.76773825904672
 30
0.0000000000000001
 70
     8
  0
VERTEX
  5
C0EB
  8
PROF
 10
4.1515745860935453
 20
12.764314129403139
 30
0.0000000000000001
 70
     8
  0
VERTEX
  5
C0EC
  8
PROF
 10
4.1045474998508658
 20
12.75770795611743
 30
0.0000000000000001
 70
     8
  0
VERTEX
  5
C0ED
  8
PROF
 10
4.0608101573993158
 20
12.748344050810831
 30
0.0000000000000001
 70
     8
  0
VERTEX
  5
C0EE
  8
PROF
 10
4.0200583483813261
 20
12.736646725104491
 30
0.0000000000000001
 70
     8
  0
VERTEX
  5
C0EF
  8
PROF
 10
3.9819878624393819
 20
12.72304029061945
 30
0.0000000000000001
 70
     8
  0
VERTEX
  5
C0F0
  8
PROF
 10
3.946294489215858
 20
12.707949058976959
 30
0.0000000000000001
 70
     8
  0
VERTEX
  5
C0F1
  8
PROF
 10
3.9126740183532429
 20
12.691797341798059
 30
0.0000000000000001
 70
     8
  0
VERTEX
  5
C0F2
  8
PROF
 10
3.8808638350742508
 20
12.67494295718654
 30
0.0000000000000001
 70
     8
  0
VERTEX
  5
C0F3
  8
PROF
 10
3.850767706922738
 20
12.65747774917668
 30
0.0000000000000001
 70
     8
  0
VERTEX
  5
C0F4
  8
PROF
 10
3.8223309970228452
 20
12.639427068285499
 30
0.0000000000000001
 70
     8
  0
VERTEX
  5
C0F5
  8
PROF
 10
3.7954990684987129
 20
12.62081626503004
 30
0.0000000000000001
 70
     8
  0
VERTEX
  5
C0F6
  8
PROF
 10
3.7702172844744828
 20
12.601670689926999
 30
0.0000000000000001
 70
     8
  0
VERTEX
  5
C0F7
  8
PROF
 10
3.746431008074353
 20
12.58201569349364
 30
0.0000000000000001
 70
     8
  0
VERTEX
  5
C0F8
  8
PROF
 10
3.7240856024224618
 20
12.56187662624666
 30
0.0000000000000001
 70
     8
  0
VERTEX
  5
C0F9
  8
PROF
 10
3.7031264306428961
 20
12.541278838703191
 30
0.0000000000000001
 70
     8
  0
VERTEX
  5
C0FA
  8
PROF
 10
3.6834988558599089
 20
12.520247681380051
 30
0.0000000000000001
 70
     8
  0
VERTEX
  5
C0FB
  8
PROF
 10
3.665148241197528
 20
12.49880850479428
 30
0.0000000000000001
 70
     8
  0
VERTEX
  5
C0FC
  8
PROF
 10
3.6480199497799499
 20
12.47698665946279
 30
0.0000000000000001
 70
     8
  0
VERTEX
  5
C0FD
  8
PROF
 10
3.6320593447313172
 20
12.45480749590263
 30
0.0000000000000001
 70
     8
  0
VERTEX
  5
C0FE
  8
PROF
 10
3.6171895848866589
 20
12.43223790353807
 30
0.0000000000000001
 70
     8
  0
VERTEX
  5
C0FF
  8
PROF
 10
3.6032450119242858
 20
12.40901092742285
 30
0.0000000000000001
 70
     8
  0
VERTEX
  5
C100
  8
PROF
 10
3.590037763233453
 20
12.38480115151844
 30
0.0000000000000001
 70
     8
  0
VERTEX
  5
C101
  8
PROF
 10
3.5773799762033032
 20
12.35928315978594
 30
0.0000000000000001
 70
     8
  0
VERTEX
  5
C102
  8
PROF
 10
3.5650837882230908
 20
12.33213153618658
 30
0.0000000000000001
 70
     8
  0
VERTEX
  5
C103
  8
PROF
 10
3.5529613366819599
 20
12.303020864681571
 30
0.0000000000000001
 70
     8
  0
VERTEX
  5
C104
  8
PROF
 10
3.540824758969165
 20
12.271625729232371
 30
0.0000000000000001
 70
     8
  0
VERTEX
  5
C105
  8
PROF
 10
3.5284861924738489
 20
12.23762071379997
 30
0.0000000000000001
 70
     8
  0
VERTEX
  5
C106
  8
PROF
 10
3.5157577745852668
 20
12.200680402345711
 30
0.0000000000000001
 70
     8
  0
VERTEX
  5
C107
  8
PROF
 10
3.5024516426926189
 20
12.16047937883093
 30
0.0000000000000001
 70
     8
  0
VERTEX
  5
C108
  8
PROF
 10
3.4883799341851041
 20
12.116692227216619
 30
0.0000000000000001
 70
     8
  0
VERTEX
  5
C109
  8
PROF
 10
3.4733547864519201
 20
12.06899353146423
 30
0.0000000000000001
 70
     8
  0
VERTEX
  5
C10A
  8
PROF
 10
3.45723654619428
 20
12.0172095445447
 30
0.0000000000000001
 70
     8
  0
VERTEX
  5
C10B
  8
PROF
 10
3.4400783973613889
 20
11.961773195467799
 30
0.0000000000000001
 70
     8
  0
VERTEX
  5
C10C
  8
PROF
 10
3.421981733214579
 20
11.90326908225302
 30
0.0000000000000001
 70
     8
  0
VERTEX
  5
C10D
  8
PROF
 10
3.4030479470150108
 20
11.842281802919951
 30
0.0000000000000001
 70
     8
  0
VERTEX
  5
C10E
  8
PROF
 10
3.383378432024017
 20
11.779395955487979
 30
0.0000000000000001
 70
     8
  0
VERTEX
  5
C10F
  8
PROF
 10
3.3630745815028709
 20
11.715196137976809
 30
0.0000000000000001
 70
     8
  0
VERTEX
  5
C110
  8
PROF
 10
3.3422377887127359
 20
11.650266948405831
 30
0.0000000000000001
 70
     8
  0
VERTEX
  5
C111
  8
PROF
 10
3.320969446915
 20
11.58519298479461
 30
0.0000000000000001
 70
     8
  0
VERTEX
  5
C112
  8
PROF
 10
3.2993709493707679
 20
11.520558845162549
 30
0.0000000000000001
 70
     8
  0
VERTEX
  5
C113
  8
PROF
 10
3.277543689341428
 20
11.456949127529469
 30
0.0000000000000001
 70
     8
  0
VERTEX
  5
C114
  8
PROF
 10
3.2555890600881412
 20
11.3949484299145
 30
0.0000000000000001
 70
     8
  0
VERTEX
  5
C115
  8
PROF
 10
3.233608454872182
 20
11.335141350337491
 30
0.0000000000000001
 70
     8
  0
VERTEX
  5
C116
  8
PROF
 10
3.2116715641212181
 20
11.27799544797778
 30
0.0000000000000001
 70
     8
  0
VERTEX
  5
C117
  8
PROF
 10
3.189721266927847
 20
11.22351012665467
 30
0.0000000000000001
 70
     8
  0
VERTEX
  5
C118
  8
PROF
 10
3.1676687395512881
 20
11.17156775134765
 30
0.0000000000000001
 70
     8
  0
VERTEX
  5
C119
  8
PROF
 10
3.1454251582505321
 20
11.12205068703588
 30
0.0000000000000001
 70
     8
  0
VERTEX
  5
C11A
  8
PROF
 10
3.122901699284625
 20
11.07484129869874
 30
0.0000000000000001
 70
     8
  0
VERTEX
  5
C11B
  8
PROF
 10
3.1000095389127291
 20
11.02982195131551
 30
0.0000000000000001
 70
     8
  0
VERTEX
  5
C11C
  8
PROF
 10
3.0766598533938909
 20
10.986875009865679
 30
0.0000000000000001
 70
     8
  0
VERTEX
  5
C11D
  8
PROF
 10
3.0527638189871591
 20
10.9458828393283
 30
0.0000000000000001
 70
     8
  0
VERTEX
  5
C11E
  8
PROF
 10
3.0282326119516361
 20
10.90672780468298
 30
0.0000000000000001
 70
     8
  0
VERTEX
  5
C11F
  8
PROF
 10
3.002977408546371
 20
10.869292270908771
 30
0.0000000000000001
 70
     8
  0
VERTEX
  5
C120
  8
PROF
 10
2.9769093850304098
 20
10.833458602985161
 30
0.0000000000000001
 70
     8
  0
VERTEX
  5
C121
  8
PROF
 10
2.9499397176628568
 20
10.799109165891419
 30
0.0000000000000001
 70
     8
  0
VERTEX
  5
C122
  8
PROF
 10
2.9220006098404379
 20
10.76614363969508
 30
0.0000000000000001
 70
     8
  0
VERTEX
  5
C123
  8
PROF
 10
2.8931083735103011
 20
10.7345309648158
 30
0.0000000000000001
 70
     8
  0
VERTEX
  5
C124
  8
PROF
 10
2.8633003477572738
 20
10.70425739676193
 30
0.0000000000000001
 70
     8
  0
VERTEX
  5
C125
  8
PROF
 10
2.8326138716660689
 20
10.67530919104115
 30
0.0000000000000001
 70
     8
  0
VERTEX
  5
C126
  8
PROF
 10
2.8010862843216269
 20
10.647672603161711
 30
0.0000000000000001
 70
     8
  0
VERTEX
  5
C127
  8
PROF
 10
2.7687549248087171
 20
10.62133388863162
 30
0.0000000000000001
 70
     8
  0
VERTEX
  5
C128
  8
PROF
 10
2.735657132212054
 20
10.5962793029588
 30
0.0000000000000001
 70
     8
  0
VERTEX
  5
C129
  8
PROF
 10
2.7018302456165202
 20
10.572495101651381
 30
0.0000000000000001
 70
     8
  0
VERTEX
  5
C12A
  8
PROF
 10
2.6673116041068852
 20
10.54996754021726
 30
0.0000000000000001
 70
     8
  0
VERTEX
  5
C12B
  8
PROF
 10
2.6321385467680321
 20
10.528682874164581
 30
0.0000000000000001
 70
     8
  0
VERTEX
  5
C12C
  8
PROF
 10
2.5963484126846188
 20
10.508627359001251
 30
0.0000000000000001
 70
     8
  0
VERTEX
  5
C12D
  8
PROF
 10
2.5599785409415849
 20
10.489787250235279
 30
0.0000000000000001
 70
     8
  0
VERTEX
  5
C12E
  8
PROF
 10
2.522998630314361
 20
10.472162234281081
 30
0.0000000000000001
 70
     8
  0
VERTEX
  5
C12F
  8
PROF
 10
2.4851078183409072
 20
10.455805721177621
 30
0.0000000000000001
 70
     8
  0
VERTEX
  5
C130
  8
PROF
 10
2.4459376022498982
 20
10.44078455187036
 30
0.0000000000000001
 70
     8
  0
VERTEX
  5
C131
  8
PROF
 10
2.4051194792701258
 20
10.42716556730465
 30
0.0000000000000001
 70
     8
  0
VERTEX
  5
C132
  8
PROF
 10
2.3622849466301541
 20
10.415015608425851
 30
0.0000000000000001
 70
     8
  0
VERTEX
  5
C133
  8
PROF
 10
2.3170655015587149
 20
10.40440151617929
 30
0.0000000000000001
 70
     8
  0
VERTEX
  5
C134
  8
PROF
 10
2.2690926412844301
 20
10.395390131510339
 30
0.0000000000000001
 70
     8
  0
VERTEX
  5
C135
  8
PROF
 10
2.2179978630360888
 20
10.388048295364451
 30
0.0000000000000001
 70
     8
  0
VERTEX
  5
C136
  8
PROF
 10
2.1634126640422551
 20
10.38244284868688
 30
0.0000000000000001
 70
     8
  0
VERTEX
  5
C137
  8
PROF
 10
2.104968541531604
 20
10.37864063242295
 30
0.0000000000000001
 70
     8
  0
VERTEX
  5
C138
  8
PROF
 10
2.0422969927328718
 20
10.37670848751816
 30
0.0000000000000001
 70
     8
  0
VERTEX
  5
C139
  8
PROF
 10
1.9750295148747341
 20
10.37671325491794
 30
0.0000000000000001
 70
     8
  0
VERTEX
  5
C13A
  8
PROF
 10
4.2166060115107484
 20
12.80885334975255
 30
0.0000000000000001
 70
    16
  0
VERTEX
  5
C13B
  8
PROF
 10
3.8702254102732918
 20
12.707065515763929
 30
0.0000000000000001
 70
    16
  0
VERTEX
  5
C13C
  8
PROF
 10
3.605346156896871
 20
12.46277472098552
 30
0.0000000000000001
 70
    16
  0
VERTEX
  5
C13D
  8
PROF
 10
3.500746030527238
 20
12.170680575709749
 30
0.0000000000000001
 70
    16
  0
VERTEX
  5
C13E
  8
PROF
 10
3.231798439705698
 20
11.26846416496107
 30
0.0000000000000001
 70
    16
  0
VERTEX
  5
C13F
  8
PROF
 10
2.9737109398832891
 20
10.76631086647069
 30
0.0000000000000001
 70
    16
  0
VERTEX
  5
C140
  8
PROF
 10
2.5729961067384011
 20
10.460947364504699
 30
0.0000000000000001
 70
    16
  0
VERTEX
  5
C141
  8
PROF
 10
2.253782621454604
 20
10.372731239449759
 30
0.0000000000000001
 70
    16
  0
VERTEX
  5
C142
  8
PROF
 10
1.9750295148747341
 20
10.37671325491794
 30
0.0000000000000001
 70
    16
  0
SEQEND
  5
C143
  8
PROF
  0
LINE
  5
C144
  8
PROF
 10
4.9012016798694162
 20
12.88585218805485
 30
0.0000000000000003
 11
4.5198575031869259
 21
12.88585218805485
 31
0.0000000000000003
  0
LINE
  5
C145
  8
PROF
 10
0.7321315362267457
 20
8.2026312473991538
 30
0.0000000000000006
 11
0.7321315362267457
 21
8.0511853963434987
 31
0.0000000000000006
  0
ARC
  5
C146
  8
PROF
 10
0.7977322214551919
 20
7.5773339332026799
 30
0.0000000000000006
 40
0.4783708383912012
 50
97.882010168942529
 51
186.31119505698649
  0
LINE
  5
C147
  8
FRAME_050
 10
7.8016377197432121
 20
17.99371054969447
 30
0.0
 11
7.8016377197432121
 21
0.0000000000002274
 31
0.0
  0
ENDBLK
  5
C149
  8
0
  0
BLOCK
  8
0
  2
*U70
 70
     1
 10
0.0
 20
0.0
 30
0.0
  3
*U70
  1

  0
TEXT
  5
14CB9
  8
0
 10
3.5177832928899071
 20
10.38601584255777
 30
0.0
 40
0.125
  1
Crown Moulding
  0
TEXT
  5
14CBA
  8
0
 10
3.5223876585106431
 20
10.17717091304435
 30
0.0
 40
0.125
  1
TL-AB509
  0
TEXT
  5
14CBB
  8
0
 10
3.5074661032582561
 20
9.9667059289606801
 30
0.0
 40
0.125
  1
1-5/16" x 7-9/16"
  0
TEXT
  5
14CBC
  8
0
 10
3.519403347460166
 20
9.7562409448770051
 30
0.0
 40
0.125
  1
800.66.TAGUE
  0
ENDBLK
  5
14CBE
  8
0
  0
BLOCK
  8
0
  2
*U71
 70
     1
 10
0.0
 20
0.0
 30
0.0
  3
*U71
  1

  0
TEXT
  5
14CC0
  8
0
 10
5.3066868277875692
 20
1.767659498411035
 30
0.0
 40
0.125
  1
Back Band
  0
TEXT
  5
14CC1
  8
0
 10
5.3153839628489603
 20
1.55881456889762
 30
0.0
 40
0.125
  1
TL-1
  0
TEXT
  5
14CC2
  8
0
 10
5.3004624075965721
 20
1.3483495848139451
 30
0.0
 40
0.125
  1
1-3/8" x 1-9/16"
  0
TEXT
  5
14CC3
  8
0
 10
5.3123996517984819
 20
1.137884600730271
 30
0.0
 40
0.125
  1
800.66.TAGUE
  0
ENDBLK
  5
14CC5
  8
0
  0
BLOCK
  8
0
  2
*U72
 70
     1
 10
0.0
 20
0.0
 30
0.0
  3
*U72
  1

  0
TEXT
  5
14CC7
  8
0
 10
2.551252809835812
 20
0.9623111621543785
 30
0.0
 40
0.125
  1
Back Band
  0
TEXT
  5
14CC8
  8
0
 10
2.5599499448972041
 20
0.7534662326409634
 30
0.0
 40
0.125
  1
TL-288
  0
TEXT
  5
14CC9
  8
0
 10
2.5450283896448158
 20
0.5430012485572889
 30
0.0
 40
0.125
  1
1-11/16" x 1-13/16"
  0
TEXT
  5
14CCA
  8
0
 10
2.5569656338467261
 20
0.3325362644736145
 30
0.0
 40
0.125
  1
800.66.TAGUE
  0
ENDBLK
  5
14CCC
  8
0
  0
BLOCK
  8
0
  2
*U73
 70
     1
 10
0.0
 20
0.0
 30
0.0
  3
*U73
  1

  0
TEXT
  5
14CCE
  8
0
 10
1.8364329238504911
 20
0.882982778245946
 30
0.0
 40
0.125
  1
Back Band
  0
TEXT
  5
14CCF
  8
0
 10
1.845130058911882
 20
0.6741378487325309
 30
0.0
 40
0.125
  1
TL-289
  0
TEXT
  5
14CD0
  8
0
 10
1.8302085036594951
 20
0.4636728646488565
 30
0.0
 40
0.125
  1
1-1/16" x 1-11/16"
  0
TEXT
  5
14CD1
  8
0
 10
1.8421457478614049
 20
0.2532078805651821
 30
0.0
 40
0.125
  1
800.66.TAGUE
  0
ENDBLK
  5
14CD3
  8
0
  0
BLOCK
  8
0
  2
*U74
 70
     1
 10
0.0
 20
0.0
 30
0.0
  3
*U74
  1

  0
TEXT
  5
14CD5
  8
0
 10
1.929931786774016
 20
0.8512665098620573
 30
0.0
 40
0.125
  1
Back Band
  0
TEXT
  5
14CD6
  8
0
 10
1.9386289218354069
 20
0.6424215803486422
 30
0.0
 40
0.125
  1
TL-601
  0
TEXT
  5
14CD7
  8
0
 10
1.92370736658302
 20
0.4319565962649678
 30
0.0
 40
0.125
  1
1-5/16" x 1-3/8"
  0
TEXT
  5
14CD8
  8
0
 10
1.9356446107849301
 20
0.2214916121812933
 30
0.0
 40
0.125
  1
800.66.TAGUE
  0
ENDBLK
  5
14CDA
  8
0
  0
BLOCK
  8
0
  2
*U75
 70
     1
 10
0.0
 20
0.0
 30
0.0
  3
*U75
  1

  0
TEXT
  5
14CDC
  8
0
 10
1.8237739904796331
 20
0.9081704084311468
 30
0.0
 40
0.125
  1
Back Band
  0
TEXT
  5
14CDD
  8
0
 10
1.832471125541024
 20
0.6993254789177317
 30
0.0
 40
0.125
  1
TL-2075
  0
TEXT
  5
14CDE
  8
0
 10
1.8175495702886371
 20
0.4888604948340573
 30
0.0
 40
0.125
  1
1-5/16" x 1-5/8"
  0
TEXT
  5
14CDF
  8
0
 10
1.829486814490547
 20
0.2783955107503828
 30
0.0
 40
0.125
  1
800.66.TAGUE
  0
ENDBLK
  5
14CE1
  8
0
  0
BLOCK
  8
0
  2
*U76
 70
     1
 10
0.0
 20
0.0
 30
0.0
  3
*U76
  1

  0
TEXT
  5
14CE3
  8
0
 10
1.9545668919090351
 20
0.8644213446237927
 30
0.0
 40
0.125
  1
Back Band
  0
TEXT
  5
14CE4
  8
0
 10
1.963264026970426
 20
0.6555764151103776
 30
0.0
 40
0.125
  1
TL-2208 
  0
TEXT
  5
14CE5
  8
0
 10
1.9483424717180391
 20
0.4451114310267032
 30
0.0
 40
0.125
  1
1-3/8" x 1-5/8"
  0
TEXT
  5
14CE6
  8
0
 10
1.960279715919949
 20
0.2346464469430287
 30
0.0
 40
0.125
  1
800.66.TAGUE
  0
ENDBLK
  5
14CE8
  8
0
  0
BLOCK
  8
0
  2
*U77
 70
     1
 10
0.0
 20
0.0
 30
0.0
  3
*U77
  1

  0
TEXT
  5
14CEA
  8
0
 10
2.7644474121262692
 20
0.8344220463493456
 30
0.0
 40
0.125
  1
Back Band
  0
TEXT
  5
14CEB
  8
0
 10
2.7731445471876608
 20
0.6255771168359307
 30
0.0
 40
0.125
  1
TL-2221 
  0
TEXT
  5
14CEC
  8
0
 10
2.7689665117169922
 20
0.4151121327522561
 30
0.0
 40
0.125
  1
7/8" x 1-3/4"
  0
TEXT
  5
14CED
  8
0
 10
2.7701602361371829
 20
0.2046471486685817
 30
0.0
 40
0.125
  1
800.66.TAGUE
  0
ENDBLK
  5
14CEF
  8
0
  0
BLOCK
  8
0
  2
*U78
 70
     1
 10
0.0
 20
0.0
 30
0.0
  3
*U78
  1

  0
TEXT
  5
14CF1
  8
0
 10
2.6915324485008609
 20
1.1836703361148011
 30
0.0
 40
0.125
  1
Back Band
  0
TEXT
  5
14CF2
  8
0
 10
2.700229583562253
 20
0.974825406601386
 30
0.0
 40
0.125
  1
TL-2266
  0
TEXT
  5
14CF3
  8
0
 10
2.685308028309866
 20
0.7643604225177115
 30
0.0
 40
0.125
  1
1-11/32" x 1-15/32"
  0
TEXT
  5
14CF4
  8
0
 10
2.697245272511775
 20
0.5538954384340372
 30
0.0
 40
0.125
  1
800.66.TAGUE
  0
ENDBLK
  5
14CF6
  8
0
  0
BLOCK
  8
0
  2
*U79
 70
     1
 10
0.0
 20
0.0
 30
0.0
  3
*U79
  1

  0
TEXT
  5
14CF8
  8
0
 10
3.1852595440213172
 20
1.4826139655959869
 30
0.0
 40
0.125
  1
Back Band
  0
TEXT
  5
14CF9
  8
0
 10
3.1939566790827079
 20
1.273769036082572
 30
0.0
 40
0.125
  1
TL-2293
  0
TEXT
  5
14CFA
  8
0
 10
3.1790351238303209
 20
1.0147194680971241
 30
0.0
 40
0.125
  1
1-
  0
TEXT
  5
14CFB
  8
0
 10
3.3285150010472382
 20
1.1040697409484199
 30
0.0
 40
0.0875
  1
7
  0
LINE
  5
14CFC
  8
0
 10
3.3553421833758441
 20
1.032393937073133
 30
0.0
 11
3.4557180597372761
 21
1.1757455448237071
 31
0.0
  0
TEXT
  5
14CFD
  8
0
 10
3.4151594985461009
 20
0.9855528014304578
 30
0.0
 40
0.0875
  1
8
  0
TEXT
  5
14CFE
  8
0
 10
3.483619594044054
 20
1.0147194680971241
 30
0.0
 40
0.125
  1
" x 2-
  0
TEXT
  5
14CFF
  8
0
 10
3.8794330319703851
 20
1.1040697409484199
 30
0.0
 40
0.0875
  1
7
  0
LINE
  5
14D00
  8
0
 10
3.9062602142989902
 20
1.032393937073133
 30
0.0
 11
4.0066360906604244
 21
1.1757455448237071
 31
0.0
  0
TEXT
  5
14D01
  8
0
 10
3.957721458527911
 20
0.9855528014304578
 30
0.0
 40
0.0875
  1
16
  0
TEXT
  5
14D02
  8
0
 10
4.0939254148717028
 20
1.0147194680971241
 30
0.0
 40
0.125
  1
"
  0
TEXT
  5
14D03
  8
0
 10
3.1909723680322308
 20
0.8459211506801169
 30
0.0
 40
0.125
  1
800.66.TAGUE
  0
ENDBLK
  5
14D05
  8
0
  0
BLOCK
  8
0
  2
*U80
 70
     1
 10
0.0
 20
0.0
 30
0.0
  3
*U80
  1

  0
TEXT
  5
14D07
  8
0
 10
2.4900996379053408
 20
1.0092498715596481
 30
0.0
 40
0.125
  1
Baluster Stock
  0
TEXT
  5
14D08
  8
0
 10
2.4987967729667329
 20
0.800404942046233
 30
0.0
 40
0.125
  1
TL-236
  0
TEXT
  5
14D09
  8
0
 10
2.4838752177143451
 20
0.5899399579625585
 30
0.0
 40
0.125
  1
1-9/16" x 1-9/16"
  0
TEXT
  5
14D0A
  8
0
 10
2.4958124619162549
 20
0.3794749738788841
 30
0.0
 40
0.125
  1
800.66.TAGUE
  0
ENDBLK
  5
14D0C
  8
0
  0
BLOCK
  8
0
  2
*U81
 70
     1
 10
0.0
 20
0.0
 30
0.0
  3
*U81
  1

  0
TEXT
  5
14D0E
  8
0
 10
2.3591545502839431
 20
0.9010435759007737
 30
0.0
 40
0.125
  1
Baluster Stock
  0
TEXT
  5
14D0F
  8
0
 10
2.3678516853453342
 20
0.6921986463873587
 30
0.0
 40
0.125
  1
TL-237
  0
TEXT
  5
14D10
  8
0
 10
2.3529301300929468
 20
0.4817336623036842
 30
0.0
 40
0.125
  1
1-5/16" x 1-5/16"
  0
TEXT
  5
14D11
  8
0
 10
2.3648673742948572
 20
0.2712686782200098
 30
0.0
 40
0.125
  1
800.66.TAGUE
  0
ENDBLK
  5
14D13
  8
0
  0
BLOCK
  8
0
  2
*U82
 70
     1
 10
0.0
 20
0.0
 30
0.0
  3
*U82
  1

  0
TEXT
  5
14D15
  8
0
 10
2.098510450655322
 20
0.7826568183311498
 30
0.0
 40
0.125
  1
Baluster Stock
  0
TEXT
  5
14D16
  8
0
 10
2.1072075857167132
 20
0.5738118888177346
 30
0.0
 40
0.125
  1
TL-238
  0
TEXT
  5
14D17
  8
0
 10
2.0922860304643258
 20
0.3633469047340601
 30
0.0
 40
0.125
  1
1-1/16" x 1-1/16"
  0
TEXT
  5
14D18
  8
0
 10
2.1042232746662362
 20
0.1528819206503857
 30
0.0
 40
0.125
  1
800.66.TAGUE
  0
ENDBLK
  5
14D1A
  8
0
  0
BLOCK
  8
0
  2
*U83
 70
     1
 10
0.0
 20
0.0
 30
0.0
  3
*U83
  1

  0
TEXT
  5
14D1C
  8
0
 10
1.7835912292499461
 20
0.6784890753194919
 30
0.0
 40
0.125
  1
Baluster Stock
  0
TEXT
  5
14D1D
  8
0
 10
1.792288364311337
 20
0.4696441458060768
 30
0.0
 40
0.125
  1
TL-239
  0
TEXT
  5
14D1E
  8
0
 10
1.7890482551708189
 20
0.2591791617224023
 30
0.0
 40
0.125
  1
3/4" x 3/4"
  0
TEXT
  5
14D1F
  8
0
 10
1.78930405326086
 20
0.0487141776387279
 30
0.0
 40
0.125
  1
800.66.TAGUE
  0
ENDBLK
  5
14D21
  8
0
  0
BLOCK
  8
0
  2
*U84
 70
     1
 10
0.0
 20
0.0
 30
0.0
  3
*U84
  1

  0
TEXT
  5
14D23
  8
0
 10
2.750346038648086
 20
1.209669783574115
 30
0.0
 40
0.125
  1
Baluster Stock
  0
TEXT
  5
14D24
  8
0
 10
2.7590431737094772
 20
1.0008248540607001
 30
0.0
 40
0.125
  1
TL-526
  0
TEXT
  5
14D25
  8
0
 10
2.7441216184570898
 20
0.7903598699770261
 30
0.0
 40
0.125
  1
1-3/4" x 1-3/4"
  0
TEXT
  5
14D26
  8
0
 10
2.7560588626590001
 20
0.5798948858933518
 30
0.0
 40
0.125
  1
800.66.TAGUE
  0
ENDBLK
  5
14D28
  8
0
  0
BLOCK
  8
0
  2
*U85
 70
     1
 10
0.0
 20
0.0
 30
0.0
  3
*U85
  1

  0
TEXT
  5
14D2A
  8
0
 10
4.1934393821158942
 20
3.6154353709422362
 30
0.0
 40
0.125
  1
Bar Rail
  0
TEXT
  5
14D2B
  8
0
 10
4.2021365171772853
 20
3.4065904414288211
 30
0.0
 40
0.125
  1
TL-13
  0
TEXT
  5
14D2C
  8
0
 10
4.19898167406678
 20
3.1961254573451461
 30
0.0
 40
0.125
  1
5-1/2" x 1-5/8"
  0
TEXT
  5
14D2D
  8
0
 10
4.199152206126807
 20
2.985660473261472
 30
0.0
 40
0.125
  1
800.66.TAGUE
  0
ENDBLK
  5
14D2F
  8
0
  0
BLOCK
  8
0
  2
*U86
 70
     1
 10
0.0
 20
0.0
 30
0.0
  3
*U86
  1

  0
TEXT
  5
14D31
  8
0
 10
2.7915496004018041
 20
1.6928133759646471
 30
0.0
 40
0.125
  1
Bar Rail
  0
TEXT
  5
14D32
  8
0
 10
2.8002467354631961
 20
1.483968446451231
 30
0.0
 40
0.125
  1
TL-130
  0
TEXT
  5
14D33
  8
0
 10
2.7853251802108079
 20
1.273503462367557
 30
0.0
 40
0.125
  1
1-11/16" x 2-1/4"
  0
TEXT
  5
14D34
  8
0
 10
2.7972624244127182
 20
1.0630384782838831
 30
0.0
 40
0.125
  1
800.66.TAGUE
  0
ENDBLK
  5
14D36
  8
0
  0
BLOCK
  8
0
  2
*U87
 70
     1
 10
0.0
 20
0.0
 30
0.0
  3
*U87
  1

  0
TEXT
  5
14D38
  8
0
 10
0.7422973615718824
 20
1.83447380854534
 30
0.0
 40
0.125
  1
Bar Rail
  0
TEXT
  5
14D39
  8
0
 10
0.750994496633274
 20
1.625628879031924
 30
0.0
 40
0.125
  1
TL-537
  0
TEXT
  5
14D3A
  8
0
 10
0.7360729413808864
 20
1.4151638949482499
 30
0.0
 40
0.125
  1
1-5/16" x 5-3/16" / 7/8" x 3-1/16"
  0
TEXT
  5
14D3B
  8
0
 10
0.7480101855827965
 20
1.204698910864576
 30
0.0
 40
0.125
  1
800.66.TAGUE
  0
ENDBLK
  5
14D3D
  8
0
  0
BLOCK
  8
0
  2
*U88
 70
     1
 10
0.0
 20
0.0
 30
0.0
  3
*U88
  1

  0
TEXT
  5
14D3F
  8
0
 10
1.8164004611375999
 20
3.819697741885534
 30
0.0
 40
0.125
  1
Base Board Assembly
  0
TEXT
  5
14D40
  8
0
 10
1.8250975961989919
 20
3.610852812372118
 30
0.0
 40
0.125
  1
TL-680
  0
TEXT
  5
14D41
  8
0
 10
1.8101760409466039
 20
3.4003878282884439
 30
0.0
 40
0.125
  1
1-1/16" x 6-3/4"
  0
TEXT
  5
14D42
  8
0
 10
1.822113285148514
 20
3.1899228442047698
 30
0.0
 40
0.125
  1
800.66.TAGUE
  0
ENDBLK
  5
14D44
  8
0
  0
BLOCK
  8
0
  2
*U89
 70
     1
 10
0.0
 20
0.0
 30
0.0
  3
*U89
  1

  0
TEXT
  5
14D46
  8
0
 10
1.880121442934813
 20
2.5708737061797931
 30
0.0
 40
0.125
  1
TL-541
  0
ENDBLK
  5
14D48
  8
0
  0
BLOCK
  8
0
  2
*U90
 70
     1
 10
0.0
 20
0.0
 30
0.0
  3
*U90
  1

  0
INSERT
  5
14D4A
  8
0
  2
_OPEN30
 10
0.9370004965966245
 20
1.998969839043752
 30
0.0
 41
0.046875
 42
0.046875
 43
0.046875
 50
220.2352165150823
  0
POLYLINE
  5
14D4B
  8
0
 66
     1
 10
0.0
 20
0.0
 30
0.0
  0
VERTEX
  5
14D4C
  8
0
 10
0.9727848321090522
 20
2.0292476685058189
 30
0.0
  0
VERTEX
  5
14D4D
  8
0
 10
1.687083141229663
 20
2.633629504269833
 30
0.0
  0
VERTEX
  5
14D4E
  8
0
 10
1.8217142123754679
 20
2.633629504269833
 30
0.0
  0
SEQEND
  5
14D4F
  8
0
  0
ENDBLK
  5
14D51
  8
0
  0
BLOCK
  8
0
  2
*U91
 70
     1
 10
0.0
 20
0.0
 30
0.0
  3
*U91
  1

  0
TEXT
  5
14D53
  8
0
 10
1.8608875418177091
 20
6.6078272811635204
 30
0.0
 40
0.125
  1
TL-540
  0
TEXT
  5
14D54
  8
0
 10
1.8649803112583641
 20
6.399238149740146
 30
0.0
 40
0.125
  1
 
  0
ENDBLK
  5
14D56
  8
0
  0
BLOCK
  8
0
  2
*U92
 70
     1
 10
0.0
 20
0.0
 30
0.0
  3
*U92
  1

  0
INSERT
  5
14D58
  8
0
  2
_OPEN30
 10
0.8157519259211198
 20
5.9858143171212532
 30
0.0
 41
0.046875
 42
0.046875
 43
0.046875
 50
218.1633806826421
  0
POLYLINE
  5
14D59
  8
0
 66
     1
 10
0.0
 20
0.0
 30
0.0
  0
VERTEX
  5
14D5A
  8
0
 10
0.8526074872282775
 20
6.0147786611624072
 30
0.0
  0
VERTEX
  5
14D5B
  8
0
 10
1.687083141229663
 20
6.6705830792535599
 30
0.0
  0
VERTEX
  5
14D5C
  8
0
 10
1.8024803112583641
 20
6.6705830792535599
 30
0.0
  0
SEQEND
  5
14D5D
  8
0
  0
ENDBLK
  5
14D5F
  8
0
  0
BLOCK
  8
0
  2
*U93
 70
     1
 10
0.0
 20
0.0
 30
0.0
  3
*U93
  1

  0
TEXT
  5
14D61
  8
0
 10
1.200091944455248
 20
3.6095250915403758
 30
0.0
 40
0.125
  1
Base Board Assembly
  0
TEXT
  5
14D62
  8
0
 10
1.2087890795166401
 20
3.4006801620269611
 30
0.0
 40
0.125
  1
TL-681
  0
TEXT
  5
14D63
  8
0
 10
1.193867524264252
 20
3.190215177943287
 30
0.0
 40
0.125
  1
1" x 9-1/4"
  0
TEXT
  5
14D64
  8
0
 10
1.2058047684661619
 20
2.979750193859612
 30
0.0
 40
0.125
  1
800.66.TAGUE
  0
ENDBLK
  5
14D66
  8
0
  0
BLOCK
  8
0
  2
*U94
 70
     1
 10
0.0
 20
0.0
 30
0.0
  3
*U94
  1

  0
INSERT
  5
14D68
  8
0
  6
CONTINUOUS
  2
_OPEN30
 10
0.7500005591156196
 20
6.587852449929982
 30
0.0
 41
0.046875
 42
0.046875
 43
0.046875
 50
224.09146837719419
  0
POLYLINE
  5
14D69
  8
0
  6
CONTINUOUS
 66
     1
 10
0.0
 20
0.0
 30
0.0
  0
VERTEX
  5
14D6A
  8
0
  6
CONTINUOUS
 10
0.7836675863640283
 20
6.6204683494462451
 30
0.0
  0
VERTEX
  5
14D6B
  8
0
  6
CONTINUOUS
 10
1.7133956757769511
 20
7.5211691365396973
 30
0.0
  0
VERTEX
  5
14D6C
  8
0
  6
CONTINUOUS
 10
1.9000752793112949
 20
7.5211691365396973
 30
0.0
  0
SEQEND
  5
14D6D
  8
0
  6
CONTINUOUS
  0
ENDBLK
  5
14D6F
  8
0
  0
BLOCK
  8
0
  2
*U95
 70
     1
 10
0.0
 20
0.0
 30
0.0
  3
*U95
  1

  0
TEXT
  5
14D71
  8
0
 10
1.95848250987064
 20
7.458413338449656
 30
0.0
 40
0.125
  1
TL-602
  0
ENDBLK
  5
14D73
  8
0
  0
BLOCK
  8
0
  2
*U96
 70
     1
 10
0.0
 20
0.0
 30
0.0
  3
*U96
  1

  0
INSERT
  5
14D75
  8
0
  6
CONTINUOUS
  2
_OPEN30
 10
1.0000005591156189
 20
0.8124995480944789
 30
0.0
 41
0.046875
 42
0.046875
 43
0.046875
 50
224.09146837719419
  0
POLYLINE
  5
14D76
  8
0
  6
CONTINUOUS
 66
     1
 10
0.0
 20
0.0
 30
0.0
  0
VERTEX
  5
14D77
  8
0
  6
CONTINUOUS
 10
1.0336675863640279
 20
0.8451154476107411
 30
0.0
  0
VERTEX
  5
14D78
  8
0
  6
CONTINUOUS
 10
1.9633956757769511
 20
1.745816234704193
 30
0.0
  0
VERTEX
  5
14D79
  8
0
  6
CONTINUOUS
 10
2.1500752793112952
 20
1.745816234704193
 30
0.0
  0
SEQEND
  5
14D7A
  8
0
  6
CONTINUOUS
  0
ENDBLK
  5
14D7C
  8
0
  0
BLOCK
  8
0
  2
*U97
 70
     1
 10
0.0
 20
0.0
 30
0.0
  3
*U97
  1

  0
TEXT
  5
14D7E
  8
0
 10
2.20848250987064
 20
1.6828046385241111
 30
0.0
 40
0.125
  1
TL-266
  0
ENDBLK
  5
14D80
  8
0
  0
BLOCK
  8
0
  2
*U98
 70
     1
 10
0.0
 20
0.0
 30
0.0
  3
*U98
  1

  0
INSERT
  5
14D82
  8
0
  6
CONTINUOUS
  2
_OPEN30
 10
0.7500004105942253
 20
6.3960963538685291
 30
0.0
 41
0.046875
 42
0.046875
 43
0.046875
 50
219.47434747209351
  0
POLYLINE
  5
14D83
  8
0
  6
CONTINUOUS
 66
     1
 10
0.0
 20
0.0
 30
0.0
  0
VERTEX
  5
14D84
  8
0
  6
CONTINUOUS
 10
0.7861836586409798
 20
6.4258963234286979
 30
0.0
  0
VERTEX
  5
14D85
  8
0
  6
CONTINUOUS
 10
1.374056000801033
 20
6.9100589911637371
 30
0.0
  0
VERTEX
  5
14D86
  8
0
  6
CONTINUOUS
 10
1.5384924777565061
 20
6.9100589911637371
 30
0.0
  0
SEQEND
  5
14D87
  8
0
  6
CONTINUOUS
  0
ENDBLK
  5
14D89
  8
0
  0
BLOCK
  8
0
  2
*U99
 70
     1
 10
0.0
 20
0.0
 30
0.0
  3
*U99
  1

  0
TEXT
  5
14D8B
  8
0
 10
1.5968997083158509
 20
6.8473031930736958
 30
0.0
 40
0.125
  1
TL-550
  0
ENDBLK
  5
14D8D
  8
0
  0
BLOCK
  8
0
  2
*U100
 70
     1
 10
0.0
 20
0.0
 30
0.0
  3
*U100
  1

  0
INSERT
  5
14D8F
  8
0
  6
CONTINUOUS
  2
_OPEN30
 10
0.7500004105942253
 20
2.53267018701797
 30
0.0
 41
0.046875
 42
0.046875
 43
0.046875
 50
222.22478218143399
  0
POLYLINE
  5
14D90
  8
0
  6
CONTINUOUS
 66
     1
 10
0.0
 20
0.0
 30
0.0
  0
VERTEX
  5
14D91
  8
0
  6
CONTINUOUS
 10
0.7847120037465148
 20
2.5641721064171099
 30
0.0
  0
VERTEX
  5
14D92
  8
0
  6
CONTINUOUS
 10
1.5311175519539111
 20
3.2415598401215671
 30
0.0
  0
VERTEX
  5
14D93
  8
0
  6
CONTINUOUS
 10
1.6247289838881891
 20
3.2416177465441929
 30
0.0
  0
SEQEND
  5
14D94
  8
0
  6
CONTINUOUS
  0
ENDBLK
  5
14D96
  8
0
  0
BLOCK
  8
0
  2
*U101
 70
     1
 10
0.0
 20
0.0
 30
0.0
  3
*U101
  1

  0
TEXT
  5
14D98
  8
0
 10
1.6831362144475339
 20
3.178861948454152
 30
0.0
 40
0.125
  1
TL-551
  0
ENDBLK
  5
14D9A
  8
0
  0
BLOCK
  8
0
  2
*U102
 70
     1
 10
0.0
 20
0.0
 30
0.0
  3
*U102
  1

  0
INSERT
  5
14D9C
  8
0
  6
CONTINUOUS
  2
_OPEN30
 10
1.04738175721161
 20
0.4967917735383481
 30
0.0
 41
0.046875
 42
0.046875
 43
0.046875
 50
212.67418530855349
  0
POLYLINE
  5
14D9D
  8
0
  6
CONTINUOUS
 66
     1
 10
0.0
 20
0.0
 30
0.0
  0
VERTEX
  5
14D9E
  8
0
  6
CONTINUOUS
 10
1.0868389807680281
 20
0.5220977636240739
 30
0.0
  0
VERTEX
  5
14D9F
  8
0
  6
CONTINUOUS
 10
1.4785839895729389
 20
0.7733444154513336
 30
0.0
  0
VERTEX
  5
14DA0
  8
0
  6
CONTINUOUS
 10
1.535363721355395
 20
0.7733444154513336
 30
0.0
  0
SEQEND
  5
14DA1
  8
0
  6
CONTINUOUS
  0
ENDBLK
  5
14DA3
  8
0
  0
BLOCK
  8
0
  2
*U103
 70
     1
 10
0.0
 20
0.0
 30
0.0
  3
*U103
  1

  0
TEXT
  5
14DA5
  8
0
 10
1.5937709519147401
 20
0.7105886173612928
 30
0.0
 40
0.125
  1
TL-127
  0
ENDBLK
  5
14DA7
  8
0
  0
BLOCK
  8
0
  2
*U104
 70
     1
 10
0.0
 20
0.0
 30
0.0
  3
*U104
  1

  0
TEXT
  5
14DA9
  8
0
 10
2.1409458709672249
 20
2.6869009874993699
 30
0.0
 40
0.125
  1
Base Board Assembly
  0
TEXT
  5
14DAA
  8
0
 10
2.1496430060286169
 20
2.4780560579859552
 30
0.0
 40
0.125
  1
TL-682
  0
TEXT
  5
14DAB
  8
0
 10
2.1347214507762291
 20
2.2675910739022811
 30
0.0
 40
0.125
  1
1-1/16" x 7-3/8"
  0
TEXT
  5
14DAC
  8
0
 10
2.146658694978139
 20
2.057126089818607
 30
0.0
 40
0.125
  1
800.66.TAGUE
  0
ENDBLK
  5
14DAE
  8
0
  0
BLOCK
  8
0
  2
*U105
 70
     1
 10
0.0
 20
0.0
 30
0.0
  3
*U105
  1

  0
TEXT
  5
14DB0
  8
0
 10
2.290801695922692
 20
2.6689022993974731
 30
0.0
 40
0.125
  1
Base Board Assembly
  0
TEXT
  5
14DB1
  8
0
 10
2.2994988309840831
 20
2.4600573698840571
 30
0.0
 40
0.125
  1
TL-683
  0
TEXT
  5
14DB2
  8
0
 10
2.2845772757316962
 20
2.249592385800383
 30
0.0
 40
0.125
  1
1-1/8" x 5-15/16"
  0
TEXT
  5
14DB3
  8
0
 10
2.2965145199336061
 20
2.0391274017167089
 30
0.0
 40
0.125
  1
800.66.TAGUE
  0
ENDBLK
  5
14DB5
  8
0
  0
BLOCK
  8
0
  2
*U106
 70
     1
 10
0.0
 20
0.0
 30
0.0
  3
*U106
  1

  0
INSERT
  5
14DB7
  8
0
  6
CONTINUOUS
  2
_OPEN30
 10
1.12500054900903
 20
5.65624955358237
 30
0.0
 41
0.046875
 42
0.046875
 43
0.046875
 50
212.76268937863
  0
POLYLINE
  5
14DB8
  8
0
  6
CONTINUOUS
 66
     1
 10
0.0
 20
0.0
 30
0.0
  0
VERTEX
  5
14DB9
  8
0
  6
CONTINUOUS
 10
1.164418635662722
 20
5.6816164625300907
 30
0.0
  0
VERTEX
  5
14DBA
  8
0
  6
CONTINUOUS
 10
1.5566905795914741
 20
5.9340570939541522
 30
0.0
  0
VERTEX
  5
14DBB
  8
0
  6
CONTINUOUS
 10
1.625384535953855
 20
5.9340570939541522
 30
0.0
  0
SEQEND
  5
14DBC
  8
0
  6
CONTINUOUS
  0
ENDBLK
  5
14DBE
  8
0
  0
BLOCK
  8
0
  2
*U107
 70
     1
 10
0.0
 20
0.0
 30
0.0
  3
*U107
  1

  0
TEXT
  5
14DC0
  8
0
 10
1.6837917665132001
 20
5.8710454977740696
 30
0.0
 40
0.125
  1
TL-522
  0
ENDBLK
  5
14DC2
  8
0
  0
BLOCK
  8
0
  2
*U108
 70
     1
 10
0.0
 20
0.0
 30
0.0
  3
*U108
  1

  0
INSERT
  5
14DC4
  8
0
  6
CONTINUOUS
  2
_OPEN30
 10
1.2500005459876879
 20
0.2499995505611423
 30
0.0
 41
0.046875
 42
0.046875
 43
0.046875
 50
202.31861548713121
  0
POLYLINE
  5
14DC5
  8
0
  6
CONTINUOUS
 66
     1
 10
0.0
 20
0.0
 30
0.0
  0
VERTEX
  5
14DC6
  8
0
  6
CONTINUOUS
 10
1.293363970221912
 20
0.2678006478217807
 30
0.0
  0
VERTEX
  5
14DC7
  8
0
  6
CONTINUOUS
 10
2.1572010681318261
 20
0.6224139761923198
 30
0.0
  0
VERTEX
  5
14DC8
  8
0
  6
CONTINUOUS
 10
2.2687807536349851
 20
0.626210466030102
 30
0.0
  0
SEQEND
  5
14DC9
  8
0
  6
CONTINUOUS
  0
ENDBLK
  5
14DCB
  8
0
  0
BLOCK
  8
0
  2
*U109
 70
     1
 10
0.0
 20
0.0
 30
0.0
  3
*U109
  1

  0
TEXT
  5
14DCD
  8
0
 10
2.3271879841943299
 20
0.5634546679400611
 30
0.0
 40
0.125
  1
TL-126
  0
ENDBLK
  5
14DCF
  8
0
  0
BLOCK
  8
0
  2
*U110
 70
     1
 10
0.0
 20
0.0
 30
0.0
  3
*U110
  1

  0
INSERT
  5
14DD1
  8
0
  6
CONTINUOUS
  2
_OPEN30
 10
0.7500005490090304
 20
2.74999955358237
 30
0.0
 41
0.046875
 42
0.046875
 43
0.046875
 50
202.16313132933621
  0
POLYLINE
  5
14DD2
  8
0
  6
CONTINUOUS
 66
     1
 10
0.0
 20
0.0
 30
0.0
  0
VERTEX
  5
14DD3
  8
0
  6
CONTINUOUS
 10
0.7934121205394016
 20
2.7676829096626911
 30
0.0
  0
VERTEX
  5
14DD4
  8
0
  6
CONTINUOUS
 10
1.403356379662966
 20
3.0161388199879862
 30
0.0
  0
VERTEX
  5
14DD5
  8
0
  6
CONTINUOUS
 10
1.4759478210543191
 20
3.0161388199879862
 30
0.0
  0
SEQEND
  5
14DD6
  8
0
  6
CONTINUOUS
  0
ENDBLK
  5
14DD8
  8
0
  0
BLOCK
  8
0
  2
*U111
 70
     1
 10
0.0
 20
0.0
 30
0.0
  3
*U111
  1

  0
TEXT
  5
14DDA
  8
0
 10
1.5194334963612759
 20
2.9533830218979449
 30
0.0
 40
0.125
  1
1 x 6
  0
ENDBLK
  5
14DDC
  8
0
  0
BLOCK
  8
0
  2
*U112
 70
     1
 10
0.0
 20
0.0
 30
0.0
  3
*U112
  1

  0
TEXT
  5
14DDE
  8
0
 10
2.704137288033603
 20
3.332115229613577
 30
0.0
 40
0.125
  1
Base Board Assembly
  0
TEXT
  5
14DDF
  8
0
 10
2.712834423094995
 20
3.1232703001001618
 30
0.0
 40
0.125
  1
TL-684
  0
TEXT
  5
14DE0
  8
0
 10
2.6979128678426072
 20
2.9128053160164882
 30
0.0
 40
0.125
  1
1-1/4" x 7-1/8"
  0
TEXT
  5
14DE1
  8
0
 10
2.7098501120445171
 20
2.7023403319328141
 30
0.0
 40
0.125
  1
800.66.TAGUE
  0
ENDBLK
  5
14DE3
  8
0
  0
BLOCK
  8
0
  2
*U113
 70
     1
 10
0.0
 20
0.0
 30
0.0
  3
*U113
  1

  0
INSERT
  5
14DE5
  8
0
  6
CONTINUOUS
  2
_OPEN30
 10
0.7451914169819816
 20
2.7500006434855768
 30
0.0
 41
0.046875
 42
0.046875
 43
0.046875
 50
202.16313132933621
  0
POLYLINE
  5
14DE6
  8
0
  6
CONTINUOUS
 66
     1
 10
0.0
 20
0.0
 30
0.0
  0
VERTEX
  5
14DE7
  8
0
  6
CONTINUOUS
 10
0.7886029885123529
 20
2.7676839995658988
 30
0.0
  0
VERTEX
  5
14DE8
  8
0
  6
CONTINUOUS
 10
1.3985472476359171
 20
3.0161399098911938
 30
0.0
  0
VERTEX
  5
14DE9
  8
0
  6
CONTINUOUS
 10
1.47113868902727
 20
3.0161399098911938
 30
0.0
  0
SEQEND
  5
14DEA
  8
0
  6
CONTINUOUS
  0
ENDBLK
  5
14DEC
  8
0
  0
BLOCK
  8
0
  2
*U114
 70
     1
 10
0.0
 20
0.0
 30
0.0
  3
*U114
  1

  0
TEXT
  5
14DEE
  8
0
 10
1.5146243643342281
 20
2.953384111801153
 30
0.0
 40
0.125
  1
1 x 6
  0
ENDBLK
  5
14DF0
  8
0
  0
BLOCK
  8
0
  2
*U115
 70
     1
 10
0.0
 20
0.0
 30
0.0
  3
*U115
  1

  0
INSERT
  5
14DF2
  8
0
  6
CONTINUOUS
  2
_OPEN30
 10
1.1801914169819829
 20
0.4698936434855341
 30
0.0
 41
0.046875
 42
0.046875
 43
0.046875
 50
202.3186154871324
  0
POLYLINE
  5
14DF3
  8
0
  6
CONTINUOUS
 66
     1
 10
0.0
 20
0.0
 30
0.0
  0
VERTEX
  5
14DF4
  8
0
  6
CONTINUOUS
 10
1.2235548412162069
 20
0.4876947407461734
 30
0.0
  0
VERTEX
  5
14DF5
  8
0
  6
CONTINUOUS
 10
2.0873919391260638
 20
0.8423080691167115
 30
0.0
  0
VERTEX
  5
14DF6
  8
0
  6
CONTINUOUS
 10
2.1989716246292801
 20
0.8461045589546075
 30
0.0
  0
SEQEND
  5
14DF7
  8
0
  6
CONTINUOUS
  0
ENDBLK
  5
14DF9
  8
0
  0
BLOCK
  8
0
  2
*U116
 70
     1
 10
0.0
 20
0.0
 30
0.0
  3
*U116
  1

  0
TEXT
  5
14DFB
  8
0
 10
2.2573788551886249
 20
0.7830929627745256
 30
0.0
 40
0.125
  1
TL-936
  0
ENDBLK
  5
14DFD
  8
0
  0
BLOCK
  8
0
  2
*U117
 70
     1
 10
0.0
 20
0.0
 30
0.0
  3
*U117
  1

  0
INSERT
  5
14DFF
  8
0
  6
CONTINUOUS
  2
_OPEN30
 10
1.1140370353124349
 20
6.0172615651794104
 30
0.0
 41
0.046875
 42
0.046875
 43
0.046875
 50
212.76268937861931
  0
POLYLINE
  5
14E00
  8
0
  6
CONTINUOUS
 66
     1
 10
0.0
 20
0.0
 30
0.0
  0
VERTEX
  5
14E01
  8
0
  6
CONTINUOUS
 10
1.153455121966132
 20
6.0426284741271239
 30
0.0
  0
VERTEX
  5
14E02
  8
0
  6
CONTINUOUS
 10
1.5457270658948801
 20
6.2950691055510779
 30
0.0
  0
VERTEX
  5
14E03
  8
0
  6
CONTINUOUS
 10
1.614421022257261
 20
6.2950691055510779
 30
0.0
  0
SEQEND
  5
14E04
  8
0
  6
CONTINUOUS
  0
ENDBLK
  5
14E06
  8
0
  0
BLOCK
  8
0
  2
*U118
 70
     1
 10
0.0
 20
0.0
 30
0.0
  3
*U118
  1

  0
TEXT
  5
14E08
  8
0
 10
1.6728282528166061
 20
6.2320575093709971
 30
0.0
 40
0.125
  1
TL-64
  0
ENDBLK
  5
14E0A
  8
0
  0
BLOCK
  8
0
  2
*U119
 70
     1
 10
0.0
 20
0.0
 30
0.0
  3
*U119
  1

  0
INSERT
  5
14E0C
  8
0
  2
_OPEN30
 10
0.7499984483362711
 20
3.323717158281283
 30
0.0
 41
0.046875
 42
0.046875
 43
0.046875
 50
223.3453603417224
  0
POLYLINE
  5
14E0D
  8
0
 66
     1
 10
0.0
 20
0.0
 30
0.0
  0
VERTEX
  5
14E0E
  8
0
 10
0.7840873347090377
 20
3.3558918913938451
 30
0.0
  0
VERTEX
  5
14E0F
  8
0
 10
1.5886209634041959
 20
4.1152494867193354
 30
0.0
  0
VERTEX
  5
14E10
  8
0
 10
1.696609421136031
 20
4.1152494867193354
 30
0.0
  0
SEQEND
  5
14E11
  8
0
  0
ENDBLK
  5
14E13
  8
0
  0
BLOCK
  8
0
  2
*U120
 70
     1
 10
0.0
 20
0.0
 30
0.0
  3
*U120
  1

  0
TEXT
  5
14E15
  8
0
 10
1.755016651695376
 20
4.0522378905392529
 30
0.0
 40
0.125
  1
TL-AB212
  0
ENDBLK
  5
14E17
  8
0
  0
BLOCK
  8
0
  2
*U121
 70
     1
 10
0.0
 20
0.0
 30
0.0
  3
*U121
  1

  0
INSERT
  5
14E19
  8
0
  2
_OPEN30
 10
1.044936595452554
 20
0.5089059855812366
 30
0.0
 41
0.046875
 42
0.046875
 43
0.046875
 50
218.32432662178419
  0
POLYLINE
  5
14E1A
  8
0
 66
     1
 10
0.0
 20
0.0
 30
0.0
  0
VERTEX
  5
14E1B
  8
0
 10
1.0817106495577451
 20
0.5379737438310308
 30
0.0
  0
VERTEX
  5
14E1C
  8
0
 10
1.624617115981436
 20
0.9671098372601819
 30
0.0
  0
VERTEX
  5
14E1D
  8
0
 10
1.7056084592803691
 20
0.9671098372601819
 30
0.0
  0
SEQEND
  5
14E1E
  8
0
  0
ENDBLK
  5
14E20
  8
0
  0
BLOCK
  8
0
  2
*U122
 70
     1
 10
0.0
 20
0.0
 30
0.0
  3
*U122
  1

  0
TEXT
  5
14E22
  8
0
 10
1.7640156898397139
 20
0.9043540391701409
 30
0.0
 40
0.125
  1
TL-AB027
  0
ENDBLK
  5
14E24
  8
0
  0
BLOCK
  8
0
  2
*U123
 70
     1
 10
0.0
 20
0.0
 30
0.0
  3
*U123
  1

  0
TEXT
  5
14E26
  8
0
 10
2.1745549234235391
 20
2.6225473309813192
 30
0.0
 40
0.125
  1
Base Board Assembly
  0
TEXT
  5
14E27
  8
0
 10
2.1832520584849302
 20
2.413702401467904
 30
0.0
 40
0.125
  1
TL-685
  0
TEXT
  5
14E28
  8
0
 10
2.1683305032325428
 20
2.2032374173842291
 30
0.0
 40
0.125
  1
1-1/4" x 5-1/2"
  0
TEXT
  5
14E29
  8
0
 10
2.1802677474344532
 20
1.992772433300555
 30
0.0
 40
0.125
  1
800.66.TAGUE
  0
ENDBLK
  5
14E2B
  8
0
  0
BLOCK
  8
0
  2
*U124
 70
     1
 10
0.0
 20
0.0
 30
0.0
  3
*U124
  1

  0
INSERT
  5
14E2D
  8
0
  2
_OPEN30
 10
1.237403731795552
 20
0.7228374639378217
 30
0.0
 41
0.046875
 42
0.046875
 43
0.046875
 50
218.32432662178419
  0
POLYLINE
  5
14E2E
  8
0
 66
     1
 10
0.0
 20
0.0
 30
0.0
  0
VERTEX
  5
14E2F
  8
0
 10
1.274177785900743
 20
0.7519052221876159
 30
0.0
  0
VERTEX
  5
14E30
  8
0
 10
1.8170842523244339
 20
1.1810413156167661
 30
0.0
  0
VERTEX
  5
14E31
  8
0
 10
1.898075595623367
 20
1.1810413156167661
 30
0.0
  0
SEQEND
  5
14E32
  8
0
  0
ENDBLK
  5
14E34
  8
0
  0
BLOCK
  8
0
  2
*U125
 70
     1
 10
0.0
 20
0.0
 30
0.0
  3
*U125
  1

  0
TEXT
  5
14E36
  8
0
 10
1.9564828261827121
 20
1.1180297194366851
 30
0.0
 40
0.125
  1
TL-AB205-2
  0
ENDBLK
  5
14E38
  8
0
  0
BLOCK
  8
0
  2
*U126
 70
     1
 10
0.0
 20
0.0
 30
0.0
  3
*U126
  1

  0
INSERT
  5
14E3A
  8
0
  2
_OPEN30
 10
0.7805394140341379
 20
3.428009497764946
 30
0.0
 41
0.046875
 42
0.046875
 43
0.046875
 50
223.3453603417224
  0
POLYLINE
  5
14E3B
  8
0
 66
     1
 10
0.0
 20
0.0
 30
0.0
  0
VERTEX
  5
14E3C
  8
0
 10
0.8146283004069044
 20
3.460184230877509
 30
0.0
  0
VERTEX
  5
14E3D
  8
0
 10
1.619161929102062
 20
4.219541826202998
 30
0.0
  0
VERTEX
  5
14E3E
  8
0
 10
1.727150386833898
 20
4.219541826202998
 30
0.0
  0
SEQEND
  5
14E3F
  8
0
  0
ENDBLK
  5
14E41
  8
0
  0
BLOCK
  8
0
  2
*U127
 70
     1
 10
0.0
 20
0.0
 30
0.0
  3
*U127
  1

  0
TEXT
  5
14E43
  8
0
 10
1.785557617393243
 20
4.1565302300229172
 30
0.0
 40
0.125
  1
TL-AB205-1
  0
ENDBLK
  5
14E45
  8
0
  0
BLOCK
  8
0
  2
*U128
 70
     1
 10
0.0
 20
0.0
 30
0.0
  3
*U128
  1

  0
TEXT
  5
14E47
  8
0
 10
1.775461282784117
 20
2.9617887573592721
 30
0.0
 40
0.125
  1
Base Board Assembly
  0
TEXT
  5
14E48
  8
0
 10
1.784158417845509
 20
2.7529438278458569
 30
0.0
 40
0.125
  1
TL-686
  0
TEXT
  5
14E49
  8
0
 10
1.769236862593121
 20
2.5424788437621819
 30
0.0
 40
0.125
  1
1-1/4" x 6"
  0
TEXT
  5
14E4A
  8
0
 10
1.7811741067950311
 20
2.3320138596785078
 30
0.0
 40
0.125
  1
800.66.TAGUE
  0
ENDBLK
  5
14E4C
  8
0
  0
BLOCK
  8
0
  2
*U129
 70
     1
 10
0.0
 20
0.0
 30
0.0
  3
*U129
  1

  0
TEXT
  5
14E4E
  8
0
 10
1.8629812104003169
 20
1.3751718201384611
 30
0.0
 40
0.125
  1
Base Board
  0
TEXT
  5
14E4F
  8
0
 10
1.8716783454617081
 20
1.1663268906250459
 30
0.0
 40
0.125
  1
TL-540
  0
TEXT
  5
14E50
  8
0
 10
1.8567567902093209
 20
0.9558619065413724
 30
0.0
 40
0.125
  1
1-1/16" x 1-7/8"
  0
TEXT
  5
14E51
  8
0
 10
1.8686940344112311
 20
0.745396922457698
 30
0.0
 40
0.125
  1
800.66.TAGUE
  0
ENDBLK
  5
14E53
  8
0
  0
BLOCK
  8
0
  2
*U130
 70
     1
 10
0.0
 20
0.0
 30
0.0
  3
*U130
  1

  0
TEXT
  5
14E55
  8
0
 10
2.095166123738732
 20
2.843700788541923
 30
0.0
 40
0.125
  1
Base Board
  0
TEXT
  5
14E56
  8
0
 10
2.1038632588001231
 20
2.6348558590285078
 30
0.0
 40
0.125
  1
TL-541
  0
TEXT
  5
14E57
  8
0
 10
2.0889417035477358
 20
2.4243908749448329
 30
0.0
 40
0.125
  1
1-5/16" x 5-1/8"
  0
TEXT
  5
14E58
  8
0
 10
2.1008789477496461
 20
2.2139258908611592
 30
0.0
 40
0.125
  1
800.66.TAGUE
  0
ENDBLK
  5
14E5A
  8
0
  0
BLOCK
  8
0
  2
*U131
 70
     1
 10
0.0
 20
0.0
 30
0.0
  3
*U131
  1

  0
TEXT
  5
14E5C
  8
0
 10
1.3029084100507859
 20
2.5127676930541152
 30
0.0
 40
0.125
  1
Base Board
  0
TEXT
  5
14E5D
  8
0
 10
1.3116055451121771
 20
2.3039227635407
 30
0.0
 40
0.125
  1
TL-36
  0
TEXT
  5
14E5E
  8
0
 10
1.3084507020016729
 20
2.093457779457025
 30
0.0
 40
0.125
  1
9/16" x 5-1/16"
  0
TEXT
  5
14E5F
  8
0
 10
1.3086212340617001
 20
1.882992795373351
 30
0.0
 40
0.125
  1
800.66.TAGUE
  0
ENDBLK
  5
14E61
  8
0
  0
BLOCK
  8
0
  2
*U132
 70
     1
 10
0.0
 20
0.0
 30
0.0
  3
*U132
  1

  0
TEXT
  5
14E63
  8
0
 10
1.1612344098374301
 20
2.1628857347385511
 30
0.0
 40
0.125
  1
Base Board
  0
TEXT
  5
14E64
  8
0
 10
1.169931544898821
 20
1.9540408052251359
 30
0.0
 40
0.125
  1
TL-543
  0
TEXT
  5
14E65
  8
0
 10
1.1667767017883159
 20
1.743575821141462
 30
0.0
 40
0.125
  1
9/16" x 4-3/16"
  0
TEXT
  5
14E66
  8
0
 10
1.1669472338483431
 20
1.5331108370577871
 30
0.0
 40
0.125
  1
800.66.TAGUE
  0
ENDBLK
  5
14E68
  8
0
  0
BLOCK
  8
0
  2
*U133
 70
     1
 10
0.0
 20
0.0
 30
0.0
  3
*U133
  1

  0
TEXT
  5
14E6A
  8
0
 10
1.038992604214154
 20
2.7540114932149891
 30
0.0
 40
0.125
  1
Base Board
  0
TEXT
  5
14E6B
  8
0
 10
1.0476897392755451
 20
2.545166563701573
 30
0.0
 40
0.125
  1
TL-618
  0
TEXT
  5
14E6C
  8
0
 10
1.0445348961650409
 20
2.3347015796178989
 30
0.0
 40
0.125
  1
9/16" x 5-1/4"
  0
TEXT
  5
14E6D
  8
0
 10
1.0447054282250681
 20
2.1242365955342248
 30
0.0
 40
0.125
  1
800.66.TAGUE
  0
ENDBLK
  5
14E6F
  8
0
  0
BLOCK
  8
0
  2
*U134
 70
     1
 10
0.0
 20
0.0
 30
0.0
  3
*U134
  1

  0
TEXT
  5
14E71
  8
0
 10
1.182401194441109
 20
1.819766214437663
 30
0.0
 40
0.125
  1
Base Board
  0
TEXT
  5
14E72
  8
0
 10
1.1910983295024999
 20
1.610921284924248
 30
0.0
 40
0.125
  1
TL-623
  0
TEXT
  5
14E73
  8
0
 10
1.1879434863919951
 20
1.400456300840573
 30
0.0
 40
0.125
  1
9/16" x 3-1/2"
  0
TEXT
  5
14E74
  8
0
 10
1.188114018452022
 20
1.189991316756899
 30
0.0
 40
0.125
  1
800.66.TAGUE
  0
ENDBLK
  5
14E76
  8
0
  0
BLOCK
  8
0
  2
*U135
 70
     1
 10
0.0
 20
0.0
 30
0.0
  3
*U135
  1

  0
TEXT
  5
14E78
  8
0
 10
1.300654159433843
 20
1.884782119222677
 30
0.0
 40
0.125
  1
Base Board
  0
TEXT
  5
14E79
  8
0
 10
1.309351294495235
 20
1.6759371897092621
 30
0.0
 40
0.125
  1
TL-713
  0
TEXT
  5
14E7A
  8
0
 10
1.30619645138473
 20
1.4654722056255871
 30
0.0
 40
0.125
  1
9/16" x 3-1/4"
  0
TEXT
  5
14E7B
  8
0
 10
1.3063669834447571
 20
1.255007221541913
 30
0.0
 40
0.125
  1
800.66.TAGUE
  0
ENDBLK
  5
14E7D
  8
0
  0
BLOCK
  8
0
  2
*U136
 70
     1
 10
0.0
 20
0.0
 30
0.0
  3
*U136
  1

  0
TEXT
  5
14E7F
  8
0
 10
1.5968605762384229
 20
3.9529851600731258
 30
0.0
 40
0.125
  1
Base Board
  0
TEXT
  5
14E80
  8
0
 10
1.6055577112998141
 20
3.7441402305597111
 30
0.0
 40
0.125
  1
TL-602
  0
TEXT
  5
14E81
  8
0
 10
1.602317602159296
 20
3.5336752464760361
 30
0.0
 40
0.125
  1
3/4" x 9-1/4"
  0
TEXT
  5
14E82
  8
0
 10
1.602573400249337
 20
3.3232102623923621
 30
0.0
 40
0.125
  1
800.66.TAGUE
  0
ENDBLK
  5
14E84
  8
0
  0
BLOCK
  8
0
  2
*U137
 70
     1
 10
0.0
 20
0.0
 30
0.0
  3
*U137
  1

  0
TEXT
  5
14E86
  8
0
 10
1.524246887462577
 20
2.1988362265429942
 30
0.0
 40
0.125
  1
Base Board
  0
TEXT
  5
14E87
  8
0
 10
1.532944022523969
 20
1.989991297029579
 30
0.0
 40
0.125
  1
TL-603
  0
TEXT
  5
14E88
  8
0
 10
1.52970391338345
 20
1.779526312945904
 30
0.0
 40
0.125
  1
3/4" x 4-1/2"
  0
TEXT
  5
14E89
  8
0
 10
1.5299597114734911
 20
1.5690613288622299
 30
0.0
 40
0.125
  1
800.66.TAGUE
  0
ENDBLK
  5
14E8B
  8
0
  0
BLOCK
  8
0
  2
*U138
 70
     1
 10
0.0
 20
0.0
 30
0.0
  3
*U138
  1

  0
TEXT
  5
14E8D
  8
0
 10
1.222563432627662
 20
2.8332029065544471
 30
0.0
 40
0.125
  1
Base Board
  0
TEXT
  5
14E8E
  8
0
 10
1.231260567689054
 20
2.6243579770410319
 30
0.0
 40
0.125
  1
TL-2143
  0
TEXT
  5
14E8F
  8
0
 10
1.228020458548535
 20
2.4138929929573569
 30
0.0
 40
0.125
  1
3/4" x 5-1/4"
  0
TEXT
  5
14E90
  8
0
 10
1.2282762566385761
 20
2.2034280088736828
 30
0.0
 40
0.125
  1
800.66.TAGUE
  0
ENDBLK
  5
14E92
  8
0
  0
BLOCK
  8
0
  2
*U139
 70
     1
 10
0.0
 20
0.0
 30
0.0
  3
*U139
  1

  0
TEXT
  5
14E94
  8
0
 10
1.40527247153032
 20
2.9709364495405448
 30
0.0
 40
0.125
  1
Base Board
  0
TEXT
  5
14E95
  8
0
 10
1.4139696065917109
 20
2.7620915200271301
 30
0.0
 40
0.125
  1
TL-2001
  0
TEXT
  5
14E96
  8
0
 10
1.410729497451193
 20
2.5516265359434551
 30
0.0
 40
0.125
  1
3/4" x 7-1/4"
  0
TEXT
  5
14E97
  8
0
 10
1.4109852955412341
 20
2.341161551859781
 30
0.0
 40
0.125
  1
800.66.TAGUE
  0
ENDBLK
  5
14E99
  8
0
  0
BLOCK
  8
0
  2
*U140
 70
     1
 10
0.0
 20
0.0
 30
0.0
  3
*U140
  1

  0
TEXT
  5
14E9B
  8
0
 10
1.28063331752558
 20
2.7081572525072479
 30
0.0
 40
0.125
  1
Base Board
  0
TEXT
  5
14E9C
  8
0
 10
1.289330452586972
 20
2.4993123229938332
 30
0.0
 40
0.125
  1
TL-2022
  0
TEXT
  5
14E9D
  8
0
 10
1.286090343446453
 20
2.2888473389101591
 30
0.0
 40
0.125
  1
3/4" x 5-1/2"
  0
TEXT
  5
14E9E
  8
0
 10
1.2863461415364941
 20
2.078382354826485
 30
0.0
 40
0.125
  1
800.66.TAGUE
  0
ENDBLK
  5
14EA0
  8
0
  0
BLOCK
  8
0
  2
*U141
 70
     1
 10
0.0
 20
0.0
 30
0.0
  3
*U141
  1

  0
TEXT
  5
14EA2
  8
0
 10
1.3261446082858399
 20
3.4366400904110601
 30
0.0
 40
0.125
  1
Base Board
  0
TEXT
  5
14EA3
  8
0
 10
1.334841743347231
 20
3.227795160897645
 30
0.0
 40
0.125
  1
TL-2153
  0
TEXT
  5
14EA4
  8
0
 10
1.3338185509870679
 20
3.01733017681397
 30
0.0
 40
0.125
  1
27/32" x 7-1/4"
  0
TEXT
  5
14EA5
  8
0
 10
1.331857432296754
 20
2.8068651927302959
 30
0.0
 40
0.125
  1
800.66.TAGUE
  0
ENDBLK
  5
14EA7
  8
0
  0
BLOCK
  8
0
  2
*U142
 70
     1
 10
0.0
 20
0.0
 30
0.0
  3
*U142
  1

  0
TEXT
  5
14EA9
  8
0
 10
1.503489615688391
 20
2.5863204410039771
 30
0.0
 40
0.125
  1
Base Board
  0
TEXT
  5
14EAA
  8
0
 10
1.5121867507497819
 20
2.377475511490561
 30
0.0
 40
0.125
  1
TL-2165
  0
TEXT
  5
14EAB
  8
0
 10
1.5080087152791131
 20
2.1670105274068869
 30
0.0
 40
0.125
  1
7/8" x 6"
  0
TEXT
  5
14EAC
  8
0
 10
1.509202439699304
 20
1.9565455433232131
 30
0.0
 40
0.125
  1
800.66.TAGUE
  0
ENDBLK
  5
14EAE
  8
0
  0
BLOCK
  8
0
  2
*U143
 70
     1
 10
0.0
 20
0.0
 30
0.0
  3
*U143
  1

  0
TEXT
  5
14EB0
  8
0
 10
1.5064754642446401
 20
2.3208047060226131
 30
0.0
 40
0.125
  1
Base Board
  0
TEXT
  5
14EB1
  8
0
 10
1.5151725993060321
 20
2.111959776509198
 30
0.0
 40
0.125
  1
TL-2189
  0
TEXT
  5
14EB2
  8
0
 10
1.511932490165514
 20
1.901494792425523
 30
0.0
 40
0.125
  1
3/4" x 4-7/8"
  0
TEXT
  5
14EB3
  8
0
 10
1.512188288255554
 20
1.6910298083418489
 30
0.0
 40
0.125
  1
800.66.TAGUE
  0
ENDBLK
  5
14EB5
  8
0
  0
BLOCK
  8
0
  2
*U144
 70
     1
 10
0.0
 20
0.0
 30
0.0
  3
*U144
  1

  0
TEXT
  5
14EB7
  8
0
 10
1.548400335642536
 20
1.277467791325875
 30
0.0
 40
0.125
  1
Base Board
  0
TEXT
  5
14EB8
  8
0
 10
1.557097470703928
 20
1.06862286181246
 30
0.0
 40
0.125
  1
TL-550
  0
TEXT
  5
14EB9
  8
0
 10
1.553857361563409
 20
0.858157877728786
 30
0.0
 40
0.125
  1
3/4" x 2-3/16"
  0
TEXT
  5
14EBA
  8
0
 10
1.5541131596534501
 20
0.6476928936451117
 30
0.0
 40
0.125
  1
800.66.TAGUE
  0
ENDBLK
  5
14EBC
  8
0
  0
BLOCK
  8
0
  2
*U145
 70
     1
 10
0.0
 20
0.0
 30
0.0
  3
*U145
  1

  0
TEXT
  5
14EBE
  8
0
 10
1.288066291210707
 20
2.8139586047301459
 30
0.0
 40
0.125
  1
Base Board
  0
TEXT
  5
14EBF
  8
0
 10
1.2967634262720991
 20
2.6051136752167312
 30
0.0
 40
0.125
  1
TL-551
  0
TEXT
  5
14EC0
  8
0
 10
1.2935233171315801
 20
2.3946486911330558
 30
0.0
 40
0.125
  1
3/4" x 5-1/2"
  0
TEXT
  5
14EC1
  8
0
 10
1.2937791152216209
 20
2.1841837070493821
 30
0.0
 40
0.125
  1
800.66.TAGUE
  0
ENDBLK
  5
14EC3
  8
0
  0
BLOCK
  8
0
  2
*U146
 70
     1
 10
0.0
 20
0.0
 30
0.0
  3
*U146
  1

  0
TEXT
  5
14EC5
  8
0
 10
1.8159948421621079
 20
3.2870887232147652
 30
0.0
 40
0.125
  1
Base Board
  0
TEXT
  5
14EC6
  8
0
 10
1.8246919772235
 20
3.07824379370135
 30
0.0
 40
0.125
  1
TL-2231
  0
TEXT
  5
14EC7
  8
0
 10
1.8205139417528311
 20
2.8677788096176751
 30
0.0
 40
0.125
  1
7/8" x 6-3/8"
  0
TEXT
  5
14EC8
  8
0
 10
1.821707666173022
 20
2.657313825534001
 30
0.0
 40
0.125
  1
800.66.TAGUE
  0
ENDBLK
  5
14ECA
  8
0
  0
BLOCK
  8
0
  2
*U147
 70
     1
 10
0.0
 20
0.0
 30
0.0
  3
*U147
  1

  0
TEXT
  5
14ECC
  8
0
 10
1.78408614611963
 20
2.2765211976219462
 30
0.0
 40
0.125
  1
Base Board
  0
TEXT
  5
14ECD
  8
0
 10
1.7927832811810209
 20
2.067676268108531
 30
0.0
 40
0.125
  1
TL-2266
  0
TEXT
  5
14ECE
  8
0
 10
1.7895431720405031
 20
1.857211284024856
 30
0.0
 40
0.125
  1
3/4" x 5-1/2"
  0
TEXT
  5
14ECF
  8
0
 10
1.7897989701305439
 20
1.6467462999411819
 30
0.0
 40
0.125
  1
800.66.TAGUE
  0
ENDBLK
  5
14ED1
  8
0
  0
BLOCK
  8
0
  2
*U148
 70
     1
 10
0.0
 20
0.0
 30
0.0
  3
*U148
  1

  0
TEXT
  5
14ED3
  8
0
 10
1.6156709723986571
 20
2.0615835911685281
 30
0.0
 40
0.125
  1
Base Board
  0
TEXT
  5
14ED4
  8
0
 10
1.624368107460048
 20
1.8527386616551129
 30
0.0
 40
0.125
  1
TL-2284
  0
TEXT
  5
14ED5
  8
0
 10
1.623327861893882
 20
1.6799953692494729
 30
0.0
 40
0.0875
  1
3
  0
LINE
  5
14ED6
  8
0
 10
1.6501550442224879
 20
1.6083195653741871
 30
0.0
 11
1.750530920583921
 21
1.7516711731247601
 31
0.0
  0
TEXT
  5
14ED7
  8
0
 10
1.713374473990289
 20
1.5633287025828071
 30
0.0
 40
0.0875
  1
4
  0
TEXT
  5
14ED8
  8
0
 10
1.7812973934991569
 20
1.592495369249473
 30
0.0
 40
0.125
  1
" x 4"
  0
TEXT
  5
14ED9
  8
0
 10
1.621383796409571
 20
1.4236970518324661
 30
0.0
 40
0.125
  1
800.66.TAGUE
  0
ENDBLK
  5
14EDB
  8
0
  0
BLOCK
  8
0
  2
*U149
 70
     1
 10
0.0
 20
0.0
 30
0.0
  3
*U149
  1

  0
TEXT
  5
14EDD
  8
0
 10
1.985809015314014
 20
3.2420859682381429
 30
0.0
 40
0.125
  1
Base Board
  0
TEXT
  5
14EDE
  8
0
 10
1.9945061503754049
 20
3.0332410387247282
 30
0.0
 40
0.125
  1
TL-2312
  0
TEXT
  5
14EDF
  8
0
 10
1.991266041234887
 20
2.8227760546410532
 30
0.0
 40
0.125
  1
3/4" x 5-1/2"
  0
TEXT
  5
14EE0
  8
0
 10
1.9915218393249281
 20
2.6123110705573791
 30
0.0
 40
0.125
  1
800.66.TAGUE
  0
ENDBLK
  5
14EE2
  8
0
  0
BLOCK
  8
0
  2
*U150
 70
     1
 10
0.0
 20
0.0
 30
0.0
  3
*U150
  1

  0
TEXT
  5
14EE4
  8
0
 10
1.5904625436382209
 20
1.187343171125592
 30
0.0
 40
0.125
  1
Base Cap
  0
TEXT
  5
14EE5
  8
0
 10
1.5991596786996121
 20
0.9784982416121771
 30
0.0
 40
0.125
  1
TL-19
  0
TEXT
  5
14EE6
  8
0
 10
1.595919569559094
 20
0.7680332575285026
 30
0.0
 40
0.125
  1
3/4" x 1-11/16"
  0
TEXT
  5
14EE7
  8
0
 10
1.5961753676491339
 20
0.5575682734448283
 30
0.0
 40
0.125
  1
800.66.TAGUE
  0
ENDBLK
  5
14EE9
  8
0
  0
BLOCK
  8
0
  2
*U151
 70
     1
 10
0.0
 20
0.0
 30
0.0
  3
*U151
  1

  0
TEXT
  5
14EEB
  8
0
 10
1.4253430714126509
 20
0.9125752017053105
 30
0.0
 40
0.125
  1
Base Cap
  0
TEXT
  5
14EEC
  8
0
 10
1.4340402064740421
 20
0.7037302721918956
 30
0.0
 40
0.125
  1
TL-163
  0
TEXT
  5
14EED
  8
0
 10
1.4191186512216549
 20
0.493265288108221
 30
0.0
 40
0.125
  1
11/16" x 1-3/8"
  0
TEXT
  5
14EEE
  8
0
 10
1.431055895423565
 20
0.2828003040245466
 30
0.0
 40
0.125
  1
800.66.TAGUE
  0
ENDBLK
  5
14EF0
  8
0
  0
BLOCK
  8
0
  2
*U152
 70
     1
 10
0.0
 20
0.0
 30
0.0
  3
*U152
  1

  0
TEXT
  5
14EF2
  8
0
 10
1.7853447687182711
 20
1.162173847628553
 30
0.0
 40
0.125
  1
Base Cap
  0
TEXT
  5
14EF3
  8
0
 10
1.794041903779662
 20
0.9533289181151381
 30
0.0
 40
0.125
  1
TL-215
  0
TEXT
  5
14EF4
  8
0
 10
1.789863868308994
 20
0.7428639340314637
 30
0.0
 40
0.125
  1
7/8" x 1-15/16"
  0
TEXT
  5
14EF5
  8
0
 10
1.791057592729185
 20
0.5323989499477893
 30
0.0
 40
0.125
  1
800.66.TAGUE
  0
ENDBLK
  5
14EF7
  8
0
  0
BLOCK
  8
0
  2
*U153
 70
     1
 10
0.0
 20
0.0
 30
0.0
  3
*U153
  1

  0
TEXT
  5
14EF9
  8
0
 10
1.5358763075020461
 20
8.1022165940801347
 30
0.0
 40
0.125
  1
Base Cap
  0
TEXT
  5
14EFA
  8
0
 10
1.5445734425634381
 20
7.89337166456672
 30
0.0
 40
0.125
  1
TL-230
  0
TEXT
  5
14EFB
  8
0
 10
1.540395407092769
 20
7.682906680483045
 30
0.0
 40
0.125
  1
7/8" x 1-15/16"
  0
TEXT
  5
14EFC
  8
0
 10
1.54158913151296
 20
7.4724416963993701
 30
0.0
 40
0.125
  1
800.66.TAGUE
  0
ENDBLK
  5
14EFE
  8
0
  0
BLOCK
  8
0
  2
*U154
 70
     1
 10
0.0
 20
0.0
 30
0.0
  3
*U154
  1

  0
TEXT
  5
14F00
  8
0
 10
1.6109911707451761
 20
1.18025645756599
 30
0.0
 40
0.125
  1
Base Cap
  0
TEXT
  5
14F01
  8
0
 10
1.619688305806567
 20
0.9714115280525753
 30
0.0
 40
0.125
  1
TL-406
  0
TEXT
  5
14F02
  8
0
 10
1.615510270335899
 20
0.7609465439689008
 30
0.0
 40
0.125
  1
7/8" x 1-11/16"
  0
TEXT
  5
14F03
  8
0
 10
1.6167039947560899
 20
0.5504815598852265
 30
0.0
 40
0.125
  1
800.66.TAGUE
  0
ENDBLK
  5
14F05
  8
0
  0
BLOCK
  8
0
  2
*U155
 70
     1
 10
0.0
 20
0.0
 30
0.0
  3
*U155
  1

  0
TEXT
  5
14F07
  8
0
 10
1.322001327344235
 20
1.081186133431872
 30
0.0
 40
0.125
  1
Base Cap
  0
TEXT
  5
14F08
  8
0
 10
1.3306984624056259
 20
0.8723412039184573
 30
0.0
 40
0.125
  1
TL-314
  0
TEXT
  5
14F09
  8
0
 10
1.3274583532651081
 20
0.661876219834783
 30
0.0
 40
0.125
  1
3/4" x 1-3/8"
  0
TEXT
  5
14F0A
  8
0
 10
1.3277141513551489
 20
0.4514112357511085
 30
0.0
 40
0.125
  1
800.66.TAGUE
  0
ENDBLK
  5
14F0C
  8
0
  0
BLOCK
  8
0
  2
*U156
 70
     1
 10
0.0
 20
0.0
 30
0.0
  3
*U156
  1

  0
TEXT
  5
14F0E
  8
0
 10
1.545356558052088
 20
0.8011638535049475
 30
0.0
 40
0.125
  1
Base Cap
  0
TEXT
  5
14F0F
  8
0
 10
1.554053693113479
 20
0.5923189239915323
 30
0.0
 40
0.125
  1
TL-2021
  0
TEXT
  5
14F10
  8
0
 10
1.5498756576428101
 20
0.3818539399078579
 30
0.0
 40
0.125
  1
7/8" x 1"
  0
TEXT
  5
14F11
  8
0
 10
1.551069382063001
 20
0.1713889558241834
 30
0.0
 40
0.125
  1
800.66.TAGUE
  0
ENDBLK
  5
14F13
  8
0
  0
BLOCK
  8
0
  2
*U157
 70
     1
 10
0.0
 20
0.0
 30
0.0
  3
*U157
  1

  0
TEXT
  5
14F15
  8
0
 10
1.849024073205253
 20
1.552839362160755
 30
0.0
 40
0.125
  1
Base Cap
  0
TEXT
  5
14F16
  8
0
 10
1.8577212082666441
 20
1.3439944326473401
 30
0.0
 40
0.125
  1
TL-2025
  0
TEXT
  5
14F17
  8
0
 10
1.842799653014257
 20
1.1335294485636651
 30
0.0
 40
0.125
  1
1-1/4" x 2"
  0
TEXT
  5
14F18
  8
0
 10
1.8547368972161671
 20
0.9230644644799912
 30
0.0
 40
0.125
  1
800.66.TAGUE
  0
ENDBLK
  5
14F1A
  8
0
  0
BLOCK
  8
0
  2
*U158
 70
     1
 10
0.0
 20
0.0
 30
0.0
  3
*U158
  1

  0
TEXT
  5
14F1C
  8
0
 10
1.3718096514217379
 20
1.0633370050964159
 30
0.0
 40
0.125
  1
Base Cap
  0
TEXT
  5
14F1D
  8
0
 10
1.3805067864831291
 20
0.8544920755830013
 30
0.0
 40
0.125
  1
TL-2085
  0
TEXT
  5
14F1E
  8
0
 10
1.377266677342611
 20
0.6440270914993268
 30
0.0
 40
0.125
  1
3/4" x 1-5/16"
  0
TEXT
  5
14F1F
  8
0
 10
1.377522475432652
 20
0.4335621074156525
 30
0.0
 40
0.125
  1
800.66.TAGUE
  0
ENDBLK
  5
14F21
  8
0
  0
BLOCK
  8
0
  2
*U159
 70
     1
 10
0.0
 20
0.0
 30
0.0
  3
*U159
  1

  0
TEXT
  5
14F23
  8
0
 10
1.464885786847087
 20
0.8118267597790396
 30
0.0
 40
0.125
  1
Base Cap
  0
TEXT
  5
14F24
  8
0
 10
1.4735829219084791
 20
0.6029818302656245
 30
0.0
 40
0.125
  1
TL-2147
  0
TEXT
  5
14F25
  8
0
 10
1.4703428127679601
 20
0.39251684618195
 30
0.0
 40
0.125
  1
3/4" x 1-1/4"
  0
TEXT
  5
14F26
  8
0
 10
1.4705986108580009
 20
0.1820518620982756
 30
0.0
 40
0.125
  1
800.66.TAGUE
  0
ENDBLK
  5
14F28
  8
0
  0
BLOCK
  8
0
  2
*U160
 70
     1
 10
0.0
 20
0.0
 30
0.0
  3
*U160
  1

  0
TEXT
  5
14F2A
  8
0
 10
1.771984131257607
 20
0.8092216071741109
 30
0.0
 40
0.125
  1
Base Cap
  0
TEXT
  5
14F2B
  8
0
 10
1.7806812663189979
 20
0.6003766776606958
 30
0.0
 40
0.125
  1
TL-2086
  0
TEXT
  5
14F2C
  8
0
 10
1.7774411571784801
 20
0.3899116935770214
 30
0.0
 40
0.125
  1
3/4" x 1-1/4"
  0
TEXT
  5
14F2D
  8
0
 10
1.7776969552685209
 20
0.179446709493347
 30
0.0
 40
0.125
  1
800.66.TAGUE
  0
ENDBLK
  5
14F2F
  8
0
  0
BLOCK
  8
0
  2
*U161
 70
     1
 10
0.0
 20
0.0
 30
0.0
  3
*U161
  1

  0
TEXT
  5
14F31
  8
0
 10
1.5885997392245299
 20
0.7688960449700222
 30
0.0
 40
0.125
  1
Base Cap
  0
TEXT
  5
14F32
  8
0
 10
1.5972968742859219
 20
0.5600511154566071
 30
0.0
 40
0.125
  1
TL-2140
  0
TEXT
  5
14F33
  8
0
 10
1.5941420311754171
 20
0.3495861313729326
 30
0.0
 40
0.125
  1
5/8" x 1-1/8"
  0
TEXT
  5
14F34
  8
0
 10
1.594312563235444
 20
0.1391211472892582
 30
0.0
 40
0.125
  1
800.66.TAGUE
  0
ENDBLK
  5
14F36
  8
0
  0
BLOCK
  8
0
  2
*U162
 70
     1
 10
0.0
 20
0.0
 30
0.0
  3
*U162
  1

  0
TEXT
  5
14F38
  8
0
 10
1.599800712551807
 20
0.7455601950585038
 30
0.0
 40
0.125
  1
Base Cap
  0
TEXT
  5
14F39
  8
0
 10
1.608497847613199
 20
0.5367152655450888
 30
0.0
 40
0.125
  1
TL-2177
  0
TEXT
  5
14F3A
  8
0
 10
1.593576292360811
 20
0.3262502814614142
 30
0.0
 40
0.125
  1
11/16" x 13/16"
  0
TEXT
  5
14F3B
  8
0
 10
1.6055135365627211
 20
0.1157852973777398
 30
0.0
 40
0.125
  1
800.66.TAGUE
  0
ENDBLK
  5
14F3D
  8
0
  0
BLOCK
  8
0
  2
*U163
 70
     1
 10
0.0
 20
0.0
 30
0.0
  3
*U163
  1

  0
TEXT
  5
14F3F
  8
0
 10
1.409121497152835
 20
1.100665305216368
 30
0.0
 40
0.125
  1
Base Cap
  0
TEXT
  5
14F40
  8
0
 10
1.4178186322142261
 20
0.8918203757029537
 30
0.0
 40
0.125
  1
TL-2223
  0
TEXT
  5
14F41
  8
0
 10
1.4167954398540621
 20
0.6813553916192793
 30
0.0
 40
0.125
  1
23/32" x 1-21/32"
  0
TEXT
  5
14F42
  8
0
 10
1.4148343211637491
 20
0.4708904075356049
 30
0.0
 40
0.125
  1
800.66.TAGUE
  0
ENDBLK
  5
14F44
  8
0
  0
BLOCK
  8
0
  2
*U164
 70
     1
 10
0.0
 20
0.0
 30
0.0
  3
*U164
  1

  0
TEXT
  5
14F46
  8
0
 10
1.5836197280722599
 20
0.9903470469529498
 30
0.0
 40
0.125
  1
Base Cap
  0
TEXT
  5
14F47
  8
0
 10
1.5923168631336519
 20
0.7815021174395347
 30
0.0
 40
0.125
  1
TL-2305
  0
TEXT
  5
14F48
  8
0
 10
1.5881388276629831
 20
0.5710371333558603
 30
0.0
 40
0.125
  1
7/8" x 1-5/8"
  0
TEXT
  5
14F49
  8
0
 10
1.589332552083174
 20
0.3605721492721858
 30
0.0
 40
0.125
  1
800.66.TAGUE
  0
ENDBLK
  5
14F4B
  8
0
  0
BLOCK
  8
0
  2
*U165
 70
     1
 10
0.0
 20
0.0
 30
0.0
  3
*U165
  1

  0
TEXT
  5
14F4D
  8
0
 10
1.6244313742592269
 20
0.7971099757234175
 30
0.0
 40
0.125
  1
Base Cap
  0
TEXT
  5
14F4E
  8
0
 10
1.633128509320618
 20
0.5882650462100023
 30
0.0
 40
0.125
  1
TL-2316
  0
TEXT
  5
14F4F
  8
0
 10
1.6299736662101141
 20
0.3778000621263279
 30
0.0
 40
0.125
  1
9/16" x 1"
  0
TEXT
  5
14F50
  8
0
 10
1.630144198270141
 20
0.1673350780426535
 30
0.0
 40
0.125
  1
800.66.TAGUE
  0
ENDBLK
  5
14F52
  8
0
  0
BLOCK
  8
0
  2
*U166
 70
     1
 10
0.0
 20
0.0
 30
0.0
  3
*U166
  1

  0
TEXT
  5
14F54
  8
0
 10
2.115043862769066
 20
1.229933704569248
 30
0.0
 40
0.125
  1
Bed Moulding
  0
TEXT
  5
14F55
  8
0
 10
2.123740997830458
 20
1.0216003712359141
 30
0.0
 40
0.125
  1
TL-5
  0
TEXT
  5
14F56
  8
0
 10
2.1088194425780711
 20
0.8111353871522405
 30
0.0
 40
0.125
  1
11/16" x 4-1/4"
  0
TEXT
  5
14F57
  8
0
 10
2.1207566867799801
 20
0.6006704030685662
 30
0.0
 40
0.125
  1
800.66.TAGUE
  0
ENDBLK
  5
14F59
  8
0
  0
BLOCK
  8
0
  2
*U167
 70
     1
 10
0.0
 20
0.0
 30
0.0
  3
*U167
  1

  0
TEXT
  5
14F5B
  8
0
 10
1.629515168649714
 20
0.7172567633590461
 30
0.0
 40
0.125
  1
Bed Moulding
  0
TEXT
  5
14F5C
  8
0
 10
1.6382123037111049
 20
0.508411833845631
 30
0.0
 40
0.125
  1
TL-71
  0
TEXT
  5
14F5D
  8
0
 10
1.6350574606006001
 20
0.2979468497619565
 30
0.0
 40
0.125
  1
9/16" x 2-5/8"
  0
TEXT
  5
14F5E
  8
0
 10
1.6352279926606279
 20
0.0874818656782821
 30
0.0
 40
0.125
  1
800.66.TAGUE
  0
ENDBLK
  5
14F60
  8
0
  0
BLOCK
  8
0
  2
*U168
 70
     1
 10
0.0
 20
0.0
 30
0.0
  3
*U168
  1

  0
TEXT
  5
14F62
  8
0
 10
7.9006361773201483
 20
3.2038315196236899
 30
0.0
 40
0.125
  1
Bed Moulding
  0
TEXT
  5
14F63
  8
0
 10
7.9093333123815386
 20
2.9954981862903569
 30
0.0
 40
0.125
  1
TL-75
  0
TEXT
  5
14F64
  8
0
 10
7.9061784692710351
 20
2.7850332022066828
 30
0.0
 40
0.125
  1
9/16" x 1-5/8"
  0
TEXT
  5
14F65
  8
0
 10
7.9063490013310611
 20
2.5745682181230078
 30
0.0
 40
0.125
  1
800.66.TAGUE
  0
ENDBLK
  5
14F67
  8
0
  0
BLOCK
  8
0
  2
*U169
 70
     1
 10
0.0
 20
0.0
 30
0.0
  3
*U169
  1

  0
TEXT
  5
14F69
  8
0
 10
2.2408914082736651
 20
1.3092809657421181
 30
0.0
 40
0.125
  1
Bed Moulding
  0
TEXT
  5
14F6A
  8
0
 10
2.2495885433350562
 20
1.1004360362287029
 30
0.0
 40
0.125
  1
TL-2029
  0
TEXT
  5
14F6B
  8
0
 10
2.2346669880826688
 20
0.8899710521450289
 30
0.0
 40
0.125
  1
1-5/16" x 5-1/2"
  0
TEXT
  5
14F6C
  8
0
 10
2.2466042322845792
 20
0.6795060680613546
 30
0.0
 40
0.125
  1
800.66.TAGUE
  0
ENDBLK
  5
14F6E
  8
0
  0
BLOCK
  8
0
  2
*U170
 70
     1
 10
0.0
 20
0.0
 30
0.0
  3
*U170
  1

  0
TEXT
  5
14F70
  8
0
 10
-384.47275173832003
 20
840.14910085344786
 30
0.0
 40
0.125
  1
Bed Moulding
  0
TEXT
  5
14F71
  8
0
 10
-384.4640546032586
 20
839.94025592393461
 30
0.0
 40
0.125
  1
TL-2029
  0
TEXT
  5
14F72
  8
0
 10
-384.47897615851099
 20
839.72979093985077
 30
0.0
 40
0.125
  1
1-5/16" x 5-1/2"
  0
TEXT
  5
14F73
  8
0
 10
-384.467038914309
 20
839.51932595576716
 30
0.0
 40
0.125
  1
800.66.TAGUE
  0
ENDBLK
  5
14F75
  8
0
  0
ENDSEC
  0
SECTION
  2
ENTITIES
  0
INSERT
  5
14C9E
  8
0
  2
*U170
 10
0.0
 20
0.0
 30
0.0
  0
LINE
  5
14C9F
  8
0
 10
-384.10621019555867
 20
843.34470590889964
 30
0.0
 11
-386.7136446948391
 21
840.23707234906828
 31
0.0
  0
LINE
  5
14CA0
  8
0
 10
-384.8226083911797
 20
840.66297228600536
 30
0.0
 11
-384.78633535733132
 21
841.18814416593136
 31
0.0
  0
LINE
  5
14CA1
  8
0
 10
-386.7136446948391
 20
840.23707234906828
 30
0.0
 11
-386.7136446948391
 21
838.83981907246255
 31
0.0
  0
LINE
  5
14CA2
  8
0
 10
-383.51160602303003
 20
843.34470590889964
 30
0.0
 11
-384.10621019555867
 21
843.34470590889964
 31
0.0
  0
LINE
  5
14CA3
  8
0
 10
-386.20762059845362
 20
838.83981907246255
 30
0.0
 11
-386.7136446948391
 21
838.83981907246255
 31
0.0
  0
POLYLINE
  8
0
  5
14F76
  66
     1
 10
0.000000
 20
0.000000
 30
0.000000
  70
     8
  0
VERTEX
  8
0
  5
14F77
 10
-384.786
 20
841.188
 30
0.000000
  70
    32
  0
VERTEX
  8
0
  5
14F78
 10
-384.775
 20
841.190
 30
0.000000
  70
    32
  0
VERTEX
  8
0
  5
14F79
 10
-384.764
 20
841.191
 30
0.000000
  70
    32
  0
VERTEX
  8
0
  5
14F7A
 10
-384.753
 20
841.193
 30
0.000000
  70
    32
  0
VERTEX
  8
0
  5
14F7B
 10
-384.742
 20
841.194
 30
0.000000
  70
    32
  0
VERTEX
  8
0
  5
14F7C
 10
-384.731
 20
841.196
 30
0.000000
  70
    32
  0
VERTEX
  8
0
  5
14F7D
 10
-384.720
 20
841.198
 30
0.000000
  70
    32
  0
VERTEX
  8
0
  5
14F7E
 10
-384.709
 20
841.200
 30
0.000000
  70
    32
  0
VERTEX
  8
0
  5
14F7F
 10
-384.698
 20
841.202
 30
0.000000
  70
    32
  0
VERTEX
  8
0
  5
14F80
 10
-384.687
 20
841.204
 30
0.000000
  70
    32
  0
VERTEX
  8
0
  5
14F81
 10
-384.676
 20
841.206
 30
0.000000
  70
    32
  0
VERTEX
  8
0
  5
14F82
 10
-384.665
 20
841.208
 30
0.000000
  70
    32
  0
VERTEX
  8
0
  5
14F83
 10
-384.654
 20
841.211
 30
0.000000
  70
    32
  0
VERTEX
  8
0
  5
14F84
 10
-384.643
 20
841.213
 30
0.000000
  70
    32
  0
VERTEX
  8
0
  5
14F85
 10
-384.632
 20
841.216
 30
0.000000
  70
    32
  0
VERTEX
  8
0
  5
14F86
 10
-384.621
 20
841.218
 30
0.000000
  70
    32
  0
VERTEX
  8
0
  5
14F87
 10
-384.611
 20
841.221
 30
0.000000
  70
    32
  0
VERTEX
  8
0
  5
14F88
 10
-384.600
 20
841.224
 30
0.000000
  70
    32
  0
VERTEX
  8
0
  5
14F89
 10
-384.589
 20
841.226
 30
0.000000
  70
    32
  0
VERTEX
  8
0
  5
14F8A
 10
-384.578
 20
841.229
 30
0.000000
  70
    32
  0
VERTEX
  8
0
  5
14F8B
 10
-384.567
 20
841.232
 30
0.000000
  70
    32
  0
VERTEX
  8
0
  5
14F8C
 10
-384.556
 20
841.236
 30
0.000000
  70
    32
  0
VERTEX
  8
0
  5
14F8D
 10
-384.546
 20
841.239
 30
0.000000
  70
    32
  0
VERTEX
  8
0
  5
14F8E
 10
-384.535
 20
841.242
 30
0.000000
  70
    32
  0
VERTEX
  8
0
  5
14F8F
 10
-384.524
 20
841.245
 30
0.000000
  70
    32
  0
VERTEX
  8
0
  5
14F90
 10
-384.514
 20
841.249
 30
0.000000
  70
    32
  0
VERTEX
  8
0
  5
14F91
 10
-384.503
 20
841.252
 30
0.000000
  70
    32
  0
VERTEX
  8
0
  5
14F92
 10
-384.492
 20
841.256
 30
0.000000
  70
    32
  0
VERTEX
  8
0
  5
14F93
 10
-384.482
 20
841.260
 30
0.000000
  70
    32
  0
VERTEX
  8
0
  5
14F94
 10
-384.471
 20
841.264
 30
0.000000
  70
    32
  0
VERTEX
  8
0
  5
14F95
 10
-384.461
 20
841.268
 30
0.000000
  70
    32
  0
VERTEX
  8
0
  5
14F96
 10
-384.450
 20
841.271
 30
0.000000
  70
    32
  0
VERTEX
  8
0
  5
14F97
 10
-384.440
 20
841.276
 30
0.000000
  70
    32
  0
VERTEX
  8
0
  5
14F98
 10
-384.429
 20
841.280
 30
0.000000
  70
    32
  0
VERTEX
  8
0
  5
14F99
 10
-384.419
 20
841.284
 30
0.000000
  70
    32
  0
VERTEX
  8
0
  5
14F9A
 10
-384.409
 20
841.288
 30
0.000000
  70
    32
  0
VERTEX
  8
0
  5
14F9B
 10
-384.398
 20
841.293
 30
0.000000
  70
    32
  0
VERTEX
  8
0
  5
14F9C
 10
-384.388
 20
841.297
 30
0.000000
  70
    32
  0
VERTEX
  8
0
  5
14F9D
 10
-384.378
 20
841.302
 30
0.000000
  70
    32
  0
VERTEX
  8
0
  5
14F9E
 10
-384.368
 20
841.306
 30
0.000000
  70
    32
  0
VERTEX
  8
0
  5
14F9F
 10
-384.357
 20
841.311
 30
0.000000
  70
    32
  0
VERTEX
  8
0
  5
14FA0
 10
-384.347
 20
841.316
 30
0.000000
  70
    32
  0
VERTEX
  8
0
  5
14FA1
 10
-384.337
 20
841.321
 30
0.000000
  70
    32
  0
VERTEX
  8
0
  5
14FA2
 10
-384.327
 20
841.326
 30
0.000000
  70
    32
  0
VERTEX
  8
0
  5
14FA3
 10
-384.317
 20
841.331
 30
0.000000
  70
    32
  0
VERTEX
  8
0
  5
14FA4
 10
-384.307
 20
841.336
 30
0.000000
  70
    32
  0
VERTEX
  8
0
  5
14FA5
 10
-384.297
 20
841.341
 30
0.000000
  70
    32
  0
VERTEX
  8
0
  5
14FA6
 10
-384.287
 20
841.346
 30
0.000000
  70
    32
  0
VERTEX
  8
0
  5
14FA7
 10
-384.278
 20
841.352
 30
0.000000
  70
    32
  0
VERTEX
  8
0
  5
14FA8
 10
-384.268
 20
841.357
 30
0.000000
  70
    32
  0
VERTEX
  8
0
  5
14FA9
 10
-384.258
 20
841.363
 30
0.000000
  70
    32
  0
VERTEX
  8
0
  5
14FAA
 10
-384.248
 20
841.368
 30
0.000000
  70
    32
  0
VERTEX
  8
0
  5
14FAB
 10
-384.239
 20
841.374
 30
0.000000
  70
    32
  0
VERTEX
  8
0
  5
14FAC
 10
-384.229
 20
841.380
 30
0.000000
  70
    32
  0
VERTEX
  8
0
  5
14FAD
 10
-384.220
 20
841.386
 30
0.000000
  70
    32
  0
VERTEX
  8
0
  5
14FAE
 10
-384.210
 20
841.392
 30
0.000000
  70
    32
  0
VERTEX
  8
0
  5
14FAF
 10
-384.201
 20
841.398
 30
0.000000
  70
    32
  0
VERTEX
  8
0
  5
14FB0
 10
-384.191
 20
841.404
 30
0.000000
  70
    32
  0
VERTEX
  8
0
  5
14FB1
 10
-384.182
 20
841.410
 30
0.000000
  70
    32
  0
VERTEX
  8
0
  5
14FB2
 10
-384.173
 20
841.416
 30
0.000000
  70
    32
  0
VERTEX
  8
0
  5
14FB3
 10
-384.163
 20
841.422
 30
0.000000
  70
    32
  0
VERTEX
  8
0
  5
14FB4
 10
-384.154
 20
841.429
 30
0.000000
  70
    32
  0
VERTEX
  8
0
  5
14FB5
 10
-384.145
 20
841.435
 30
0.000000
  70
    32
  0
VERTEX
  8
0
  5
14FB6
 10
-384.136
 20
841.442
 30
0.000000
  70
    32
  0
VERTEX
  8
0
  5
14FB7
 10
-384.127
 20
841.448
 30
0.000000
  70
    32
  0
VERTEX
  8
0
  5
14FB8
 10
-384.118
 20
841.455
 30
0.000000
  70
    32
  0
VERTEX
  8
0
  5
14FB9
 10
-384.109
 20
841.461
 30
0.000000
  70
    32
  0
VERTEX
  8
0
  5
14FBA
 10
-384.100
 20
841.468
 30
0.000000
  70
    32
  0
VERTEX
  8
0
  5
14FBB
 10
-384.091
 20
841.475
 30
0.000000
  70
    32
  0
VERTEX
  8
0
  5
14FBC
 10
-384.082
 20
841.482
 30
0.000000
  70
    32
  0
VERTEX
  8
0
  5
14FBD
 10
-384.073
 20
841.489
 30
0.000000
  70
    32
  0
VERTEX
  8
0
  5
14FBE
 10
-384.064
 20
841.496
 30
0.000000
  70
    32
  0
VERTEX
  8
0
  5
14FBF
 10
-384.056
 20
841.503
 30
0.000000
  70
    32
  0
VERTEX
  8
0
  5
14FC0
 10
-384.047
 20
841.510
 30
0.000000
  70
    32
  0
VERTEX
  8
0
  5
14FC1
 10
-384.038
 20
841.517
 30
0.000000
  70
    32
  0
VERTEX
  8
0
  5
14FC2
 10
-384.030
 20
841.525
 30
0.000000
  70
    32
  0
VERTEX
  8
0
  5
14FC3
 10
-384.021
 20
841.532
 30
0.000000
  70
    32
  0
VERTEX
  8
0
  5
14FC4
 10
-384.013
 20
841.539
 30
0.000000
  70
    32
  0
VERTEX
  8
0
  5
14FC5
 10
-384.004
 20
841.547
 30
0.000000
  70
    32
  0
VERTEX
  8
0
  5
14FC6
 10
-383.996
 20
841.554
 30
0.000000
  70
    32
  0
VERTEX
  8
0
  5
14FC7
 10
-383.988
 20
841.562
 30
0.000000
  70
    32
  0
VERTEX
  8
0
  5
14FC8
 10
-383.979
 20
841.569
 30
0.000000
  70
    32
  0
VERTEX
  8
0
  5
14FC9
 10
-383.971
 20
841.577
 30
0.000000
  70
    32
  0
VERTEX
  8
0
  5
14FCA
 10
-383.963
 20
841.585
 30
0.000000
  70
    32
  0
VERTEX
  8
0
  5
14FCB
 10
-383.955
 20
841.592
 30
0.000000
  70
    32
  0
VERTEX
  8
0
  5
14FCC
 10
-383.947
 20
841.600
 30
0.000000
  70
    32
  0
VERTEX
  8
0
  5
14FCD
 10
-383.939
 20
841.608
 30
0.000000
  70
    32
  0
VERTEX
  8
0
  5
14FCE
 10
-383.931
 20
841.616
 30
0.000000
  70
    32
  0
VERTEX
  8
0
  5
14FCF
 10
-383.923
 20
841.624
 30
0.000000
  70
    32
  0
VERTEX
  8
0
  5
14FD0
 10
-383.915
 20
841.632
 30
0.000000
  70
    32
  0
VERTEX
  8
0
  5
14FD1
 10
-383.907
 20
841.640
 30
0.000000
  70
    32
  0
VERTEX
  8
0
  5
14FD2
 10
-383.899
 20
841.648
 30
0.000000
  70
    32
  0
VERTEX
  8
0
  5
14FD3
 10
-383.891
 20
841.657
 30
0.000000
  70
    32
  0
VERTEX
  8
0
  5
14FD4
 10
-383.884
 20
841.665
 30
0.000000
  70
    32
  0
VERTEX
  8
0
  5
14FD5
 10
-383.876
 20
841.673
 30
0.000000
  70
    32
  0
VERTEX
  8
0
  5
14FD6
 10
-383.869
 20
841.681
 30
0.000000
  70
    32
  0
VERTEX
  8
0
  5
14FD7
 10
-383.861
 20
841.690
 30
0.000000
  70
    32
  0
VERTEX
  8
0
  5
14FD8
 10
-383.854
 20
841.698
 30
0.000000
  70
    32
  0
VERTEX
  8
0
  5
14FD9
 10
-383.846
 20
841.707
 30
0.000000
  70
    32
  0
VERTEX
  8
0
  5
14FDA
 10
-383.839
 20
841.715
 30
0.000000
  70
    32
  0
VERTEX
  8
0
  5
14FDB
 10
-383.831
 20
841.724
 30
0.000000
  70
    32
  0
VERTEX
  8
0
  5
14FDC
 10
-383.824
 20
841.732
 30
0.000000
  70
    32
  0
VERTEX
  8
0
  5
14FDD
 10
-383.817
 20
841.741
 30
0.000000
  70
    32
  0
VERTEX
  8
0
  5
14FDE
 10
-383.810
 20
841.749
 30
0.000000
  70
    32
  0
VERTEX
  8
0
  5
14FDF
 10
-383.802
 20
841.758
 30
0.000000
  70
    32
  0
VERTEX
  8
0
  5
14FE0
 10
-383.795
 20
841.767
 30
0.000000
  70
    32
  0
VERTEX
  8
0
  5
14FE1
 10
-383.788
 20
841.776
 30
0.000000
  70
    32
  0
VERTEX
  8
0
  5
14FE2
 10
-383.781
 20
841.784
 30
0.000000
  70
    32
  0
VERTEX
  8
0
  5
14FE3
 10
-383.774
 20
841.793
 30
0.000000
  70
    32
  0
VERTEX
  8
0
  5
14FE4
 10
-383.768
 20
841.802
 30
0.000000
  70
    32
  0
VERTEX
  8
0
  5
14FE5
 10
-383.761
 20
841.811
 30
0.000000
  70
    32
  0
VERTEX
  8
0
  5
14FE6
 10
-383.754
 20
841.820
 30
0.000000
  70
    32
  0
VERTEX
  8
0
  5
14FE7
 10
-383.747
 20
841.829
 30
0.000000
  70
    32
  0
VERTEX
  8
0
  5
14FE8
 10
-383.741
 20
841.838
 30
0.000000
  70
    32
  0
VERTEX
  8
0
  5
14FE9
 10
-383.734
 20
841.847
 30
0.000000
  70
    32
  0
VERTEX
  8
0
  5
14FEA
 10
-383.727
 20
841.856
 30
0.000000
  70
    32
  0
VERTEX
  8
0
  5
14FEB
 10
-383.721
 20
841.865
 30
0.000000
  70
    32
  0
VERTEX
  8
0
  5
14FEC
 10
-383.714
 20
841.875
 30
0.000000
  70
    32
  0
VERTEX
  8
0
  5
14FED
 10
-383.708
 20
841.884
 30
0.000000
  70
    32
  0
VERTEX
  8
0
  5
14FEE
 10
-383.702
 20
841.893
 30
0.000000
  70
    32
  0
VERTEX
  8
0
  5
14FEF
 10
-383.695
 20
841.902
 30
0.000000
  70
    32
  0
VERTEX
  8
0
  5
14FF0
 10
-383.689
 20
841.912
 30
0.000000
  70
    32
  0
VERTEX
  8
0
  5
14FF1
 10
-383.683
 20
841.921
 30
0.000000
  70
    32
  0
VERTEX
  8
0
  5
14FF2
 10
-383.677
 20
841.930
 30
0.000000
  70
    32
  0
VERTEX
  8
0
  5
14FF3
 10
-383.671
 20
841.940
 30
0.000000
  70
    32
  0
VERTEX
  8
0
  5
14FF4
 10
-383.665
 20
841.949
 30
0.000000
  70
    32
  0
VERTEX
  8
0
  5
14FF5
 10
-383.659
 20
841.959
 30
0.000000
  70
    32
  0
VERTEX
  8
0
  5
14FF6
 10
-383.653
 20
841.968
 30
0.000000
  70
    32
  0
VERTEX
  8
0
  5
14FF7
 10
-383.647
 20
841.978
 30
0.000000
  70
    32
  0
VERTEX
  8
0
  5
14FF8
 10
-383.641
 20
841.987
 30
0.000000
  70
    32
  0
VERTEX
  8
0
  5
14FF9
 10
-383.636
 20
841.997
 30
0.000000
  70
    32
  0
VERTEX
  8
0
  5
14FFA
 10
-383.630
 20
842.007
 30
0.000000
  70
    32
  0
VERTEX
  8
0
  5
14FFB
 10
-383.624
 20
842.016
 30
0.000000
  70
    32
  0
VERTEX
  8
0
  5
14FFC
 10
-383.619
 20
842.026
 30
0.000000
  70
    32
  0
VERTEX
  8
0
  5
14FFD
 10
-383.613
 20
842.036
 30
0.000000
  70
    32
  0
VERTEX
  8
0
  5
14FFE
 10
-383.608
 20
842.046
 30
0.000000
  70
    32
  0
VERTEX
  8
0
  5
14FFF
 10
-383.603
 20
842.056
 30
0.000000
  70
    32
  0
VERTEX
  8
0
  5
15000
 10
-383.597
 20
842.065
 30
0.000000
  70
    32
  0
VERTEX
  8
0
  5
15001
 10
-383.592
 20
842.075
 30
0.000000
  70
    32
  0
VERTEX
  8
0
  5
15002
 10
-383.587
 20
842.085
 30
0.000000
  70
    32
  0
VERTEX
  8
0
  5
15003
 10
-383.582
 20
842.095
 30
0.000000
  70
    32
  0
VERTEX
  8
0
  5
15004
 10
-383.577
 20
842.105
 30
0.000000
  70
    32
  0
VERTEX
  8
0
  5
15005
 10
-383.572
 20
842.115
 30
0.000000
  70
    32
  0
VERTEX
  8
0
  5
15006
 10
-383.567
 20
842.125
 30
0.000000
  70
    32
  0
VERTEX
  8
0
  5
15007
 10
-383.562
 20
842.135
 30
0.000000
  70
    32
  0
VERTEX
  8
0
  5
15008
 10
-383.558
 20
842.146
 30
0.000000
  70
    32
  0
VERTEX
  8
0
  5
15009
 10
-383.553
 20
842.156
 30
0.000000
  70
    32
  0
VERTEX
  8
0
  5
1500A
 10
-383.548
 20
842.166
 30
0.000000
  70
    32
  0
VERTEX
  8
0
  5
1500B
 10
-383.544
 20
842.176
 30
0.000000
  70
    32
  0
VERTEX
  8
0
  5
1500C
 10
-383.539
 20
842.186
 30
0.000000
  70
    32
  0
VERTEX
  8
0
  5
1500D
 10
-383.535
 20
842.197
 30
0.000000
  70
    32
  0
VERTEX
  8
0
  5
1500E
 10
-383.531
 20
842.207
 30
0.000000
  70
    32
  0
VERTEX
  8
0
  5
1500F
 10
-383.526
 20
842.217
 30
0.000000
  70
    32
  0
VERTEX
  8
0
  5
15010
 10
-383.522
 20
842.228
 30
0.000000
  70
    32
  0
VERTEX
  8
0
  5
15011
 10
-383.518
 20
842.238
 30
0.000000
  70
    32
  0
VERTEX
  8
0
  5
15012
 10
-383.514
 20
842.249
 30
0.000000
  70
    32
  0
VERTEX
  8
0
  5
15013
 10
-383.510
 20
842.259
 30
0.000000
  70
    32
  0
VERTEX
  8
0
  5
15014
 10
-383.506
 20
842.270
 30
0.000000
  70
    32
  0
VERTEX
  8
0
  5
15015
 10
-383.502
 20
842.280
 30
0.000000
  70
    32
  0
VERTEX
  8
0
  5
15016
 10
-383.498
 20
842.291
 30
0.000000
  70
    32
  0
VERTEX
  8
0
  5
15017
 10
-383.495
 20
842.301
 30
0.000000
  70
    32
  0
VERTEX
  8
0
  5
15018
 10
-383.491
 20
842.312
 30
0.000000
  70
    32
  0
VERTEX
  8
0
  5
15019
 10
-383.487
 20
842.323
 30
0.000000
  70
    32
  0
VERTEX
  8
0
  5
1501A
 10
-383.484
 20
842.333
 30
0.000000
  70
    32
  0
VERTEX
  8
0
  5
1501B
 10
-383.480
 20
842.344
 30
0.000000
  70
    32
  0
VERTEX
  8
0
  5
1501C
 10
-383.477
 20
842.355
 30
0.000000
  70
    32
  0
VERTEX
  8
0
  5
1501D
 10
-383.474
 20
842.366
 30
0.000000
  70
    32
  0
VERTEX
  8
0
  5
1501E
 10
-383.471
 20
842.376
 30
0.000000
  70
    32
  0
VERTEX
  8
0
  5
1501F
 10
-383.467
 20
842.387
 30
0.000000
  70
    32
  0
VERTEX
  8
0
  5
15020
 10
-383.464
 20
842.398
 30
0.000000
  70
    32
  0
VERTEX
  8
0
  5
15021
 10
-383.461
 20
842.409
 30
0.000000
  70
    32
  0
VERTEX
  8
0
  5
15022
 10
-383.459
 20
842.420
 30
0.000000
  70
    32
  0
VERTEX
  8
0
  5
15023
 10
-383.456
 20
842.431
 30
0.000000
  70
    32
  0
VERTEX
  8
0
  5
15024
 10
-383.453
 20
842.442
 30
0.000000
  70
    32
  0
VERTEX
  8
0
  5
15025
 10
-383.450
 20
842.453
 30
0.000000
  70
    32
  0
VERTEX
  8
0
  5
15026
 10
-383.448
 20
842.464
 30
0.000000
  70
    32
  0
VERTEX
  8
0
  5
15027
 10
-383.445
 20
842.475
 30
0.000000
  70
    32
  0
VERTEX
  8
0
  5
15028
 10
-383.443
 20
842.486
 30
0.000000
  70
    32
  0
VERTEX
  8
0
  5
15029
 10
-383.440
 20
842.497
 30
0.000000
  70
    32
  0
VERTEX
  8
0
  5
1502A
 10
-383.438
 20
842.508
 30
0.000000
  70
    32
  0
VERTEX
  8
0
  5
1502B
 10
-383.436
 20
842.519
 30
0.000000
  70
    32
  0
VERTEX
  8
0
  5
1502C
 10
-383.434
 20
842.530
 30
0.000000
  70
    32
  0
VERTEX
  8
0
  5
1502D
 10
-383.432
 20
842.541
 30
0.000000
  70
    32
  0
VERTEX
  8
0
  5
1502E
 10
-383.430
 20
842.552
 30
0.000000
  70
    32
  0
VERTEX
  8
0
  5
1502F
 10
-383.428
 20
842.563
 30
0.000000
  70
    32
  0
VERTEX
  8
0
  5
15030
 10
-383.426
 20
842.574
 30
0.000000
  70
    32
  0
VERTEX
  8
0
  5
15031
 10
-383.425
 20
842.585
 30
0.000000
  70
    32
  0
VERTEX
  8
0
  5
15032
 10
-383.423
 20
842.597
 30
0.000000
  70
    32
  0
VERTEX
  8
0
  5
15033
 10
-383.421
 20
842.608
 30
0.000000
  70
    32
  0
VERTEX
  8
0
  5
15034
 10
-383.420
 20
842.619
 30
0.000000
  70
    32
  0
VERTEX
  8
0
  5
15035
 10
-383.419
 20
842.630
 30
0.000000
  70
    32
  0
VERTEX
  8
0
  5
15036
 10
-383.417
 20
842.641
 30
0.000000
  70
    32
  0
VERTEX
  8
0
  5
15037
 10
-383.416
 20
842.652
 30
0.000000
  70
    32
  0
VERTEX
  8
0
  5
15038
 10
-383.415
 20
842.664
 30
0.000000
  70
    32
  0
VERTEX
  8
0
  5
15039
 10
-383.414
 20
842.675
 30
0.000000
  70
    32
  0
VERTEX
  8
0
  5
1503A
 10
-383.413
 20
842.686
 30
0.000000
  70
    32
  0
VERTEX
  8
0
  5
1503B
 10
-383.412
 20
842.697
 30
0.000000
  70
    32
  0
VERTEX
  8
0
  5
1503C
 10
-383.412
 20
842.708
 30
0.000000
  70
    32
  0
VERTEX
  8
0
  5
1503D
 10
-383.411
 20
842.720
 30
0.000000
  70
    32
  0
VERTEX
  8
0
  5
1503E
 10
-383.411
 20
842.731
 30
0.000000
  70
    32
  0
VERTEX
  8
0
  5
1503F
 10
-383.410
 20
842.742
 30
0.000000
  70
    32
  0
VERTEX
  8
0
  5
15040
 10
-383.410
 20
842.753
 30
0.000000
  70
    32
  0
VERTEX
  8
0
  5
15041
 10
-383.409
 20
842.765
 30
0.000000
  70
    32
  0
VERTEX
  8
0
  5
15042
 10
-383.409
 20
842.776
 30
0.000000
  70
    32
  0
VERTEX
  8
0
  5
15043
 10
-383.409
 20
842.787
 30
0.000000
  70
    32
  0
VERTEX
  8
0
  5
15044
 10
-383.409
 20
842.798
 30
0.000000
  70
    32
  0
VERTEX
  8
0
  5
15045
 10
-383.409
 20
842.809
 30
0.000000
  70
    32
  0
VERTEX
  8
0
  5
15046
 10
-383.410
 20
842.821
 30
0.000000
  70
    32
  0
VERTEX
  8
0
  5
15047
 10
-383.410
 20
842.832
 30
0.000000
  70
    32
  0
VERTEX
  8
0
  5
15048
 10
-383.410
 20
842.843
 30
0.000000
  70
    32
  0
VERTEX
  8
0
  5
15049
 10
-383.411
 20
842.854
 30
0.000000
  70
    32
  0
VERTEX
  8
0
  5
1504A
 10
-383.411
 20
842.865
 30
0.000000
  70
    32
  0
VERTEX
  8
0
  5
1504B
 10
-383.412
 20
842.876
 30
0.000000
  70
    32
  0
VERTEX
  8
0
  5
1504C
 10
-383.413
 20
842.888
 30
0.000000
  70
    32
  0
VERTEX
  8
0
  5
1504D
 10
-383.414
 20
842.899
 30
0.000000
  70
    32
  0
VERTEX
  8
0
  5
1504E
 10
-383.415
 20
842.910
 30
0.000000
  70
    32
  0
VERTEX
  8
0
  5
1504F
 10
-383.416
 20
842.921
 30
0.000000
  70
    32
  0
VERTEX
  8
0
  5
15050
 10
-383.417
 20
842.932
 30
0.000000
  70
    32
  0
VERTEX
  8
0
  5
15051
 10
-383.418
 20
842.943
 30
0.000000
  70
    32
  0
VERTEX
  8
0
  5
15052
 10
-383.420
 20
842.954
 30
0.000000
  70
    32
  0
VERTEX
  8
0
  5
15053
 10
-383.421
 20
842.965
 30
0.000000
  70
    32
  0
VERTEX
  8
0
  5
15054
 10
-383.423
 20
842.976
 30
0.000000
  70
    32
  0
VERTEX
  8
0
  5
15055
 10
-383.424
 20
842.987
 30
0.000000
  70
    32
  0
VERTEX
  8
0
  5
15056
 10
-383.426
 20
842.998
 30
0.000000
  70
    32
  0
VERTEX
  8
0
  5
15057
 10
-383.428
 20
843.009
 30
0.000000
  70
    32
  0
VERTEX
  8
0
  5
15058
 10
-383.430
 20
843.020
 30
0.000000
  70
    32
  0
VERTEX
  8
0
  5
15059
 10
-383.432
 20
843.031
 30
0.000000
  70
    32
  0
VERTEX
  8
0
  5
1505A
 10
-383.434
 20
843.042
 30
0.000000
  70
    32
  0
VERTEX
  8
0
  5
1505B
 10
-383.436
 20
843.053
 30
0.000000
  70
    32
  0
VERTEX
  8
0
  5
1505C
 10
-383.438
 20
843.064
 30
0.000000
  70
    32
  0
VERTEX
  8
0
  5
1505D
 10
-383.441
 20
843.075
 30
0.000000
  70
    32
  0
VERTEX
  8
0
  5
1505E
 10
-383.443
 20
843.086
 30
0.000000
  70
    32
  0
VERTEX
  8
0
  5
1505F
 10
-383.445
 20
843.097
 30
0.000000
  70
    32
  0
VERTEX
  8
0
  5
15060
 10
-383.448
 20
843.107
 30
0.000000
  70
    32
  0
VERTEX
  8
0
  5
15061
 10
-383.450
 20
843.118
 30
0.000000
  70
    32
  0
VERTEX
  8
0
  5
15062
 10
-383.453
 20
843.129
 30
0.000000
  70
    32
  0
VERTEX
  8
0
  5
15063
 10
-383.456
 20
843.140
 30
0.000000
  70
    32
  0
VERTEX
  8
0
  5
15064
 10
-383.458
 20
843.151
 30
0.000000
  70
    32
  0
VERTEX
  8
0
  5
15065
 10
-383.461
 20
843.162
 30
0.000000
  70
    32
  0
VERTEX
  8
0
  5
15066
 10
-383.464
 20
843.172
 30
0.000000
  70
    32
  0
VERTEX
  8
0
  5
15067
 10
-383.467
 20
843.183
 30
0.000000
  70
    32
  0
VERTEX
  8
0
  5
15068
 10
-383.470
 20
843.194
 30
0.000000
  70
    32
  0
VERTEX
  8
0
  5
15069
 10
-383.473
 20
843.205
 30
0.000000
  70
    32
  0
VERTEX
  8
0
  5
1506A
 10
-383.475
 20
843.216
 30
0.000000
  70
    32
  0
VERTEX
  8
0
  5
1506B
 10
-383.478
 20
843.226
 30
0.000000
  70
    32
  0
VERTEX
  8
0
  5
1506C
 10
-383.481
 20
843.237
 30
0.000000
  70
    32
  0
VERTEX
  8
0
  5
1506D
 10
-383.484
 20
843.248
 30
0.000000
  70
    32
  0
VERTEX
  8
0
  5
1506E
 10
-383.487
 20
843.259
 30
0.000000
  70
    32
  0
VERTEX
  8
0
  5
1506F
 10
-383.490
 20
843.270
 30
0.000000
  70
    32
  0
VERTEX
  8
0
  5
15070
 10
-383.493
 20
843.280
 30
0.000000
  70
    32
  0
VERTEX
  8
0
  5
15071
 10
-383.496
 20
843.291
 30
0.000000
  70
    32
  0
VERTEX
  8
0
  5
15072
 10
-383.500
 20
843.302
 30
0.000000
  70
    32
  0
VERTEX
  8
0
  5
15073
 10
-383.503
 20
843.312
 30
0.000000
  70
    32
  0
VERTEX
  8
0
  5
15074
 10
-383.506
 20
843.323
 30
0.000000
  70
    32
  0
VERTEX
  8
0
  5
15075
 10
-383.509
 20
843.334
 30
0.000000
  70
    32
  0
VERTEX
  8
0
  5
15076
 10
-383.512
 20
843.345
 30
0.000000
  70
    32
  0
SEQEND
  8
0
  5
15077
  0
POLYLINE
  8
0
  5
15078
  66
     1
 10
0.000000
 20
0.000000
 30
0.000000
  70
     8
  0
VERTEX
  8
0
  5
15079
 10
-384.823
 20
840.663
 30
0.000000
  70
    32
  0
VERTEX
  8
0
  5
1507A
 10
-384.834
 20
840.663
 30
0.000000
  70
    32
  0
VERTEX
  8
0
  5
1507B
 10
-384.846
 20
840.662
 30
0.000000
  70
    32
  0
VERTEX
  8
0
  5
1507C
 10
-384.857
 20
840.662
 30
0.000000
  70
    32
  0
VERTEX
  8
0
  5
1507D
 10
-384.869
 20
840.661
 30
0.000000
  70
    32
  0
VERTEX
  8
0
  5
1507E
 10
-384.880
 20
840.661
 30
0.000000
  70
    32
  0
VERTEX
  8
0
  5
1507F
 10
-384.892
 20
840.660
 30
0.000000
  70
    32
  0
VERTEX
  8
0
  5
15080
 10
-384.903
 20
840.659
 30
0.000000
  70
    32
  0
VERTEX
  8
0
  5
15081
 10
-384.915
 20
840.658
 30
0.000000
  70
    32
  0
VERTEX
  8
0
  5
15082
 10
-384.927
 20
840.658
 30
0.000000
  70
    32
  0
VERTEX
  8
0
  5
15083
 10
-384.938
 20
840.657
 30
0.000000
  70
    32
  0
VERTEX
  8
0
  5
15084
 10
-384.950
 20
840.656
 30
0.000000
  70
    32
  0
VERTEX
  8
0
  5
15085
 10
-384.961
 20
840.654
 30
0.000000
  70
    32
  0
VERTEX
  8
0
  5
15086
 10
-384.973
 20
840.653
 30
0.000000
  70
    32
  0
VERTEX
  8
0
  5
15087
 10
-384.984
 20
840.652
 30
0.000000
  70
    32
  0
VERTEX
  8
0
  5
15088
 10
-384.996
 20
840.651
 30
0.000000
  70
    32
  0
VERTEX
  8
0
  5
15089
 10
-385.008
 20
840.649
 30
0.000000
  70
    32
  0
VERTEX
  8
0
  5
1508A
 10
-385.019
 20
840.648
 30
0.000000
  70
    32
  0
VERTEX
  8
0
  5
1508B
 10
-385.031
 20
840.646
 30
0.000000
  70
    32
  0
VERTEX
  8
0
  5
1508C
 10
-385.042
 20
840.644
 30
0.000000
  70
    32
  0
VERTEX
  8
0
  5
1508D
 10
-385.054
 20
840.643
 30
0.000000
  70
    32
  0
VERTEX
  8
0
  5
1508E
 10
-385.065
 20
840.641
 30
0.000000
  70
    32
  0
VERTEX
  8
0
  5
1508F
 10
-385.077
 20
840.639
 30
0.000000
  70
    32
  0
VERTEX
  8
0
  5
15090
 10
-385.088
 20
840.637
 30
0.000000
  70
    32
  0
VERTEX
  8
0
  5
15091
 10
-385.100
 20
840.635
 30
0.000000
  70
    32
  0
VERTEX
  8
0
  5
15092
 10
-385.111
 20
840.632
 30
0.000000
  70
    32
  0
VERTEX
  8
0
  5
15093
 10
-385.123
 20
840.630
 30
0.000000
  70
    32
  0
VERTEX
  8
0
  5
15094
 10
-385.134
 20
840.628
 30
0.000000
  70
    32
  0
VERTEX
  8
0
  5
15095
 10
-385.146
 20
840.625
 30
0.000000
  70
    32
  0
VERTEX
  8
0
  5
15096
 10
-385.157
 20
840.623
 30
0.000000
  70
    32
  0
VERTEX
  8
0
  5
15097
 10
-385.168
 20
840.620
 30
0.000000
  70
    32
  0
VERTEX
  8
0
  5
15098
 10
-385.180
 20
840.617
 30
0.000000
  70
    32
  0
VERTEX
  8
0
  5
15099
 10
-385.191
 20
840.614
 30
0.000000
  70
    32
  0
VERTEX
  8
0
  5
1509A
 10
-385.202
 20
840.611
 30
0.000000
  70
    32
  0
VERTEX
  8
0
  5
1509B
 10
-385.213
 20
840.608
 30
0.000000
  70
    32
  0
VERTEX
  8
0
  5
1509C
 10
-385.224
 20
840.605
 30
0.000000
  70
    32
  0
VERTEX
  8
0
  5
1509D
 10
-385.236
 20
840.602
 30
0.000000
  70
    32
  0
VERTEX
  8
0
  5
1509E
 10
-385.247
 20
840.599
 30
0.000000
  70
    32
  0
VERTEX
  8
0
  5
1509F
 10
-385.258
 20
840.595
 30
0.000000
  70
    32
  0
VERTEX
  8
0
  5
150A0
 10
-385.269
 20
840.592
 30
0.000000
  70
    32
  0
VERTEX
  8
0
  5
150A1
 10
-385.280
 20
840.588
 30
0.000000
  70
    32
  0
VERTEX
  8
0
  5
150A2
 10
-385.291
 20
840.584
 30
0.000000
  70
    32
  0
VERTEX
  8
0
  5
150A3
 10
-385.302
 20
840.580
 30
0.000000
  70
    32
  0
VERTEX
  8
0
  5
150A4
 10
-385.312
 20
840.576
 30
0.000000
  70
    32
  0
VERTEX
  8
0
  5
150A5
 10
-385.323
 20
840.572
 30
0.000000
  70
    32
  0
VERTEX
  8
0
  5
150A6
 10
-385.334
 20
840.568
 30
0.000000
  70
    32
  0
VERTEX
  8
0
  5
150A7
 10
-385.345
 20
840.564
 30
0.000000
  70
    32
  0
VERTEX
  8
0
  5
150A8
 10
-385.355
 20
840.559
 30
0.000000
  70
    32
  0
VERTEX
  8
0
  5
150A9
 10
-385.366
 20
840.555
 30
0.000000
  70
    32
  0
VERTEX
  8
0
  5
150AA
 10
-385.376
 20
840.550
 30
0.000000
  70
    32
  0
VERTEX
  8
0
  5
150AB
 10
-385.387
 20
840.545
 30
0.000000
  70
    32
  0
VERTEX
  8
0
  5
150AC
 10
-385.397
 20
840.540
 30
0.000000
  70
    32
  0
VERTEX
  8
0
  5
150AD
 10
-385.408
 20
840.535
 30
0.000000
  70
    32
  0
VERTEX
  8
0
  5
150AE
 10
-385.418
 20
840.530
 30
0.000000
  70
    32
  0
VERTEX
  8
0
  5
150AF
 10
-385.428
 20
840.525
 30
0.000000
  70
    32
  0
VERTEX
  8
0
  5
150B0
 10
-385.438
 20
840.519
 30
0.000000
  70
    32
  0
VERTEX
  8
0
  5
150B1
 10
-385.448
 20
840.514
 30
0.000000
  70
    32
  0
VERTEX
  8
0
  5
150B2
 10
-385.458
 20
840.508
 30
0.000000
  70
    32
  0
VERTEX
  8
0
  5
150B3
 10
-385.468
 20
840.503
 30
0.000000
  70
    32
  0
VERTEX
  8
0
  5
150B4
 10
-385.478
 20
840.497
 30
0.000000
  70
    32
  0
VERTEX
  8
0
  5
150B5
 10
-385.488
 20
840.491
 30
0.000000
  70
    32
  0
VERTEX
  8
0
  5
150B6
 10
-385.497
 20
840.485
 30
0.000000
  70
    32
  0
VERTEX
  8
0
  5
150B7
 10
-385.507
 20
840.479
 30
0.000000
  70
    32
  0
VERTEX
  8
0
  5
150B8
 10
-385.517
 20
840.472
 30
0.000000
  70
    32
  0
VERTEX
  8
0
  5
150B9
 10
-385.526
 20
840.466
 30
0.000000
  70
    32
  0
VERTEX
  8
0
  5
150BA
 10
-385.536
 20
840.459
 30
0.000000
  70
    32
  0
VERTEX
  8
0
  5
150BB
 10
-385.545
 20
840.453
 30
0.000000
  70
    32
  0
VERTEX
  8
0
  5
150BC
 10
-385.554
 20
840.446
 30
0.000000
  70
    32
  0
VERTEX
  8
0
  5
150BD
 10
-385.564
 20
840.439
 30
0.000000
  70
    32
  0
VERTEX
  8
0
  5
150BE
 10
-385.573
 20
840.432
 30
0.000000
  70
    32
  0
VERTEX
  8
0
  5
150BF
 10
-385.582
 20
840.425
 30
0.000000
  70
    32
  0
VERTEX
  8
0
  5
150C0
 10
-385.591
 20
840.418
 30
0.000000
  70
    32
  0
VERTEX
  8
0
  5
150C1
 10
-385.600
 20
840.411
 30
0.000000
  70
    32
  0
VERTEX
  8
0
  5
150C2
 10
-385.609
 20
840.404
 30
0.000000
  70
    32
  0
VERTEX
  8
0
  5
150C3
 10
-385.617
 20
840.396
 30
0.000000
  70
    32
  0
VERTEX
  8
0
  5
150C4
 10
-385.626
 20
840.389
 30
0.000000
  70
    32
  0
VERTEX
  8
0
  5
150C5
 10
-385.635
 20
840.381
 30
0.000000
  70
    32
  0
VERTEX
  8
0
  5
150C6
 10
-385.644
 20
840.373
 30
0.000000
  70
    32
  0
VERTEX
  8
0
  5
150C7
 10
-385.652
 20
840.366
 30
0.000000
  70
    32
  0
VERTEX
  8
0
  5
150C8
 10
-385.661
 20
840.358
 30
0.000000
  70
    32
  0
VERTEX
  8
0
  5
150C9
 10
-385.669
 20
840.350
 30
0.000000
  70
    32
  0
VERTEX
  8
0
  5
150CA
 10
-385.677
 20
840.342
 30
0.000000
  70
    32
  0
VERTEX
  8
0
  5
150CB
 10
-385.686
 20
840.334
 30
0.000000
  70
    32
  0
VERTEX
  8
0
  5
150CC
 10
-385.694
 20
840.325
 30
0.000000
  70
    32
  0
VERTEX
  8
0
  5
150CD
 10
-385.702
 20
840.317
 30
0.000000
  70
    32
  0
VERTEX
  8
0
  5
150CE
 10
-385.710
 20
840.309
 30
0.000000
  70
    32
  0
VERTEX
  8
0
  5
150CF
 10
-385.718
 20
840.300
 30
0.000000
  70
    32
  0
VERTEX
  8
0
  5
150D0
 10
-385.726
 20
840.292
 30
0.000000
  70
    32
  0
VERTEX
  8
0
  5
150D1
 10
-385.734
 20
840.283
 30
0.000000
  70
    32
  0
VERTEX
  8
0
  5
150D2
 10
-385.742
 20
840.275
 30
0.000000
  70
    32
  0
VERTEX
  8
0
  5
150D3
 10
-385.750
 20
840.266
 30
0.000000
  70
    32
  0
VERTEX
  8
0
  5
150D4
 10
-385.758
 20
840.257
 30
0.000000
  70
    32
  0
VERTEX
  8
0
  5
150D5
 10
-385.765
 20
840.249
 30
0.000000
  70
    32
  0
VERTEX
  8
0
  5
150D6
 10
-385.773
 20
840.240
 30
0.000000
  70
    32
  0
VERTEX
  8
0
  5
150D7
 10
-385.780
 20
840.231
 30
0.000000
  70
    32
  0
VERTEX
  8
0
  5
150D8
 10
-385.788
 20
840.222
 30
0.000000
  70
    32
  0
VERTEX
  8
0
  5
150D9
 10
-385.795
 20
840.213
 30
0.000000
  70
    32
  0
VERTEX
  8
0
  5
150DA
 10
-385.803
 20
840.204
 30
0.000000
  70
    32
  0
VERTEX
  8
0
  5
150DB
 10
-385.810
 20
840.195
 30
0.000000
  70
    32
  0
VERTEX
  8
0
  5
150DC
 10
-385.817
 20
840.185
 30
0.000000
  70
    32
  0
VERTEX
  8
0
  5
150DD
 10
-385.824
 20
840.176
 30
0.000000
  70
    32
  0
VERTEX
  8
0
  5
150DE
 10
-385.831
 20
840.167
 30
0.000000
  70
    32
  0
VERTEX
  8
0
  5
150DF
 10
-385.838
 20
840.157
 30
0.000000
  70
    32
  0
VERTEX
  8
0
  5
150E0
 10
-385.845
 20
840.148
 30
0.000000
  70
    32
  0
VERTEX
  8
0
  5
150E1
 10
-385.852
 20
840.139
 30
0.000000
  70
    32
  0
VERTEX
  8
0
  5
150E2
 10
-385.859
 20
840.129
 30
0.000000
  70
    32
  0
VERTEX
  8
0
  5
150E3
 10
-385.866
 20
840.120
 30
0.000000
  70
    32
  0
VERTEX
  8
0
  5
150E4
 10
-385.873
 20
840.110
 30
0.000000
  70
    32
  0
VERTEX
  8
0
  5
150E5
 10
-385.879
 20
840.100
 30
0.000000
  70
    32
  0
VERTEX
  8
0
  5
150E6
 10
-385.886
 20
840.091
 30
0.000000
  70
    32
  0
VERTEX
  8
0
  5
150E7
 10
-385.892
 20
840.081
 30
0.000000
  70
    32
  0
VERTEX
  8
0
  5
150E8
 10
-385.899
 20
840.071
 30
0.000000
  70
    32
  0
VERTEX
  8
0
  5
150E9
 10
-385.905
 20
840.062
 30
0.000000
  70
    32
  0
VERTEX
  8
0
  5
150EA
 10
-385.912
 20
840.052
 30
0.000000
  70
    32
  0
VERTEX
  8
0
  5
150EB
 10
-385.918
 20
840.042
 30
0.000000
  70
    32
  0
VERTEX
  8
0
  5
150EC
 10
-385.924
 20
840.032
 30
0.000000
  70
    32
  0
VERTEX
  8
0
  5
150ED
 10
-385.930
 20
840.022
 30
0.000000
  70
    32
  0
VERTEX
  8
0
  5
150EE
 10
-385.937
 20
840.013
 30
0.000000
  70
    32
  0
VERTEX
  8
0
  5
150EF
 10
-385.943
 20
840.003
 30
0.000000
  70
    32
  0
VERTEX
  8
0
  5
150F0
 10
-385.949
 20
839.993
 30
0.000000
  70
    32
  0
VERTEX
  8
0
  5
150F1
 10
-385.954
 20
839.983
 30
0.000000
  70
    32
  0
VERTEX
  8
0
  5
150F2
 10
-385.960
 20
839.973
 30
0.000000
  70
    32
  0
VERTEX
  8
0
  5
150F3
 10
-385.966
 20
839.963
 30
0.000000
  70
    32
  0
VERTEX
  8
0
  5
150F4
 10
-385.972
 20
839.952
 30
0.000000
  70
    32
  0
VERTEX
  8
0
  5
150F5
 10
-385.977
 20
839.942
 30
0.000000
  70
    32
  0
VERTEX
  8
0
  5
150F6
 10
-385.983
 20
839.932
 30
0.000000
  70
    32
  0
VERTEX
  8
0
  5
150F7
 10
-385.989
 20
839.922
 30
0.000000
  70
    32
  0
VERTEX
  8
0
  5
150F8
 10
-385.994
 20
839.912
 30
0.000000
  70
    32
  0
VERTEX
  8
0
  5
150F9
 10
-385.999
 20
839.902
 30
0.000000
  70
    32
  0
VERTEX
  8
0
  5
150FA
 10
-386.005
 20
839.891
 30
0.000000
  70
    32
  0
VERTEX
  8
0
  5
150FB
 10
-386.010
 20
839.881
 30
0.000000
  70
    32
  0
VERTEX
  8
0
  5
150FC
 10
-386.015
 20
839.871
 30
0.000000
  70
    32
  0
VERTEX
  8
0
  5
150FD
 10
-386.020
 20
839.860
 30
0.000000
  70
    32
  0
VERTEX
  8
0
  5
150FE
 10
-386.025
 20
839.850
 30
0.000000
  70
    32
  0
VERTEX
  8
0
  5
150FF
 10
-386.030
 20
839.839
 30
0.000000
  70
    32
  0
VERTEX
  8
0
  5
15100
 10
-386.035
 20
839.829
 30
0.000000
  70
    32
  0
VERTEX
  8
0
  5
15101
 10
-386.040
 20
839.818
 30
0.000000
  70
    32
  0
VERTEX
  8
0
  5
15102
 10
-386.045
 20
839.808
 30
0.000000
  70
    32
  0
VERTEX
  8
0
  5
15103
 10
-386.049
 20
839.797
 30
0.000000
  70
    32
  0
VERTEX
  8
0
  5
15104
 10
-386.054
 20
839.787
 30
0.000000
  70
    32
  0
VERTEX
  8
0
  5
15105
 10
-386.058
 20
839.776
 30
0.000000
  70
    32
  0
VERTEX
  8
0
  5
15106
 10
-386.063
 20
839.766
 30
0.000000
  70
    32
  0
VERTEX
  8
0
  5
15107
 10
-386.067
 20
839.755
 30
0.000000
  70
    32
  0
VERTEX
  8
0
  5
15108
 10
-386.071
 20
839.744
 30
0.000000
  70
    32
  0
VERTEX
  8
0
  5
15109
 10
-386.076
 20
839.734
 30
0.000000
  70
    32
  0
VERTEX
  8
0
  5
1510A
 10
-386.080
 20
839.723
 30
0.000000
  70
    32
  0
VERTEX
  8
0
  5
1510B
 10
-386.084
 20
839.712
 30
0.000000
  70
    32
  0
VERTEX
  8
0
  5
1510C
 10
-386.088
 20
839.701
 30
0.000000
  70
    32
  0
VERTEX
  8
0
  5
1510D
 10
-386.092
 20
839.691
 30
0.000000
  70
    32
  0
VERTEX
  8
0
  5
1510E
 10
-386.095
 20
839.680
 30
0.000000
  70
    32
  0
VERTEX
  8
0
  5
1510F
 10
-386.099
 20
839.669
 30
0.000000
  70
    32
  0
VERTEX
  8
0
  5
15110
 10
-386.103
 20
839.658
 30
0.000000
  70
    32
  0
VERTEX
  8
0
  5
15111
 10
-386.106
 20
839.647
 30
0.000000
  70
    32
  0
VERTEX
  8
0
  5
15112
 10
-386.110
 20
839.636
 30
0.000000
  70
    32
  0
VERTEX
  8
0
  5
15113
 10
-386.113
 20
839.625
 30
0.000000
  70
    32
  0
VERTEX
  8
0
  5
15114
 10
-386.117
 20
839.614
 30
0.000000
  70
    32
  0
VERTEX
  8
0
  5
15115
 10
-386.120
 20
839.604
 30
0.000000
  70
    32
  0
VERTEX
  8
0
  5
15116
 10
-386.123
 20
839.593
 30
0.000000
  70
    32
  0
VERTEX
  8
0
  5
15117
 10
-386.126
 20
839.582
 30
0.000000
  70
    32
  0
VERTEX
  8
0
  5
15118
 10
-386.129
 20
839.570
 30
0.000000
  70
    32
  0
VERTEX
  8
0
  5
15119
 10
-386.132
 20
839.559
 30
0.000000
  70
    32
  0
VERTEX
  8
0
  5
1511A
 10
-386.135
 20
839.548
 30
0.000000
  70
    32
  0
VERTEX
  8
0
  5
1511B
 10
-386.138
 20
839.537
 30
0.000000
  70
    32
  0
VERTEX
  8
0
  5
1511C
 10
-386.140
 20
839.526
 30
0.000000
  70
    32
  0
VERTEX
  8
0
  5
1511D
 10
-386.143
 20
839.515
 30
0.000000
  70
    32
  0
VERTEX
  8
0
  5
1511E
 10
-386.145
 20
839.504
 30
0.000000
  70
    32
  0
VERTEX
  8
0
  5
1511F
 10
-386.148
 20
839.493
 30
0.000000
  70
    32
  0
VERTEX
  8
0
  5
15120
 10
-386.150
 20
839.481
 30
0.000000
  70
    32
  0
VERTEX
  8
0
  5
15121
 10
-386.152
 20
839.470
 30
0.000000
  70
    32
  0
VERTEX
  8
0
  5
15122
 10
-386.154
 20
839.459
 30
0.000000
  70
    32
  0
VERTEX
  8
0
  5
15123
 10
-386.157
 20
839.448
 30
0.000000
  70
    32
  0
VERTEX
  8
0
  5
15124
 10
-386.159
 20
839.436
 30
0.000000
  70
    32
  0
VERTEX
  8
0
  5
15125
 10
-386.161
 20
839.425
 30
0.000000
  70
    32
  0
VERTEX
  8
0
  5
15126
 10
-386.163
 20
839.414
 30
0.000000
  70
    32
  0
VERTEX
  8
0
  5
15127
 10
-386.164
 20
839.403
 30
0.000000
  70
    32
  0
VERTEX
  8
0
  5
15128
 10
-386.166
 20
839.391
 30
0.000000
  70
    32
  0
VERTEX
  8
0
  5
15129
 10
-386.168
 20
839.380
 30
0.000000
  70
    32
  0
VERTEX
  8
0
  5
1512A
 10
-386.170
 20
839.369
 30
0.000000
  70
    32
  0
VERTEX
  8
0
  5
1512B
 10
-386.171
 20
839.357
 30
0.000000
  70
    32
  0
VERTEX
  8
0
  5
1512C
 10
-386.173
 20
839.346
 30
0.000000
  70
    32
  0
VERTEX
  8
0
  5
1512D
 10
-386.174
 20
839.334
 30
0.000000
  70
    32
  0
VERTEX
  8
0
  5
1512E
 10
-386.176
 20
839.323
 30
0.000000
  70
    32
  0
VERTEX
  8
0
  5
1512F
 10
-386.177
 20
839.312
 30
0.000000
  70
    32
  0
VERTEX
  8
0
  5
15130
 10
-386.178
 20
839.300
 30
0.000000
  70
    32
  0
VERTEX
  8
0
  5
15131
 10
-386.180
 20
839.289
 30
0.000000
  70
    32
  0
VERTEX
  8
0
  5
15132
 10
-386.181
 20
839.277
 30
0.000000
  70
    32
  0
VERTEX
  8
0
  5
15133
 10
-386.182
 20
839.266
 30
0.000000
  70
    32
  0
VERTEX
  8
0
  5
15134
 10
-386.183
 20
839.254
 30
0.000000
  70
    32
  0
VERTEX
  8
0
  5
15135
 10
-386.184
 20
839.243
 30
0.000000
  70
    32
  0
VERTEX
  8
0
  5
15136
 10
-386.185
 20
839.231
 30
0.000000
  70
    32
  0
VERTEX
  8
0
  5
15137
 10
-386.186
 20
839.220
 30
0.000000
  70
    32
  0
VERTEX
  8
0
  5
15138
 10
-386.187
 20
839.209
 30
0.000000
  70
    32
  0
VERTEX
  8
0
  5
15139
 10
-386.188
 20
839.197
 30
0.000000
  70
    32
  0
VERTEX
  8
0
  5
1513A
 10
-386.189
 20
839.186
 30
0.000000
  70
    32
  0
VERTEX
  8
0
  5
1513B
 10
-386.190
 20
839.174
 30
0.000000
  70
    32
  0
VERTEX
  8
0
  5
1513C
 10
-386.191
 20
839.162
 30
0.000000
  70
    32
  0
VERTEX
  8
0
  5
1513D
 10
-386.192
 20
839.151
 30
0.000000
  70
    32
  0
VERTEX
  8
0
  5
1513E
 10
-386.193
 20
839.139
 30
0.000000
  70
    32
  0
VERTEX
  8
0
  5
1513F
 10
-386.193
 20
839.128
 30
0.000000
  70
    32
  0
VERTEX
  8
0
  5
15140
 10
-386.194
 20
839.116
 30
0.000000
  70
    32
  0
VERTEX
  8
0
  5
15141
 10
-386.195
 20
839.105
 30
0.000000
  70
    32
  0
VERTEX
  8
0
  5
15142
 10
-386.195
 20
839.093
 30
0.000000
  70
    32
  0
VERTEX
  8
0
  5
15143
 10
-386.196
 20
839.082
 30
0.000000
  70
    32
  0
VERTEX
  8
0
  5
15144
 10
-386.197
 20
839.070
 30
0.000000
  70
    32
  0
VERTEX
  8
0
  5
15145
 10
-386.197
 20
839.059
 30
0.000000
  70
    32
  0
VERTEX
  8
0
  5
15146
 10
-386.198
 20
839.047
 30
0.000000
  70
    32
  0
VERTEX
  8
0
  5
15147
 10
-386.199
 20
839.036
 30
0.000000
  70
    32
  0
VERTEX
  8
0
  5
15148
 10
-386.199
 20
839.024
 30
0.000000
  70
    32
  0
VERTEX
  8
0
  5
15149
 10
-386.200
 20
839.013
 30
0.000000
  70
    32
  0
VERTEX
  8
0
  5
1514A
 10
-386.200
 20
839.001
 30
0.000000
  70
    32
  0
VERTEX
  8
0
  5
1514B
 10
-386.201
 20
838.989
 30
0.000000
  70
    32
  0
VERTEX
  8
0
  5
1514C
 10
-386.201
 20
838.978
 30
0.000000
  70
    32
  0
VERTEX
  8
0
  5
1514D
 10
-386.202
 20
838.966
 30
0.000000
  70
    32
  0
VERTEX
  8
0
  5
1514E
 10
-386.202
 20
838.955
 30
0.000000
  70
    32
  0
VERTEX
  8
0
  5
1514F
 10
-386.203
 20
838.943
 30
0.000000
  70
    32
  0
VERTEX
  8
0
  5
15150
 10
-386.203
 20
838.932
 30
0.000000
  70
    32
  0
VERTEX
  8
0
  5
15151
 10
-386.204
 20
838.920
 30
0.000000
  70
    32
  0
VERTEX
  8
0
  5
15152
 10
-386.204
 20
838.909
 30
0.000000
  70
    32
  0
VERTEX
  8
0
  5
15153
 10
-386.205
 20
838.897
 30
0.000000
  70
    32
  0
VERTEX
  8
0
  5
15154
 10
-386.205
 20
838.886
 30
0.000000
  70
    32
  0
VERTEX
  8
0
  5
15155
 10
-386.206
 20
838.874
 30
0.000000
  70
    32
  0
VERTEX
  8
0
  5
15156
 10
-386.207
 20
838.863
 30
0.000000
  70
    32
  0
VERTEX
  8
0
  5
15157
 10
-386.207
 20
838.851
 30
0.000000
  70
    32
  0
VERTEX
  8
0
  5
15158
 10
-386.208
 20
838.840
 30
0.000000
  70
    32
  0
SEQEND
  8
0
  5
15159
  0
VIEWPORT
  5
BADA
 67
     1
  8
0
 10
5.249999665167536
 20
4.016860864854312
 30
0.0
 40
16.259362384438411
 41
8.0158201110956853
 68
     1
 69
     1
1001
ACAD
1000
MVIEW
1002
{
1070
    16
1010
0.0
1020
0.0
1030
0.0
1010
0.0
1020
0.0
1030
1.0
1040
0.0
1040
8.0158201110956853
1040
5.249999665167536
1040
4.016860864854312
1040
50.0
1040
0.0
1040
0.0
1070
     0
1070
   100
1070
     1
1070
     1
1070
     0
1070
     0
1070
     0
1070
     0
1040
0.0
1040
0.0
1040
0.0
1040
0.5
1040
0.5
1040
0.5
1040
0.5
1070
     0
1002
{
1002
}
1002
}
  0
VIEWPORT
  5
BADD
 67
     1
  8
0
 10
5.2499996294871929
 20
4.0166741807634683
 30
0.0
 40
10.44245679893058
 41
7.8813805131999892
 68
     2
 69
     2
1001
ACAD
1000
MVIEW
1002
{
1070
    16
1010
0.0
1020
0.0
1030
0.0
1010
0.0
1020
0.0
1030
1.0
1040
0.0
1040
7.881380554489561
1040
-384.62367872171802
1040
840.84682156222414
1040
50.0
1040
0.0
1040
0.0
1070
     0
1070
   100
1070
     1
1070
     2
1070
     0
1070
     0
1070
     0
1070
     0
1040
0.0
1040
0.0
1040
0.0
1040
0.5
1040
0.5
1040
0.5
1040
0.5
1070
     0
1002
{
1002
}
1002
}
  0
ENDSEC
  0
EOF
