  0
SECTION
  2
HEADER
  9
$ACADVER
  1
AC1009
  9
$INSBASE
 10
0.0
 20
0.0
 30
0.0
  9
$EXTMIN
 10
-388.0615153254812
 20
836.71254254735538
 30
-0.0015258207003583
  9
$EXTMAX
 10
-380.16507039324972
 20
854.92308910391705
 30
0.0000000349246037
  9
$LIMMIN
 10
0.0
 20
0.0
  9
$LIMMAX
 10
1500.0
 20
1500.0
  9
$ORTHOMODE
 70
     0
  9
$REGENMODE
 70
     1
  9
$FILLMODE
 70
     1
  9
$QTEXTMODE
 70
     0
  9
$MIRRTEXT
 70
     1
  9
$DRAGMODE
 70
     2
  9
$LTSCALE
 40
1.0
  9
$OSMODE
 70
    37
  9
$ATTMODE
 70
     1
  9
$TEXTSIZE
 40
1.5
  9
$TRACEWID
 40
0.05
  9
$TEXTSTYLE
  7
STANDARD
  9
$CLAYER
  8
0
  9
$CELTYPE
  6
BYLAYER
  9
$CECOLOR
 62
   256
  9
$DIMSCALE
 40
1.0
  9
$DIMASZ
 40
0.75
  9
$DIMEXO
 40
1.5
  9
$DIMDLI
 40
2.0
  9
$DIMRND
 40
0.0
  9
$DIMDLE
 40
0.0
  9
$DIMEXE
 40
1.0
  9
$DIMTP
 40
0.0
  9
$DIMTM
 40
0.0
  9
$DIMTXT
 40
1.5
  9
$DIMCEN
 40
2.0
  9
$DIMTSZ
 40
0.0
  9
$DIMTOL
 70
     0
  9
$DIMLIM
 70
     0
  9
$DIMTIH
 70
     0
  9
$DIMTOH
 70
     0
  9
$DIMSE1
 70
     0
  9
$DIMSE2
 70
     0
  9
$DIMTAD
 70
     1
  9
$DIMZIN
 70
     0
  9
$DIMBLK
  1
ARCHTICK
  9
$DIMASO
 70
     1
  9
$DIMSHO
 70
     1
  9
$DIMPOST
  1
"
  9
$DIMAPOST
  1

  9
$DIMALT
 70
     0
  9
$DIMALTD
 70
     2
  9
$DIMALTF
 40
25.399999999999999
  9
$DIMLFAC
 40
1.0
  9
$DIMTOFL
 70
     0
  9
$DIMTVP
 40
0.0
  9
$DIMTIX
 70
     1
  9
$DIMSOXD
 70
     0
  9
$DIMSAH
 70
     0
  9
$DIMBLK1
  1

  9
$DIMBLK2
  1

  9
$DIMSTYLE
  2
THREE_QUARTER_INCH_SCALE
  9
$DIMCLRD
 70
     0
  9
$DIMCLRE
 70
     0
  9
$DIMCLRT
 70
     0
  9
$DIMTFAC
 40
1.0
  9
$DIMGAP
 40
1.0
  9
$LUNITS
 70
     2
  9
$LUPREC
 70
     4
  9
$SKETCHINC
 40
0.1
  9
$FILLETRAD
 40
0.0
  9
$AUNITS
 70
     0
  9
$AUPREC
 70
     0
  9
$MENU
  1
.
  9
$ELEVATION
 40
0.0
  9
$PELEVATION
 40
0.0
  9
$THICKNESS
 40
0.0
  9
$LIMCHECK
 70
     0
  9
$BLIPMODE
 70
     0
  9
$CHAMFERA
 40
0.5
  9
$CHAMFERB
 40
0.5
  9
$SKPOLY
 70
     0
  9
$TDCREATE
 40
2452089.395738773
  9
$TDUPDATE
 40
2453607.402987014
  9
$TDINDWG
 40
1.0823181366000001
  9
$TDUSRTIMER
 40
1.0823181366000001
  9
$USRTIMER
 70
     1
  9
$ANGBASE
 50
0.0
  9
$ANGDIR
 70
     0
  9
$PDMODE
 70
     0
  9
$PDSIZE
 40
10.0
  9
$PLINEWID
 40
0.0
  9
$COORDS
 70
     1
  9
$SPLFRAME
 70
     0
  9
$SPLINETYPE
 70
     6
  9
$SPLINESEGS
 70
     8
  9
$ATTDIA
 70
     0
  9
$ATTREQ
 70
     1
  9
$HANDLING
 70
     1
  9
$HANDSEED
  5
12D0D
  9
$SURFTAB1
 70
     6
  9
$SURFTAB2
 70
     6
  9
$SURFTYPE
 70
     6
  9
$SURFU
 70
     6
  9
$SURFV
 70
     6
  9
$UCSNAME
  2

  9
$UCSORG
 10
0.0
 20
0.0
 30
0.0
  9
$UCSXDIR
 10
1.0
 20
0.0
 30
0.0
  9
$UCSYDIR
 10
0.0
 20
1.0
 30
0.0
  9
$PUCSNAME
  2

  9
$PUCSORG
 10
0.0
 20
0.0
 30
0.0
  9
$PUCSXDIR
 10
1.0
 20
0.0
 30
0.0
  9
$PUCSYDIR
 10
0.0
 20
1.0
 30
0.0
  9
$USERI1
 70
     0
  9
$USERI2
 70
     0
  9
$USERI3
 70
     0
  9
$USERI4
 70
     0
  9
$USERI5
 70
     0
  9
$USERR1
 40
0.0
  9
$USERR2
 40
0.0
  9
$USERR3
 40
0.0
  9
$USERR4
 40
0.0
  9
$USERR5
 40
0.0
  9
$WORLDVIEW
 70
     1
  9
$SHADEDGE
 70
     3
  9
$SHADEDIF
 70
    70
  9
$TILEMODE
 70
     0
  9
$MAXACTVP
 70
    64
  9
$PLIMCHECK
 70
     0
  9
$PEXTMIN
 10
0.0287712300219028
 20
0.0759839241634737
 30
0.0
  9
$PEXTMAX
 10
10.47122802895248
 20
7.957364437363462
 30
0.0
  9
$PLIMMIN
 10
-0.2500002402958907
 20
-0.2499999962453767
  9
$PLIMMAX
 10
10.74999951940821
 20
8.2499997634587316
  9
$UNITMODE
 70
     0
  9
$VISRETAIN
 70
     1
  9
$PLINEGEN
 70
     0
  9
$PSLTSCALE
 70
     1
  0
ENDSEC
  0
SECTION
  2
TABLES
  0
TABLE
  2
VPORT
 70
    60
  0
VPORT
  2
*ACTIVE
 70
     0
 10
0.0
 20
0.0
 11
1.0
 21
1.0
 12
-385.78409896863661
 22
840.59566587302641
 13
0.0
 23
0.0
 14
0.5
 24
0.5
 15
0.5
 25
0.5
 16
0.0
 26
0.0
 36
1.0
 17
0.0
 27
0.0
 37
0.0
 40
5.8992019951828061
 41
2.0284090909090899
 42
50.0
 43
0.0
 44
0.0
 50
0.0
 51
0.0
 71
     0
 72
   100
 73
     1
 74
     2
 75
     0
 76
     0
 77
     0
 78
     0
  0
ENDTAB
  0
TABLE
  2
LTYPE
 70
     1
  0
LTYPE
  2
CONTINUOUS
 70
     0
  3
Solid line
 72
    65
 73
     0
 40
0.0
  0
ENDTAB
  0
TABLE
  2
LAYER
 70
    10
  0
LAYER
  2
0
 70
     0
 62
     7
  6
CONTINUOUS
  0
LAYER
  2
DEFPOINTS
 70
     0
 62
     7
  6
CONTINUOUS
  0
LAYER
  2
FRAME_200
 70
     0
 62
     8
  6
CONTINUOUS
  0
LAYER
  2
FRAME_070
 70
     0
 62
     5
  6
CONTINUOUS
  0
LAYER
  2
FRAME_050
 70
     0
 62
     6
  6
CONTINUOUS
  0
LAYER
  2
TITLE_BLOCK
 70
     0
 62
     7
  6
CONTINUOUS
  0
LAYER
  2
FRAME_025
 70
     0
 62
     7
  6
CONTINUOUS
  0
LAYER
  2
VIEWPORT
 70
     0
 62
     7
  6
CONTINUOUS
  0
LAYER
  2
PROF
 70
     0
 62
     7
  6
CONTINUOUS
  0
LAYER
  2
PROFILE
 70
     0
 62
     7
  6
CONTINUOUS
  0
ENDTAB
  0
TABLE
  2
STYLE
 70
     2
  0
STYLE
  2
STANDARD
 70
     0
 40
0.0
 41
1.0
 50
0.0
 71
     0
 42
1.5
  3
txt
  4

  0
STYLE
  2
ISO_PROPORTIONAL
 70
     0
 40
0.0
 41
1.0
 50
0.0
 71
     0
 42
2.5
  3
isocp.shx
  4

  0
ENDTAB
  0
TABLE
  2
VIEW
 70
    65
  0
ENDTAB
  0
TABLE
  2
UCS
 70
     0
  0
ENDTAB
  0
TABLE
  2
APPID
 70
     6
  0
APPID
  2
ACAD
 70
     0
  0
APPID
  2
DCO15
 70
     0
  0
APPID
  2
ACAD_EXEMPT_FROM_CAD_STANDARDS
 70
     0
  0
APPID
  2
ACAD_PSEXT
 70
     0
  0
APPID
  2
CONTENTBLOCKDESCRIPTION
 70
     0
  0
APPID
  2
CONTENTBLOCKICON
 70
     0
  0
ENDTAB
  0
TABLE
  2
DIMSTYLE
 70
     5
  0
DIMSTYLE
  2
FULL_SCALE
 70
     0
  3
"
  4

  5
ARCHTICK
  6

  7

 40
1.0
 41
0.046875
 42
0.09375
 43
0.125
 44
0.0625
 45
0.0
 46
0.0
 47
0.0
 48
0.0
140
0.125
141
0.125
142
0.0
143
25.399999999999999
144
1.0
145
0.0
146
1.0
147
0.0625
 71
     0
 72
     0
 73
     0
 74
     0
 75
     0
 76
     0
 77
     1
 78
     0
170
     0
171
     2
172
     0
173
     0
174
     1
175
     0
176
     0
177
     0
178
     0
  0
DIMSTYLE
  2
HALF_SCALE
 70
     0
  3
"
  4

  5
ARCHTICK
  6

  7

 40
1.0
 41
0.09375
 42
0.1875
 43
0.25
 44
0.125
 45
0.0
 46
0.0
 47
0.0
 48
0.0
140
0.25
141
0.25
142
0.0
143
25.399999999999999
144
1.0
145
0.0
146
1.0
147
0.125
 71
     0
 72
     0
 73
     0
 74
     0
 75
     0
 76
     0
 77
     1
 78
     0
170
     0
171
     2
172
     0
173
     0
174
     1
175
     0
176
     0
177
     0
178
     0
  0
DIMSTYLE
  2
INCH_SCALE
 70
     0
  3
"
  4

  5
ARCHTICK
  6

  7

 40
1.0
 41
0.5625
 42
1.125
 43
1.5
 44
0.75
 45
0.0
 46
0.0
 47
0.0
 48
0.0
140
1.125
141
1.5
142
0.0
143
25.399999999999999
144
1.0
145
0.0
146
1.0
147
0.75
 71
     0
 72
     0
 73
     0
 74
     0
 75
     0
 76
     0
 77
     1
 78
     0
170
     0
171
     2
172
     0
173
     0
174
     1
175
     0
176
     0
177
     0
178
     0
  0
DIMSTYLE
  2
THREE_QUARTER_INCH_SCALE
 70
     0
  3
"
  4

  5
ARCHTICK
  6

  7

 40
1.0
 41
0.75
 42
1.5
 43
2.0
 44
1.0
 45
0.0
 46
0.0
 47
0.0
 48
0.0
140
1.5
141
2.0
142
0.0
143
25.399999999999999
144
1.0
145
0.0
146
1.0
147
1.0
 71
     0
 72
     0
 73
     0
 74
     0
 75
     0
 76
     0
 77
     1
 78
     0
170
     0
171
     2
172
     0
173
     0
174
     1
175
     0
176
     0
177
     0
178
     0
  0
DIMSTYLE
  2
ZHALF_INCH_SCALE
 70
     0
  3
"
  4

  5
ARCHTICK
  6

  7

 40
1.0
 41
1.125
 42
2.25
 43
3.0
 44
1.5
 45
0.0
 46
0.0
 47
0.0
 48
0.0
140
2.25
141
3.0
142
0.0
143
25.399999999999999
144
1.0
145
0.0
146
1.0
147
1.5
 71
     0
 72
     0
 73
     0
 74
     0
 75
     0
 76
     0
 77
     1
 78
     0
170
     0
171
     2
172
     0
173
     0
174
     1
175
     0
176
     0
177
     0
178
     0
  0
ENDTAB
  0
ENDSEC
  0
SECTION
  2
BLOCKS
  0
BLOCK
  8
0
  2
$MODEL_SPACE
 70
     0
 10
0.0
 20
0.0
 30
0.0
  3
$MODEL_SPACE
  1

  0
ENDBLK
  5
21
  8
0
  0
BLOCK
 67
     1
  8
0
  2
$PAPER_SPACE
 70
     0
 10
0.0
 20
0.0
 30
0.0
  3
$PAPER_SPACE
  1

  0
ENDBLK
  5
BAD5
 67
     1
  8
0
  0
BLOCK
  8
0
  2
_ARCHTICK
 70
     0
 10
0.0
 20
0.0
 30
0.0
  3
_ARCHTICK
  1

  0
POLYLINE
  5
158
  8
0
  6
BYBLOCK
 62
     0
 66
     1
 10
0.0
 20
0.0
 30
0.0
 40
0.15
 41
0.15
  0
VERTEX
  5
12632
  8
0
  6
BYBLOCK
 62
     0
 10
-0.5
 20
-0.5
 30
0.0
  0
VERTEX
  5
12633
  8
0
  6
BYBLOCK
 62
     0
 10
0.5
 20
0.5
 30
0.0
  0
SEQEND
  5
12634
  8
0
  6
BYBLOCK
 62
     0
  0
ENDBLK
  5
15A
  8
0
  0
BLOCK
  8
0
  2
_OPEN30
 70
     0
 10
0.0
 20
0.0
 30
0.0
  3
_OPEN30
  1

  0
LINE
  5
15C
  8
0
  6
BYBLOCK
 62
     0
 10
-1.0
 20
0.26794919
 30
0.0
 11
0.0
 21
0.0
 31
0.0
  0
LINE
  5
15D
  8
0
  6
BYBLOCK
 62
     0
 10
0.0
 20
0.0
 30
0.0
 11
-1.0
 21
-0.26794919
 31
0.0
  0
LINE
  5
15E
  8
0
  6
BYBLOCK
 62
     0
 10
0.0
 20
0.0
 30
0.0
 11
-1.0
 21
0.0
 31
0.0
  0
ENDBLK
  5
160
  8
0
  0
BLOCK
  8
0
  2
ISO_A2_TITLE_BLOCK
 70
     2
 10
0.0
 20
0.0
 30
0.0
  3
ISO_A2_TITLE_BLOCK
  1

  0
LINE
  5
BDD
  8
FRAME_050
 10
299.5
 20
12.5
 30
0.0
 11
297.0
 21
7.5
 31
0.0
  0
LINE
  5
BDE
  8
FRAME_050
 10
294.5
 20
12.5
 30
0.0
 11
299.5
 21
12.5
 31
0.0
  0
LINE
  5
BDF
  8
FRAME_050
 10
247.0
 20
5.0
 30
0.0
 11
347.0
 21
5.0
 31
0.0
  0
LINE
  5
BE0
  8
FRAME_070
 10
584.0
 20
410.0
 30
0.0
 11
10.0
 21
410.0
 31
0.0
  0
LINE
  5
BE1
  8
FRAME_070
 10
10.0
 20
10.0
 30
0.0
 11
584.0
 21
10.0
 31
0.0
  0
LINE
  5
BE2
  8
FRAME_050
 10
12.5
 20
207.5
 30
0.0
 11
7.5
 21
210.0
 31
0.0
  0
LINE
  5
BE3
  8
FRAME_050
 10
12.5
 20
212.5
 30
0.0
 11
12.5
 21
207.5
 31
0.0
  0
LINE
  5
BE4
  8
FRAME_070
 10
10.0
 20
410.0
 30
0.0
 11
10.0
 21
10.0
 31
0.0
  0
LINE
  5
BE5
  8
FRAME_200
 10
0.0
 20
0.0
 30
0.0
 11
0.0
 21
10.0
 31
0.0
  0
LINE
  5
BE6
  8
FRAME_200
 10
0.0
 20
0.0
 30
0.0
 11
10.0
 21
0.0
 31
0.0
  0
TEXT
  5
BE7
  8
FRAME_050
 10
5.9000000000000004
 20
35.0
 30
0.0
 40
4.0
  1
H
  7
ISO_PROPORTIONAL
 72
     4
 11
7.5
 21
37.0
 31
0.0
  0
LINE
  5
BE8
  8
FRAME_050
 10
10.0
 20
60.0
 30
0.0
 11
5.0
 21
60.0
 31
0.0
  0
LINE
  5
BE9
  8
FRAME_050
 10
81.75
 20
5.0
 30
0.0
 11
81.75
 21
10.0
 31
0.0
  0
TEXT
  5
BEA
  8
FRAME_050
 10
44.874999999999993
 20
5.5
 30
0.0
 40
4.0
  1
1
  7
ISO_PROPORTIONAL
 72
     4
 11
45.875
 21
7.5
 31
0.0
  0
TEXT
  5
BEB
  8
FRAME_050
 10
6.0035533905932743
 20
85.0
 30
0.0
 40
4.0
  1
G
  7
ISO_PROPORTIONAL
 72
     4
 11
7.5
 21
87.0
 31
0.0
  0
LINE
  5
BEC
  8
FRAME_050
 10
10.0
 20
110.0
 30
0.0
 11
5.0
 21
110.0
 31
0.0
  0
TEXT
  5
BED
  8
FRAME_050
 10
6.0999999999999988
 20
135.0
 30
0.0
 40
4.0
  1
F
  7
ISO_PROPORTIONAL
 72
     4
 11
7.5
 21
137.0
 31
0.0
  0
LINE
  5
BEE
  8
FRAME_050
 10
10.0
 20
160.0
 30
0.0
 11
5.0
 21
160.0
 31
0.0
  0
TEXT
  5
BEF
  8
FRAME_050
 10
6.0999999999999988
 20
185.0
 30
0.0
 40
4.0
  1
E
  7
ISO_PROPORTIONAL
 72
     4
 11
7.5
 21
187.0
 31
0.0
  0
LINE
  5
BF0
  8
FRAME_050
 10
153.5
 20
5.0
 30
0.0
 11
153.5
 21
10.0
 31
0.0
  0
TEXT
  5
BF1
  8
FRAME_050
 10
116.1556692913386
 20
5.3996062992125982
 30
0.0
 40
4.0
  1
2
  7
ISO_PROPORTIONAL
 72
     4
 11
117.625
 21
7.5
 31
0.0
  0
TEXT
  5
BF2
  8
FRAME_050
 10
187.89215728752529
 20
5.5828427124746138
 30
0.0
 40
4.0
  1
3
  7
ISO_PROPORTIONAL
 72
     4
 11
189.375
 21
7.5
 31
0.0
  0
LINE
  5
BF3
  8
FRAME_050
 10
225.25
 20
5.0
 30
0.0
 11
225.25
 21
10.0
 31
0.0
  0
LINE
  5
BF4
  8
FRAME_050
 10
297.0
 20
7.5
 30
0.0
 11
294.5
 21
12.5
 31
0.0
  0
LINE
  5
BF5
  8
FRAME_050
 10
287.0
 20
5.0
 30
0.0
 11
287.0
 21
10.0
 31
0.0
  0
LINE
  5
BF6
  8
FRAME_050
 10
277.0
 20
5.0
 30
0.0
 11
277.0
 21
10.0
 31
0.0
  0
LINE
  5
BF7
  8
FRAME_050
 10
267.0
 20
5.0
 30
0.0
 11
267.0
 21
10.0
 31
0.0
  0
LINE
  5
BF8
  8
FRAME_050
 10
257.0
 20
5.0
 30
0.0
 11
257.0
 21
10.0
 31
0.0
  0
LINE
  5
BF9
  8
FRAME_050
 10
247.0
 20
5.0
 30
0.0
 11
247.0
 21
10.0
 31
0.0
  0
LINE
  5
BFA
  8
FRAME_050
 10
297.0
 20
10.0
 30
0.0
 11
297.0
 21
5.0
 31
0.0
  0
LINE
  5
BFB
  8
FRAME_050
 10
297.0
 20
10.0
 30
0.0
 11
297.0
 21
15.0
 31
0.0
  0
LINE
  5
BFC
  8
FRAME_050
 10
5.0
 20
210.0
 30
0.0
 11
15.0
 21
210.0
 31
0.0
  0
LINE
  5
BFD
  8
FRAME_050
 10
7.5
 20
210.0
 30
0.0
 11
12.5
 21
212.5
 31
0.0
  0
TEXT
  5
BFE
  8
FRAME_050
 10
5.7860912703473977
 20
235.0
 30
0.0
 40
4.0
  1
D
  7
ISO_PROPORTIONAL
 72
     4
 11
7.5
 21
237.0
 31
0.0
  0
LINE
  5
BFF
  8
FRAME_050
 10
10.0
 20
260.0
 30
0.0
 11
5.0
 21
260.0
 31
0.0
  0
TEXT
  5
C00
  8
FRAME_050
 10
6.1931980515339466
 20
285.0
 30
0.0
 40
4.0
  1
C
  7
ISO_PROPORTIONAL
 72
     4
 11
7.5
 21
287.0
 31
0.0
  0
LINE
  5
C01
  8
FRAME_050
 10
10.0
 20
310.0
 30
0.0
 11
5.0
 21
310.0
 31
0.0
  0
TEXT
  5
C02
  8
FRAME_050
 10
5.8999999999999959
 20
335.0
 30
0.0
 40
4.0
  1
B
  7
ISO_PROPORTIONAL
 72
     4
 11
7.5
 21
337.0
 31
0.0
  0
LINE
  5
C03
  8
FRAME_050
 10
10.0
 20
360.0
 30
0.0
 11
5.0
 21
360.0
 31
0.0
  0
TEXT
  5
C04
  8
FRAME_050
 10
5.6999999999999993
 20
385.0
 30
0.0
 40
4.0
  1
A
  7
ISO_PROPORTIONAL
 72
     4
 11
7.5
 21
387.0
 31
0.0
  0
LINE
  5
C05
  8
FRAME_200
 10
10.0
 20
420.0
 30
0.0
 11
0.0
 21
420.0
 31
0.0
  0
LINE
  5
C06
  8
FRAME_200
 10
0.0
 20
420.0
 30
0.0
 11
0.0
 21
410.0
 31
0.0
  0
TEXT
  5
C07
  8
FRAME_050
 10
44.874999999999993
 20
410.5
 30
0.0
 40
4.0
  1
1
  7
ISO_PROPORTIONAL
 72
     4
 11
45.875
 21
412.5
 31
0.0
  0
LINE
  5
C08
  8
FRAME_050
 10
81.75
 20
410.0
 30
0.0
 11
81.75
 21
415.0
 31
0.0
  0
TEXT
  5
C09
  8
FRAME_050
 10
116.1556692913386
 20
410.39960629921262
 30
0.0
 40
4.0
  1
2
  7
ISO_PROPORTIONAL
 72
     4
 11
117.625
 21
412.5
 31
0.0
  0
LINE
  5
C0A
  8
FRAME_050
 10
153.5
 20
410.0
 30
0.0
 11
153.5
 21
415.0
 31
0.0
  0
TEXT
  5
C0B
  8
FRAME_050
 10
187.89215728752529
 20
410.58284271247459
 30
0.0
 40
4.0
  1
3
  7
ISO_PROPORTIONAL
 72
     4
 11
189.375
 21
412.5
 31
0.0
  0
LINE
  5
C0C
  8
FRAME_050
 10
297.0
 20
405.0
 30
0.0
 11
297.0
 21
415.0
 31
0.0
  0
LINE
  5
C0D
  8
FRAME_050
 10
225.25
 20
410.0
 30
0.0
 11
225.25
 21
415.0
 31
0.0
  0
TEXT
  5
C0E
  8
FRAME_050
 10
259.52499999999998
 20
410.5
 30
0.0
 40
4.0
  1
4
  7
ISO_PROPORTIONAL
 72
     4
 11
261.125
 21
412.5
 31
0.0
  0
LINE
  5
C0F
  8
FRAME_070
 10
584.0
 20
10.0
 30
0.0
 11
584.0
 21
410.0
 31
0.0
  0
ATTDEF
  5
C10
  8
FRAME_025
 10
473.0
 20
31.75
 30
0.0
 40
2.5
  1
XXX - 00/00/00
  7
ISO_PROPORTIONAL
 11
473.0
 21
33.0
 31
0.0
  3
Approved by - Date
  2
APPROVED_BY_DATE
 70
     8
 74
     2
  0
TEXT
  5
C11
  8
FRAME_025
 10
448.0
 20
41.749999999999993
 30
0.0
 40
2.5
  1
Title/Name, designation, material, dimension etc
  7
ISO_PROPORTIONAL
 11
448.0
 21
43.0
 31
0.0
 73
     2
  0
TEXT
  5
C12
  8
FRAME_025
 10
473.0
 20
35.75
 30
0.0
 40
2.5
  1
Approved by - date
  7
ISO_PROPORTIONAL
 11
473.0
 21
37.0
 31
0.0
 73
     2
  0
LINE
  5
C13
  8
FRAME_070
 10
414.0
 20
46.0
 30
0.0
 11
584.0
 21
46.0
 31
0.0
  0
LINE
  5
C14
  8
FRAME_070
 10
414.0
 20
40.0
 30
0.0
 11
584.0
 21
40.0
 31
0.0
  0
LINE
  5
C15
  8
FRAME_070
 10
414.0
 20
30.0
 30
0.0
 11
584.0
 21
30.0
 31
0.0
  0
LINE
  5
C16
  8
FRAME_050
 10
368.75
 20
5.0
 30
0.0
 11
368.75
 21
10.0
 31
0.0
  0
LINE
  5
C17
  8
FRAME_050
 10
337.0
 20
5.0
 30
0.0
 11
337.0
 21
10.0
 31
0.0
  0
LINE
  5
C18
  8
FRAME_050
 10
327.0
 20
5.0
 30
0.0
 11
327.0
 21
10.0
 31
0.0
  0
LINE
  5
C19
  8
FRAME_050
 10
317.0
 20
5.0
 30
0.0
 11
317.0
 21
10.0
 31
0.0
  0
LINE
  5
C1A
  8
FRAME_050
 10
307.0
 20
5.0
 30
0.0
 11
307.0
 21
10.0
 31
0.0
  0
LINE
  5
C1B
  8
FRAME_050
 10
347.0
 20
5.0
 30
0.0
 11
347.0
 21
10.0
 31
0.0
  0
LINE
  5
C1C
  8
FRAME_050
 10
440.5
 20
5.0
 30
0.0
 11
440.5
 21
10.0
 31
0.0
  0
TEXT
  5
C1D
  8
FRAME_050
 10
403.24547244094481
 20
5.4102362204724406
 30
0.0
 40
4.0
  1
6
  7
ISO_PROPORTIONAL
 72
     4
 11
404.62499999999989
 21
7.5
 31
0.0
  0
TEXT
  5
C1E
  8
FRAME_050
 10
474.97500000000002
 20
5.5
 30
0.0
 40
4.0
  1
7
  7
ISO_PROPORTIONAL
 72
     4
 11
476.37499999999989
 21
7.5
 31
0.0
  0
TEXT
  5
C1F
  8
FRAME_025
 10
431.0
 20
41.749999999999993
 30
0.0
 40
2.5
  1
Quantity
  7
ISO_PROPORTIONAL
 11
431.0
 21
43.0
 31
0.0
 73
     2
  0
TEXT
  5
C20
  8
FRAME_025
 10
416.0
 20
41.749999999999993
 30
0.0
 40
2.5
  1
Itemref
  7
ISO_PROPORTIONAL
 11
416.0
 21
43.0
 31
0.0
 73
     2
  0
LINE
  5
C21
  8
FRAME_070
 10
414.0
 20
40.0
 30
0.0
 11
414.0
 21
46.0
 31
0.0
  0
LINE
  5
C22
  8
FRAME_070
 10
429.0
 20
40.0
 30
0.0
 11
429.0
 21
46.0
 31
0.0
  0
LINE
  5
C23
  8
FRAME_070
 10
414.0
 20
10.0
 30
0.0
 11
414.0
 21
40.0
 31
0.0
  0
ATTDEF
  5
C24
  8
FRAME_025
 10
416.0
 20
31.75
 30
0.0
 40
2.5
  1
XXX
  7
ISO_PROPORTIONAL
 11
416.0
 21
33.0
 31
0.0
  3
Designed by
  2
DESIGNED_BY
 70
     8
 74
     2
  0
TEXT
  5
C25
  8
FRAME_025
 10
416.0
 20
35.75
 30
0.0
 40
2.5
  1
Designed by
  7
ISO_PROPORTIONAL
 11
416.0
 21
37.0
 31
0.0
 73
     2
  0
LINE
  5
C26
  8
FRAME_070
 10
446.0
 20
40.0
 30
0.0
 11
446.0
 21
46.0
 31
0.0
  0
ATTDEF
  5
C27
  8
FRAME_025
 10
448.0
 20
31.75
 30
0.0
 40
2.5
  1
XXX
  7
ISO_PROPORTIONAL
 11
448.0
 21
33.0
 31
0.0
  3
Checked by
  2
CHECKED_BY
 70
     8
 74
     2
  0
TEXT
  5
C28
  8
FRAME_025
 10
448.0
 20
35.75
 30
0.0
 40
2.5
  1
Checked by
  7
ISO_PROPORTIONAL
 11
448.0
 21
37.0
 31
0.0
 73
     2
  0
ATTDEF
  5
C29
  8
FRAME_050
 10
444.74999999999989
 20
17.5
 30
0.0
 40
5.0
  1
XXX
  7
ISO_PROPORTIONAL
 72
     4
 11
451.49999999999989
 21
20.0
 31
0.0
  3
Owner
  2
OWNER
 70
     8
  0
LINE
  5
C2A
  8
FRAME_070
 10
446.0
 20
30.0
 30
0.0
 11
446.0
 21
40.0
 31
0.0
  0
LINE
  5
C2B
  8
FRAME_070
 10
471.0
 20
30.0
 30
0.0
 11
471.0
 21
40.0
 31
0.0
  0
LINE
  5
C2C
  8
FRAME_070
 10
489.0
 20
20.0
 30
0.0
 11
584.0
 21
20.0
 31
0.0
  0
LINE
  5
C2D
  8
FRAME_050
 10
512.25
 20
5.0
 30
0.0
 11
512.25
 21
10.0
 31
0.0
  0
TEXT
  5
C2E
  8
FRAME_050
 10
546.72499999999991
 20
5.5
 30
0.0
 40
4.0
  1
8
  7
ISO_PROPORTIONAL
 72
     4
 11
548.125
 21
7.5
 31
0.0
  0
ATTDEF
  5
C2F
  8
FRAME_050
 10
517.64999999999986
 20
13.5
 30
0.0
 40
3.0
  1
X
  7
ISO_PROPORTIONAL
 72
     4
 11
519.0
 21
15.0
 31
0.0
  3
Drawing number
  2
DRAWING_NUMBER
 70
     8
  0
ATTDEF
  5
C30
  8
FRAME_050
 10
529.75
 20
22.5
 30
0.0
 40
5.0
  1
XXX
  7
ISO_PROPORTIONAL
 72
     4
 11
536.5
 21
25.0
 31
0.0
  3
Title / Name
  2
TITLE
 70
     8
  0
LINE
  5
C31
  8
FRAME_070
 10
489.0
 20
10.0
 30
0.0
 11
489.0
 21
30.0
 31
0.0
  0
ATTDEF
  5
C32
  8
FRAME_025
 10
511.0
 20
31.75
 30
0.0
 40
2.5
  1
XXX
  7
ISO_PROPORTIONAL
 11
511.0
 21
33.0
 31
0.0
  3
Filename
  2
FILENAME
 70
     8
 74
     2
  0
TEXT
  5
C33
  8
FRAME_025
 10
511.0
 20
35.75
 30
0.0
 40
2.5
  1
Filename
  7
ISO_PROPORTIONAL
 11
511.0
 21
37.0
 31
0.0
 73
     2
  0
LINE
  5
C34
  8
FRAME_070
 10
509.0
 20
30.0
 30
0.0
 11
509.0
 21
40.0
 31
0.0
  0
TEXT
  5
C35
  8
FRAME_025
 10
536.0
 20
41.749999999999993
 30
0.0
 40
2.5
  1
Article No./Reference
  7
ISO_PROPORTIONAL
 11
536.0
 21
43.0
 31
0.0
 73
     2
  0
LINE
  5
C36
  8
FRAME_070
 10
534.0
 20
40.0
 30
0.0
 11
534.0
 21
46.0
 31
0.0
  0
ATTDEF
  5
C37
  8
FRAME_025
 10
551.0
 20
11.75
 30
0.0
 40
2.5
  1
0
  7
ISO_PROPORTIONAL
 11
551.0
 21
13.0
 31
0.0
  3
Edition
  2
EDITION
 70
     8
 74
     2
  0
TEXT
  5
C38
  8
FRAME_025
 10
551.0
 20
15.75
 30
0.0
 40
2.5
  1
Edition
  7
ISO_PROPORTIONAL
 11
551.0
 21
17.0
 31
0.0
 73
     2
  0
LINE
  5
C39
  8
FRAME_070
 10
549.0
 20
10.0
 30
0.0
 11
549.0
 21
20.0
 31
0.0
  0
ATTDEF
  5
C3A
  8
FRAME_025
 10
536.0
 20
31.75
 30
0.0
 40
2.5
  1
00/00/00
  7
ISO_PROPORTIONAL
 11
536.0
 21
33.0
 31
0.0
  3
Date
  2
DATE
 70
     8
 74
     2
  0
TEXT
  5
C3B
  8
FRAME_025
 10
536.0
 20
35.75
 30
0.0
 40
2.5
  1
Date
  7
ISO_PROPORTIONAL
 11
536.0
 21
37.0
 31
0.0
 73
     2
  0
LINE
  5
C3C
  8
FRAME_070
 10
534.0
 20
30.0
 30
0.0
 11
534.0
 21
40.0
 31
0.0
  0
ATTDEF
  5
C3D
  8
FRAME_025
 10
566.0
 20
11.75
 30
0.0
 40
2.5
  1
1/1
  7
ISO_PROPORTIONAL
 11
566.0
 21
13.0
 31
0.0
  3
Sheet
  2
SHEET
 70
     8
 74
     2
  0
TEXT
  5
C3E
  8
FRAME_025
 10
566.0
 20
15.75
 30
0.0
 40
2.5
  1
Sheet
  7
ISO_PROPORTIONAL
 11
566.0
 21
17.0
 31
0.0
 73
     2
  0
LINE
  5
C3F
  8
FRAME_070
 10
564.0
 20
10.0
 30
0.0
 11
564.0
 21
20.0
 31
0.0
  0
ATTDEF
  5
C40
  8
FRAME_025
 10
566.0
 20
31.75
 30
0.0
 40
2.5
  1
1:1
  7
ISO_PROPORTIONAL
 11
566.0
 21
33.0
 31
0.0
  3
Scale
  2
SCALE
 70
     8
 74
     2
  0
TEXT
  5
C41
  8
FRAME_025
 10
566.0
 20
35.75
 30
0.0
 40
2.5
  1
Scale
  7
ISO_PROPORTIONAL
 11
566.0
 21
37.0
 31
0.0
 73
     2
  0
LINE
  5
C42
  8
FRAME_070
 10
564.0
 20
30.0
 30
0.0
 11
564.0
 21
40.0
 31
0.0
  0
LINE
  5
C43
  8
FRAME_200
 10
594.0
 20
0.0
 30
0.0
 11
594.0
 21
10.0
 31
0.0
  0
LINE
  5
C44
  8
FRAME_200
 10
594.0
 20
0.0
 30
0.0
 11
584.0
 21
0.0
 31
0.0
  0
TEXT
  5
C45
  8
FRAME_050
 10
584.89999999999998
 20
35.0
 30
0.0
 40
4.0
  1
H
  7
ISO_PROPORTIONAL
 72
     4
 11
586.5
 21
37.0
 31
0.0
  0
LINE
  5
C46
  8
FRAME_050
 10
589.0
 20
60.0
 30
0.0
 11
584.0
 21
60.0
 31
0.0
  0
TEXT
  5
C47
  8
FRAME_050
 10
585.0035533905932
 20
85.0
 30
0.0
 40
4.0
  1
G
  7
ISO_PROPORTIONAL
 72
     4
 11
586.5
 21
87.0
 31
0.0
  0
LINE
  5
C48
  8
FRAME_050
 10
589.0
 20
110.0
 30
0.0
 11
584.0
 21
110.0
 31
0.0
  0
TEXT
  5
C49
  8
FRAME_050
 10
585.09999999999991
 20
135.0
 30
0.0
 40
4.0
  1
F
  7
ISO_PROPORTIONAL
 72
     4
 11
586.5
 21
137.0
 31
0.0
  0
LINE
  5
C4A
  8
FRAME_050
 10
589.0
 20
160.0
 30
0.0
 11
584.0
 21
160.0
 31
0.0
  0
TEXT
  5
C4B
  8
FRAME_050
 10
585.09999999999991
 20
185.0
 30
0.0
 40
4.0
  1
E
  7
ISO_PROPORTIONAL
 72
     4
 11
586.5
 21
187.0
 31
0.0
  0
LINE
  5
C4C
  8
FRAME_070
 10
414.0
 20
404.0
 30
0.0
 11
584.0
 21
404.0
 31
0.0
  0
TEXT
  5
C4D
  8
FRAME_050
 10
331.39215728752538
 20
410.58284271247459
 30
0.0
 40
4.0
  1
5
  7
ISO_PROPORTIONAL
 72
     4
 11
332.875
 21
412.5
 31
0.0
  0
LINE
  5
C4E
  8
FRAME_050
 10
368.75
 20
410.0
 30
0.0
 11
368.75
 21
415.0
 31
0.0
  0
TEXT
  5
C4F
  8
FRAME_025
 10
428.0
 20
405.75
 30
0.0
 40
2.5
  1
Revision note
  7
ISO_PROPORTIONAL
 11
428.0
 21
407.0
 31
0.0
 73
     2
  0
TEXT
  5
C50
  8
FRAME_025
 10
416.0
 20
405.75
 30
0.0
 40
2.5
  1
RevNo
  7
ISO_PROPORTIONAL
 11
416.0
 21
407.0
 31
0.0
 73
     2
  0
LINE
  5
C51
  8
FRAME_070
 10
426.0
 20
404.0
 30
0.0
 11
426.0
 21
410.0
 31
0.0
  0
LINE
  5
C52
  8
FRAME_070
 10
414.0
 20
404.0
 30
0.0
 11
414.0
 21
410.0
 31
0.0
  0
TEXT
  5
C53
  8
FRAME_050
 10
403.24547244094481
 20
410.41023622047243
 30
0.0
 40
4.0
  1
6
  7
ISO_PROPORTIONAL
 72
     4
 11
404.62499999999989
 21
412.5
 31
0.0
  0
LINE
  5
C54
  8
FRAME_050
 10
440.5
 20
410.0
 30
0.0
 11
440.5
 21
415.0
 31
0.0
  0
TEXT
  5
C55
  8
FRAME_050
 10
474.97500000000002
 20
410.5
 30
0.0
 40
4.0
  1
7
  7
ISO_PROPORTIONAL
 72
     4
 11
476.37499999999989
 21
412.5
 31
0.0
  0
LINE
  5
C56
  8
FRAME_050
 10
579.0
 20
210.0
 30
0.0
 11
589.0
 21
210.0
 31
0.0
  0
TEXT
  5
C57
  8
FRAME_050
 10
584.78609127034736
 20
235.0
 30
0.0
 40
4.0
  1
D
  7
ISO_PROPORTIONAL
 72
     4
 11
586.5
 21
237.0
 31
0.0
  0
LINE
  5
C58
  8
FRAME_050
 10
589.0
 20
260.0
 30
0.0
 11
584.0
 21
260.0
 31
0.0
  0
TEXT
  5
C59
  8
FRAME_050
 10
585.19319805153395
 20
285.0
 30
0.0
 40
4.0
  1
C
  7
ISO_PROPORTIONAL
 72
     4
 11
586.5
 21
287.0
 31
0.0
  0
LINE
  5
C5A
  8
FRAME_050
 10
589.0
 20
310.0
 30
0.0
 11
584.0
 21
310.0
 31
0.0
  0
TEXT
  5
C5B
  8
FRAME_050
 10
584.89999999999998
 20
335.0
 30
0.0
 40
4.0
  1
B
  7
ISO_PROPORTIONAL
 72
     4
 11
586.5
 21
337.0
 31
0.0
  0
TEXT
  5
C5C
  8
FRAME_025
 10
571.08299391850551
 20
405.75
 30
0.0
 40
2.5
  1
Checked
  7
ISO_PROPORTIONAL
 11
571.08299391850551
 21
407.0
 31
0.0
 73
     2
  0
TEXT
  5
C5D
  8
FRAME_025
 10
555.36099797283532
 20
405.75
 30
0.0
 40
2.5
  1
Signature
  7
ISO_PROPORTIONAL
 11
555.36099797283532
 21
407.0
 31
0.0
 73
     2
  0
TEXT
  5
C5E
  8
FRAME_025
 10
537.0
 20
405.75
 30
0.0
 40
2.5
  1
Date
  7
ISO_PROPORTIONAL
 11
537.0
 21
407.0
 31
0.0
 73
     2
  0
LINE
  5
C5F
  8
FRAME_070
 10
570.0
 20
404.0
 30
0.0
 11
570.0
 21
410.0
 31
0.0
  0
LINE
  5
C60
  8
FRAME_070
 10
555.0
 20
404.0
 30
0.0
 11
555.0
 21
410.0
 31
0.0
  0
LINE
  5
C61
  8
FRAME_070
 10
535.0
 20
404.0
 30
0.0
 11
535.0
 21
410.0
 31
0.0
  0
LINE
  5
C62
  8
FRAME_050
 10
512.25
 20
410.0
 30
0.0
 11
512.25
 21
415.0
 31
0.0
  0
TEXT
  5
C63
  8
FRAME_050
 10
546.72499999999991
 20
410.5
 30
0.0
 40
4.0
  1
8
  7
ISO_PROPORTIONAL
 72
     4
 11
548.125
 21
412.5
 31
0.0
  0
LINE
  5
C64
  8
FRAME_050
 10
589.0
 20
360.0
 30
0.0
 11
584.0
 21
360.0
 31
0.0
  0
TEXT
  5
C65
  8
FRAME_050
 10
584.70000000000005
 20
385.0
 30
0.0
 40
4.0
  1
A
  7
ISO_PROPORTIONAL
 72
     4
 11
586.5
 21
387.0
 31
0.0
  0
LINE
  5
C66
  8
FRAME_200
 10
594.0
 20
420.0
 30
0.0
 11
584.0
 21
420.0
 31
0.0
  0
LINE
  5
C67
  8
FRAME_200
 10
594.0
 20
410.0
 30
0.0
 11
594.0
 21
420.0
 31
0.0
  0
ENDBLK
  5
C69
  8
0
  0
BLOCK
  8
0
  2
WOBB001END
 70
     0
 10
0.0
 20
0.0
 30
0.0
  3
WOBB001END
  1

  0
LINE
  5
4D66
  8
0
  6
CONTINUOUS
 10
0.0
 20
0.0
 30
0.0
 11
0.8749999999999998
 21
0.0
 31
0.0
  0
ARC
  5
4D67
  8
0
  6
CONTINUOUS
 10
0.0331648379439287
 20
-0.5087238935900232
 30
0.0
 40
0.8790130605592325
 50
284.06490243660443
 51
312.19222981924361
  0
ARC
  5
4D68
  8
0
  6
CONTINUOUS
 10
0.2841534338796767
 20
-1.510548310625538
 30
0.0
 40
0.1537731892806598
 50
104.0649024366044
 51
179.4721730735024
  0
LINE
  5
4D69
  8
0
  6
CONTINUOUS
 10
0.0
 20
0.0
 30
0.0
 11
-0.0000000000000003
 21
-1.7501564476661919
 31
0.0
  0
ARC
  5
4D6A
  8
0
  6
CONTINUOUS
 10
0.1404622019506122
 20
-1.6303137183546199
 30
0.0
 40
0.1198427293115722
 50
275.0
 51
85.000000000000057
  0
LINE
  5
4D6B
  8
0
  6
CONTINUOUS
 10
-0.0000000000000003
 20
-1.7501564476661919
 30
0.0
 11
0.1456946485130855
 21
-1.7501564476661919
 31
0.0
  0
LINE
  5
4D6C
  8
0
  6
CONTINUOUS
 10
0.1377603739254348
 20
-1.7508506067459131
 30
0.0
 11
0.150907184036669
 21
-1.749700409899652
 31
0.0
  0
LINE
  5
4D6D
  8
0
  6
CONTINUOUS
 10
0.1303867696719884
 20
-1.5091317231818231
 30
0.0
 11
0.1509071840366689
 21
-1.5109270268095869
 31
0.0
  0
LINE
  5
4D6E
  8
0
  6
CONTINUOUS
 10
0.8749999999999998
 20
0.0
 30
0.0
 11
0.8749999999999996
 21
-0.8649327026588228
 31
0.0
  0
LINE
  5
4D6F
  8
0
  6
CONTINUOUS
 10
0.727014513830997
 20
-0.8726882933550612
 30
0.0
 11
0.727014513830997
 21
-0.9264923397184784
 31
0.0
  0
ARC
  5
4D70
  8
0
  6
CONTINUOUS
 10
0.41187090827646
 20
-0.9264923397184784
 30
0.0
 40
0.315143605554537
 50
312.19222981924361
 51
0.0
  0
LINE
  5
4D71
  8
0
  6
CONTINUOUS
 10
0.727014513830997
 20
-0.8726882933550612
 30
0.0
 11
0.8749999999999996
 21
-0.8649327026588228
 31
0.0
  0
ENDBLK
  5
4D72
  8
0
  0
BLOCK
  8
0
  2
A$C0A61123B
 70
     0
 10
0.0
 20
0.0
 30
0.0
  3
A$C0A61123B
  1

  0
LINE
  5
C0AD
  8
PROF
  6
CONTINUOUS
 10
4.9012016798694162
 20
13.325025853350891
 30
0.0000000000000002
 11
4.9012016798694162
 21
12.88585218805485
 31
0.0000000000000003
  0
INSERT
  5
C0AE
  8
0
  2
*U58
 10
0.0
 20
0.0
 30
0.0
  0
LINE
  5
C0AF
  8
PROF
 10
4.5198575031869259
 20
12.72227734589444
 30
0.0000000000000001
 11
4.5198575031869259
 21
12.88585218805485
 31
0.0000000000000001
  0
LINE
  5
C0B0
  8
PROF
  6
CONTINUOUS
 10
3.6306271195888371
 20
13.325025853350891
 30
0.0000000000000002
 11
4.9012016798694162
 21
13.325025853350891
 31
0.0000000000000002
  0
LINE
  5
C0B1
  8
PROF
 10
1.9750295148747341
 20
10.37671325491794
 30
0.0000000000000002
 11
1.9750295148747341
 21
10.11391186758919
 31
0.0000000000000002
  0
LINE
  5
C0B2
  8
PROF
 10
1.607967335755631
 20
10.11391186758919
 30
0.0000000000000001
 11
1.9750295148747341
 21
10.11391186758919
 31
0.0000000000000001
  0
LINE
  5
C0B3
  8
PROF
 10
1.9750295148747341
 20
10.11391186758919
 30
0.0000000000000001
 11
1.944958486898144
 21
10.11391186758919
 31
0.0000000000000001
  0
LINE
  5
C0B4
  8
PROF
 10
1.9750295148747341
 20
10.11391186758919
 30
0.0000000000000001
 11
1.944958486898144
 21
10.11391186758919
 31
0.0000000000000001
  0
LINE
  5
C0B5
  8
PROF
 10
0.3222605517169654
 20
7.5247473351056442
 30
-0.0000000000000002
 11
-0.0000008570117416
 21
7.5247473351056442
 31
0.0
  0
LINE
  5
C0B6
  8
PROF
 10
-0.0000008570117416
 20
7.5247473351056442
 30
0.0
 11
-0.0000008570117416
 21
9.1943336957369866
 31
0.0
  0
POLYLINE
  5
C0B7
  8
PROF
 66
     1
 10
0.0
 20
0.0
 30
0.0000000000000001
 70
     4
 75
     6
  0
VERTEX
  5
C0B8
  8
PROF
 10
1.607967335755631
 20
10.11391186758919
 30
0.0000000000000001
 70
    16
  0
VERTEX
  5
C0B9
  8
PROF
 10
1.607967335755631
 20
10.11391186758919
 30
0.0000000000000001
 70
     8
  0
VERTEX
  5
C0BA
  8
PROF
 10
1.646813232648582
 20
10.02198069336111
 30
0.0000000000000001
 70
     8
  0
VERTEX
  5
C0BB
  8
PROF
 10
1.67335966680929
 20
9.9344134163010267
 30
0.0000000000000001
 70
     8
  0
VERTEX
  5
C0BC
  8
PROF
 10
1.689008640046324
 20
9.8512576644480987
 30
0.0000000000000001
 70
     8
  0
VERTEX
  5
C0BD
  8
PROF
 10
1.695162154168258
 20
9.7725610658417281
 30
0.0000000000000001
 70
     8
  0
VERTEX
  5
C0BE
  8
PROF
 10
1.6932222109836059
 20
9.6983712485214255
 30
0.0000000000000001
 70
     8
  0
VERTEX
  5
C0BF
  8
PROF
 10
1.6845908123009961
 20
9.6287358405263603
 30
0.0000000000000001
 70
     8
  0
VERTEX
  5
C0C0
  8
PROF
 10
1.6706699599288859
 20
9.5637024698960431
 30
0.0000000000000001
 70
     8
  0
VERTEX
  5
C0C1
  8
PROF
 10
1.6528616556759621
 20
9.503318764669757
 30
0.0000000000000001
 70
     8
  0
VERTEX
  5
C0C2
  8
PROF
 10
1.6323562992730549
 20
9.4475843259650674
 30
0.0000000000000001
 70
     8
  0
VERTEX
  5
C0C3
  8
PROF
 10
1.609497882140658
 20
9.3963066472123273
 30
0.0000000000000001
 70
     8
  0
VERTEX
  5
C0C4
  8
PROF
 10
1.584418793621637
 20
9.3492451949202842
 30
0.0000000000000001
 70
     8
  0
VERTEX
  5
C0C5
  8
PROF
 10
1.557251423058744
 20
9.3061594355972375
 30
0.0000000000000001
 70
     8
  0
VERTEX
  5
C0C6
  8
PROF
 10
1.5281281597949601
 20
9.2668088357519292
 30
0.0000000000000001
 70
     8
  0
VERTEX
  5
C0C7
  8
PROF
 10
1.4971813931729789
 20
9.2309528618930017
 30
0.0000000000000001
 70
     8
  0
VERTEX
  5
C0C8
  8
PROF
 10
1.464543512535726
 20
9.1983509805288577
 30
0.0000000000000001
 70
     8
  0
VERTEX
  5
C0C9
  8
PROF
 10
1.4303469072260091
 20
9.1687626581682462
 30
0.0000000000000001
 70
     8
  0
VERTEX
  5
C0CA
  8
PROF
 10
1.3947360332574019
 20
9.1419547918675335
 30
0.0000000000000001
 70
     8
  0
VERTEX
  5
C0CB
  8
PROF
 10
1.3579036133264131
 20
9.1177240008747731
 30
0.0000000000000001
 70
     8
  0
VERTEX
  5
C0CC
  8
PROF
 10
1.3200544368004321
 20
9.0958743349860924
 30
0.0000000000000001
 70
     8
  0
VERTEX
  5
C0CD
  8
PROF
 10
1.281393293046676
 20
9.0762098439975034
 30
0.0000000000000001
 70
     8
  0
VERTEX
  5
C0CE
  8
PROF
 10
1.242124971432417
 20
9.0585345777049042
 30
0.0000000000000001
 70
     8
  0
VERTEX
  5
C0CF
  8
PROF
 10
1.2024542613249869
 20
9.0426525859044204
 30
0.0000000000000001
 70
     8
  0
VERTEX
  5
C0D0
  8
PROF
 10
1.1625859520916599
 20
9.0283679183919503
 30
0.0000000000000001
 70
     8
  0
VERTEX
  5
C0D1
  8
PROF
 10
1.1227248330997091
 20
9.0154846249635057
 30
0.0000000000000001
 70
     8
  0
VERTEX
  5
C0D2
  8
PROF
 10
1.0829726247361
 20
9.0034643862466055
 30
0.0000000000000001
 70
     8
  0
VERTEX
  5
C0D3
  8
PROF
 10
1.043018771466222
 20
8.9903994061946833
 30
0.0000000000000001
 70
     8
  0
VERTEX
  5
C0D4
  8
PROF
 10
1.002449648775211
 20
8.9740395195925657
 30
0.0000000000000001
 70
     8
  0
VERTEX
  5
C0D5
  8
PROF
 10
0.9608516321480919
 20
8.9521345612251935
 30
0.0000000000000001
 70
     8
  0
VERTEX
  5
C0D6
  8
PROF
 10
0.9178110970699435
 20
8.9224343658775052
 30
0.0000000000000001
 70
     8
  0
VERTEX
  5
C0D7
  8
PROF
 10
0.8729144190259034
 20
8.8826887683343312
 30
0.0000000000000001
 70
     8
  0
VERTEX
  5
C0D8
  8
PROF
 10
0.8257479735009951
 20
8.8306476033806121
 30
0.0000000000000001
 70
     8
  0
VERTEX
  5
C0D9
  8
PROF
 10
0.7758981359802988
 20
8.764060705801171
 30
0.0000000000000001
 70
     8
  0
VERTEX
  5
C0DA
  8
PROF
 10
1.729201901609656
 20
9.8629858761255491
 30
0.0000000000000001
 70
    16
  0
VERTEX
  5
C0DB
  8
PROF
 10
1.6793731231140889
 20
9.4532143012734196
 30
0.0000000000000001
 70
    16
  0
VERTEX
  5
C0DC
  8
PROF
 10
1.4455611507419801
 20
9.1391837193732481
 30
0.0000000000000001
 70
    16
  0
VERTEX
  5
C0DD
  8
PROF
 10
1.120463717273821
 20
9.0026267702428413
 30
0.0000000000000001
 70
    16
  0
VERTEX
  5
C0DE
  8
PROF
 10
0.9127765582653638
 20
8.9630202230383702
 30
0.0000000000000001
 70
    16
  0
VERTEX
  5
C0DF
  8
PROF
 10
0.7758981359802988
 20
8.764060705801171
 30
0.0000000000000001
 70
    16
  0
SEQEND
  5
C0E0
  8
PROF
  0
ARC
  5
C0E1
  8
PROF
 10
0.733429816733235
 20
8.4849506952165257
 30
0.0000000000000001
 40
0.2823224329524727
 50
269.73652020831901
 51
81.348449993176914
  0
LINE
  5
C0E2
  8
PROF
  6
CONTINUOUS
 10
-0.0000008570117416
 20
9.1943336957369866
 30
-0.0000000000000001
 11
3.6306271195888371
 21
13.325025853350891
 31
0.0000000000000002
  0
POLYLINE
  5
C0E3
  8
PROF
 66
     1
 10
0.0
 20
0.0
 30
0.0000000000000001
 70
     4
 75
     6
  0
VERTEX
  5
C0E4
  8
PROF
 10
4.5198575031869259
 20
12.72227734589444
 30
0.0000000000000001
 70
    16
  0
VERTEX
  5
C0E5
  8
PROF
 10
4.5198575031869259
 20
12.72227734589444
 30
0.0000000000000001
 70
     8
  0
VERTEX
  5
C0E6
  8
PROF
 10
4.4467035366886298
 20
12.741128108778071
 30
0.0000000000000001
 70
     8
  0
VERTEX
  5
C0E7
  8
PROF
 10
4.3786645761268801
 20
12.754675269913941
 30
0.0000000000000001
 70
     8
  0
VERTEX
  5
C0E8
  8
PROF
 10
4.3154364111440477
 20
12.76334314092332
 30
0.0000000000000001
 70
     8
  0
VERTEX
  5
C0E9
  8
PROF
 10
4.256714831382566
 20
12.76755603342724
 30
0.0000000000000001
 70
     8
  0
VERTEX
  5
C0EA
  8
PROF
 10
4.2021956264849791
 20
12.76773825904672
 30
0.0000000000000001
 70
     8
  0
VERTEX
  5
C0EB
  8
PROF
 10
4.1515745860935453
 20
12.764314129403139
 30
0.0000000000000001
 70
     8
  0
VERTEX
  5
C0EC
  8
PROF
 10
4.1045474998508658
 20
12.75770795611743
 30
0.0000000000000001
 70
     8
  0
VERTEX
  5
C0ED
  8
PROF
 10
4.0608101573993158
 20
12.748344050810831
 30
0.0000000000000001
 70
     8
  0
VERTEX
  5
C0EE
  8
PROF
 10
4.0200583483813261
 20
12.736646725104491
 30
0.0000000000000001
 70
     8
  0
VERTEX
  5
C0EF
  8
PROF
 10
3.9819878624393819
 20
12.72304029061945
 30
0.0000000000000001
 70
     8
  0
VERTEX
  5
C0F0
  8
PROF
 10
3.946294489215858
 20
12.707949058976959
 30
0.0000000000000001
 70
     8
  0
VERTEX
  5
C0F1
  8
PROF
 10
3.9126740183532429
 20
12.691797341798059
 30
0.0000000000000001
 70
     8
  0
VERTEX
  5
C0F2
  8
PROF
 10
3.8808638350742508
 20
12.67494295718654
 30
0.0000000000000001
 70
     8
  0
VERTEX
  5
C0F3
  8
PROF
 10
3.850767706922738
 20
12.65747774917668
 30
0.0000000000000001
 70
     8
  0
VERTEX
  5
C0F4
  8
PROF
 10
3.8223309970228452
 20
12.639427068285499
 30
0.0000000000000001
 70
     8
  0
VERTEX
  5
C0F5
  8
PROF
 10
3.7954990684987129
 20
12.62081626503004
 30
0.0000000000000001
 70
     8
  0
VERTEX
  5
C0F6
  8
PROF
 10
3.7702172844744828
 20
12.601670689926999
 30
0.0000000000000001
 70
     8
  0
VERTEX
  5
C0F7
  8
PROF
 10
3.746431008074353
 20
12.58201569349364
 30
0.0000000000000001
 70
     8
  0
VERTEX
  5
C0F8
  8
PROF
 10
3.7240856024224618
 20
12.56187662624666
 30
0.0000000000000001
 70
     8
  0
VERTEX
  5
C0F9
  8
PROF
 10
3.7031264306428961
 20
12.541278838703191
 30
0.0000000000000001
 70
     8
  0
VERTEX
  5
C0FA
  8
PROF
 10
3.6834988558599089
 20
12.520247681380051
 30
0.0000000000000001
 70
     8
  0
VERTEX
  5
C0FB
  8
PROF
 10
3.665148241197528
 20
12.49880850479428
 30
0.0000000000000001
 70
     8
  0
VERTEX
  5
C0FC
  8
PROF
 10
3.6480199497799499
 20
12.47698665946279
 30
0.0000000000000001
 70
     8
  0
VERTEX
  5
C0FD
  8
PROF
 10
3.6320593447313172
 20
12.45480749590263
 30
0.0000000000000001
 70
     8
  0
VERTEX
  5
C0FE
  8
PROF
 10
3.6171895848866589
 20
12.43223790353807
 30
0.0000000000000001
 70
     8
  0
VERTEX
  5
C0FF
  8
PROF
 10
3.6032450119242858
 20
12.40901092742285
 30
0.0000000000000001
 70
     8
  0
VERTEX
  5
C100
  8
PROF
 10
3.590037763233453
 20
12.38480115151844
 30
0.0000000000000001
 70
     8
  0
VERTEX
  5
C101
  8
PROF
 10
3.5773799762033032
 20
12.35928315978594
 30
0.0000000000000001
 70
     8
  0
VERTEX
  5
C102
  8
PROF
 10
3.5650837882230908
 20
12.33213153618658
 30
0.0000000000000001
 70
     8
  0
VERTEX
  5
C103
  8
PROF
 10
3.5529613366819599
 20
12.303020864681571
 30
0.0000000000000001
 70
     8
  0
VERTEX
  5
C104
  8
PROF
 10
3.540824758969165
 20
12.271625729232371
 30
0.0000000000000001
 70
     8
  0
VERTEX
  5
C105
  8
PROF
 10
3.5284861924738489
 20
12.23762071379997
 30
0.0000000000000001
 70
     8
  0
VERTEX
  5
C106
  8
PROF
 10
3.5157577745852668
 20
12.200680402345711
 30
0.0000000000000001
 70
     8
  0
VERTEX
  5
C107
  8
PROF
 10
3.5024516426926189
 20
12.16047937883093
 30
0.0000000000000001
 70
     8
  0
VERTEX
  5
C108
  8
PROF
 10
3.4883799341851041
 20
12.116692227216619
 30
0.0000000000000001
 70
     8
  0
VERTEX
  5
C109
  8
PROF
 10
3.4733547864519201
 20
12.06899353146423
 30
0.0000000000000001
 70
     8
  0
VERTEX
  5
C10A
  8
PROF
 10
3.45723654619428
 20
12.0172095445447
 30
0.0000000000000001
 70
     8
  0
VERTEX
  5
C10B
  8
PROF
 10
3.4400783973613889
 20
11.961773195467799
 30
0.0000000000000001
 70
     8
  0
VERTEX
  5
C10C
  8
PROF
 10
3.421981733214579
 20
11.90326908225302
 30
0.0000000000000001
 70
     8
  0
VERTEX
  5
C10D
  8
PROF
 10
3.4030479470150108
 20
11.842281802919951
 30
0.0000000000000001
 70
     8
  0
VERTEX
  5
C10E
  8
PROF
 10
3.383378432024017
 20
11.779395955487979
 30
0.0000000000000001
 70
     8
  0
VERTEX
  5
C10F
  8
PROF
 10
3.3630745815028709
 20
11.715196137976809
 30
0.0000000000000001
 70
     8
  0
VERTEX
  5
C110
  8
PROF
 10
3.3422377887127359
 20
11.650266948405831
 30
0.0000000000000001
 70
     8
  0
VERTEX
  5
C111
  8
PROF
 10
3.320969446915
 20
11.58519298479461
 30
0.0000000000000001
 70
     8
  0
VERTEX
  5
C112
  8
PROF
 10
3.2993709493707679
 20
11.520558845162549
 30
0.0000000000000001
 70
     8
  0
VERTEX
  5
C113
  8
PROF
 10
3.277543689341428
 20
11.456949127529469
 30
0.0000000000000001
 70
     8
  0
VERTEX
  5
C114
  8
PROF
 10
3.2555890600881412
 20
11.3949484299145
 30
0.0000000000000001
 70
     8
  0
VERTEX
  5
C115
  8
PROF
 10
3.233608454872182
 20
11.335141350337491
 30
0.0000000000000001
 70
     8
  0
VERTEX
  5
C116
  8
PROF
 10
3.2116715641212181
 20
11.27799544797778
 30
0.0000000000000001
 70
     8
  0
VERTEX
  5
C117
  8
PROF
 10
3.189721266927847
 20
11.22351012665467
 30
0.0000000000000001
 70
     8
  0
VERTEX
  5
C118
  8
PROF
 10
3.1676687395512881
 20
11.17156775134765
 30
0.0000000000000001
 70
     8
  0
VERTEX
  5
C119
  8
PROF
 10
3.1454251582505321
 20
11.12205068703588
 30
0.0000000000000001
 70
     8
  0
VERTEX
  5
C11A
  8
PROF
 10
3.122901699284625
 20
11.07484129869874
 30
0.0000000000000001
 70
     8
  0
VERTEX
  5
C11B
  8
PROF
 10
3.1000095389127291
 20
11.02982195131551
 30
0.0000000000000001
 70
     8
  0
VERTEX
  5
C11C
  8
PROF
 10
3.0766598533938909
 20
10.986875009865679
 30
0.0000000000000001
 70
     8
  0
VERTEX
  5
C11D
  8
PROF
 10
3.0527638189871591
 20
10.9458828393283
 30
0.0000000000000001
 70
     8
  0
VERTEX
  5
C11E
  8
PROF
 10
3.0282326119516361
 20
10.90672780468298
 30
0.0000000000000001
 70
     8
  0
VERTEX
  5
C11F
  8
PROF
 10
3.002977408546371
 20
10.869292270908771
 30
0.0000000000000001
 70
     8
  0
VERTEX
  5
C120
  8
PROF
 10
2.9769093850304098
 20
10.833458602985161
 30
0.0000000000000001
 70
     8
  0
VERTEX
  5
C121
  8
PROF
 10
2.9499397176628568
 20
10.799109165891419
 30
0.0000000000000001
 70
     8
  0
VERTEX
  5
C122
  8
PROF
 10
2.9220006098404379
 20
10.76614363969508
 30
0.0000000000000001
 70
     8
  0
VERTEX
  5
C123
  8
PROF
 10
2.8931083735103011
 20
10.7345309648158
 30
0.0000000000000001
 70
     8
  0
VERTEX
  5
C124
  8
PROF
 10
2.8633003477572738
 20
10.70425739676193
 30
0.0000000000000001
 70
     8
  0
VERTEX
  5
C125
  8
PROF
 10
2.8326138716660689
 20
10.67530919104115
 30
0.0000000000000001
 70
     8
  0
VERTEX
  5
C126
  8
PROF
 10
2.8010862843216269
 20
10.647672603161711
 30
0.0000000000000001
 70
     8
  0
VERTEX
  5
C127
  8
PROF
 10
2.7687549248087171
 20
10.62133388863162
 30
0.0000000000000001
 70
     8
  0
VERTEX
  5
C128
  8
PROF
 10
2.735657132212054
 20
10.5962793029588
 30
0.0000000000000001
 70
     8
  0
VERTEX
  5
C129
  8
PROF
 10
2.7018302456165202
 20
10.572495101651381
 30
0.0000000000000001
 70
     8
  0
VERTEX
  5
C12A
  8
PROF
 10
2.6673116041068852
 20
10.54996754021726
 30
0.0000000000000001
 70
     8
  0
VERTEX
  5
C12B
  8
PROF
 10
2.6321385467680321
 20
10.528682874164581
 30
0.0000000000000001
 70
     8
  0
VERTEX
  5
C12C
  8
PROF
 10
2.5963484126846188
 20
10.508627359001251
 30
0.0000000000000001
 70
     8
  0
VERTEX
  5
C12D
  8
PROF
 10
2.5599785409415849
 20
10.489787250235279
 30
0.0000000000000001
 70
     8
  0
VERTEX
  5
C12E
  8
PROF
 10
2.522998630314361
 20
10.472162234281081
 30
0.0000000000000001
 70
     8
  0
VERTEX
  5
C12F
  8
PROF
 10
2.4851078183409072
 20
10.455805721177621
 30
0.0000000000000001
 70
     8
  0
VERTEX
  5
C130
  8
PROF
 10
2.4459376022498982
 20
10.44078455187036
 30
0.0000000000000001
 70
     8
  0
VERTEX
  5
C131
  8
PROF
 10
2.4051194792701258
 20
10.42716556730465
 30
0.0000000000000001
 70
     8
  0
VERTEX
  5
C132
  8
PROF
 10
2.3622849466301541
 20
10.415015608425851
 30
0.0000000000000001
 70
     8
  0
VERTEX
  5
C133
  8
PROF
 10
2.3170655015587149
 20
10.40440151617929
 30
0.0000000000000001
 70
     8
  0
VERTEX
  5
C134
  8
PROF
 10
2.2690926412844301
 20
10.395390131510339
 30
0.0000000000000001
 70
     8
  0
VERTEX
  5
C135
  8
PROF
 10
2.2179978630360888
 20
10.388048295364451
 30
0.0000000000000001
 70
     8
  0
VERTEX
  5
C136
  8
PROF
 10
2.1634126640422551
 20
10.38244284868688
 30
0.0000000000000001
 70
     8
  0
VERTEX
  5
C137
  8
PROF
 10
2.104968541531604
 20
10.37864063242295
 30
0.0000000000000001
 70
     8
  0
VERTEX
  5
C138
  8
PROF
 10
2.0422969927328718
 20
10.37670848751816
 30
0.0000000000000001
 70
     8
  0
VERTEX
  5
C139
  8
PROF
 10
1.9750295148747341
 20
10.37671325491794
 30
0.0000000000000001
 70
     8
  0
VERTEX
  5
C13A
  8
PROF
 10
4.2166060115107484
 20
12.80885334975255
 30
0.0000000000000001
 70
    16
  0
VERTEX
  5
C13B
  8
PROF
 10
3.8702254102732918
 20
12.707065515763929
 30
0.0000000000000001
 70
    16
  0
VERTEX
  5
C13C
  8
PROF
 10
3.605346156896871
 20
12.46277472098552
 30
0.0000000000000001
 70
    16
  0
VERTEX
  5
C13D
  8
PROF
 10
3.500746030527238
 20
12.170680575709749
 30
0.0000000000000001
 70
    16
  0
VERTEX
  5
C13E
  8
PROF
 10
3.231798439705698
 20
11.26846416496107
 30
0.0000000000000001
 70
    16
  0
VERTEX
  5
C13F
  8
PROF
 10
2.9737109398832891
 20
10.76631086647069
 30
0.0000000000000001
 70
    16
  0
VERTEX
  5
C140
  8
PROF
 10
2.5729961067384011
 20
10.460947364504699
 30
0.0000000000000001
 70
    16
  0
VERTEX
  5
C141
  8
PROF
 10
2.253782621454604
 20
10.372731239449759
 30
0.0000000000000001
 70
    16
  0
VERTEX
  5
C142
  8
PROF
 10
1.9750295148747341
 20
10.37671325491794
 30
0.0000000000000001
 70
    16
  0
SEQEND
  5
C143
  8
PROF
  0
LINE
  5
C144
  8
PROF
 10
4.9012016798694162
 20
12.88585218805485
 30
0.0000000000000003
 11
4.5198575031869259
 21
12.88585218805485
 31
0.0000000000000003
  0
LINE
  5
C145
  8
PROF
 10
0.7321315362267457
 20
8.2026312473991538
 30
0.0000000000000006
 11
0.7321315362267457
 21
8.0511853963434987
 31
0.0000000000000006
  0
ARC
  5
C146
  8
PROF
 10
0.7977322214551919
 20
7.5773339332026799
 30
0.0000000000000006
 40
0.4783708383912012
 50
97.882010168942529
 51
186.31119505698649
  0
LINE
  5
C147
  8
FRAME_050
 10
7.8016377197432121
 20
17.99371054969447
 30
0.0
 11
7.8016377197432121
 21
0.0000000000002274
 31
0.0
  0
ENDBLK
  5
C149
  8
0
  0
BLOCK
  8
0
  2
*U58
 70
     1
 10
0.0
 20
0.0
 30
0.0
  3
*U58
  1

  0
TEXT
  5
12640
  8
0
 10
3.5177832928899071
 20
10.38601584255777
 30
0.0
 40
0.125
  1
Crown Moulding
  0
TEXT
  5
12641
  8
0
 10
3.5223876585106431
 20
10.17717091304435
 30
0.0
 40
0.125
  1
TL-AB509
  0
TEXT
  5
12642
  8
0
 10
3.5074661032582561
 20
9.9667059289606801
 30
0.0
 40
0.125
  1
1-5/16" x 7-9/16"
  0
TEXT
  5
12643
  8
0
 10
3.519403347460166
 20
9.7562409448770051
 30
0.0
 40
0.125
  1
800.66.TAGUE
  0
ENDBLK
  5
12645
  8
0
  0
BLOCK
  8
0
  2
*U59
 70
     1
 10
0.0
 20
0.0
 30
0.0
  3
*U59
  1

  0
TEXT
  5
12647
  8
0
 10
5.3066868277875692
 20
1.767659498411035
 30
0.0
 40
0.125
  1
Back Band
  0
TEXT
  5
12648
  8
0
 10
5.3153839628489603
 20
1.55881456889762
 30
0.0
 40
0.125
  1
TL-1
  0
TEXT
  5
12649
  8
0
 10
5.3004624075965721
 20
1.3483495848139451
 30
0.0
 40
0.125
  1
1-3/8" x 1-9/16"
  0
TEXT
  5
1264A
  8
0
 10
5.3123996517984819
 20
1.137884600730271
 30
0.0
 40
0.125
  1
800.66.TAGUE
  0
ENDBLK
  5
1264C
  8
0
  0
BLOCK
  8
0
  2
*U60
 70
     1
 10
0.0
 20
0.0
 30
0.0
  3
*U60
  1

  0
TEXT
  5
1264E
  8
0
 10
2.551252809835812
 20
0.9623111621543785
 30
0.0
 40
0.125
  1
Back Band
  0
TEXT
  5
1264F
  8
0
 10
2.5599499448972041
 20
0.7534662326409634
 30
0.0
 40
0.125
  1
TL-288
  0
TEXT
  5
12650
  8
0
 10
2.5450283896448158
 20
0.5430012485572889
 30
0.0
 40
0.125
  1
1-11/16" x 1-13/16"
  0
TEXT
  5
12651
  8
0
 10
2.5569656338467261
 20
0.3325362644736145
 30
0.0
 40
0.125
  1
800.66.TAGUE
  0
ENDBLK
  5
12653
  8
0
  0
BLOCK
  8
0
  2
*U61
 70
     1
 10
0.0
 20
0.0
 30
0.0
  3
*U61
  1

  0
TEXT
  5
12655
  8
0
 10
1.8364329238504911
 20
0.882982778245946
 30
0.0
 40
0.125
  1
Back Band
  0
TEXT
  5
12656
  8
0
 10
1.845130058911882
 20
0.6741378487325309
 30
0.0
 40
0.125
  1
TL-289
  0
TEXT
  5
12657
  8
0
 10
1.8302085036594951
 20
0.4636728646488565
 30
0.0
 40
0.125
  1
1-1/16" x 1-11/16"
  0
TEXT
  5
12658
  8
0
 10
1.8421457478614049
 20
0.2532078805651821
 30
0.0
 40
0.125
  1
800.66.TAGUE
  0
ENDBLK
  5
1265A
  8
0
  0
BLOCK
  8
0
  2
*U62
 70
     1
 10
0.0
 20
0.0
 30
0.0
  3
*U62
  1

  0
TEXT
  5
1265C
  8
0
 10
1.929931786774016
 20
0.8512665098620573
 30
0.0
 40
0.125
  1
Back Band
  0
TEXT
  5
1265D
  8
0
 10
1.9386289218354069
 20
0.6424215803486422
 30
0.0
 40
0.125
  1
TL-601
  0
TEXT
  5
1265E
  8
0
 10
1.92370736658302
 20
0.4319565962649678
 30
0.0
 40
0.125
  1
1-5/16" x 1-3/8"
  0
TEXT
  5
1265F
  8
0
 10
1.9356446107849301
 20
0.2214916121812933
 30
0.0
 40
0.125
  1
800.66.TAGUE
  0
ENDBLK
  5
12661
  8
0
  0
BLOCK
  8
0
  2
*U63
 70
     1
 10
0.0
 20
0.0
 30
0.0
  3
*U63
  1

  0
TEXT
  5
12663
  8
0
 10
1.8237739904796331
 20
0.9081704084311468
 30
0.0
 40
0.125
  1
Back Band
  0
TEXT
  5
12664
  8
0
 10
1.832471125541024
 20
0.6993254789177317
 30
0.0
 40
0.125
  1
TL-2075
  0
TEXT
  5
12665
  8
0
 10
1.8175495702886371
 20
0.4888604948340573
 30
0.0
 40
0.125
  1
1-5/16" x 1-5/8"
  0
TEXT
  5
12666
  8
0
 10
1.829486814490547
 20
0.2783955107503828
 30
0.0
 40
0.125
  1
800.66.TAGUE
  0
ENDBLK
  5
12668
  8
0
  0
BLOCK
  8
0
  2
*U64
 70
     1
 10
0.0
 20
0.0
 30
0.0
  3
*U64
  1

  0
TEXT
  5
1266A
  8
0
 10
1.9545668919090351
 20
0.8644213446237927
 30
0.0
 40
0.125
  1
Back Band
  0
TEXT
  5
1266B
  8
0
 10
1.963264026970426
 20
0.6555764151103776
 30
0.0
 40
0.125
  1
TL-2208 
  0
TEXT
  5
1266C
  8
0
 10
1.9483424717180391
 20
0.4451114310267032
 30
0.0
 40
0.125
  1
1-3/8" x 1-5/8"
  0
TEXT
  5
1266D
  8
0
 10
1.960279715919949
 20
0.2346464469430287
 30
0.0
 40
0.125
  1
800.66.TAGUE
  0
ENDBLK
  5
1266F
  8
0
  0
BLOCK
  8
0
  2
*U65
 70
     1
 10
0.0
 20
0.0
 30
0.0
  3
*U65
  1

  0
TEXT
  5
12671
  8
0
 10
2.7644474121262692
 20
0.8344220463493456
 30
0.0
 40
0.125
  1
Back Band
  0
TEXT
  5
12672
  8
0
 10
2.7731445471876608
 20
0.6255771168359307
 30
0.0
 40
0.125
  1
TL-2221 
  0
TEXT
  5
12673
  8
0
 10
2.7689665117169922
 20
0.4151121327522561
 30
0.0
 40
0.125
  1
7/8" x 1-3/4"
  0
TEXT
  5
12674
  8
0
 10
2.7701602361371829
 20
0.2046471486685817
 30
0.0
 40
0.125
  1
800.66.TAGUE
  0
ENDBLK
  5
12676
  8
0
  0
BLOCK
  8
0
  2
*U66
 70
     1
 10
0.0
 20
0.0
 30
0.0
  3
*U66
  1

  0
TEXT
  5
12678
  8
0
 10
2.6915324485008609
 20
1.1836703361148011
 30
0.0
 40
0.125
  1
Back Band
  0
TEXT
  5
12679
  8
0
 10
2.700229583562253
 20
0.974825406601386
 30
0.0
 40
0.125
  1
TL-2266
  0
TEXT
  5
1267A
  8
0
 10
2.685308028309866
 20
0.7643604225177115
 30
0.0
 40
0.125
  1
1-11/32" x 1-15/32"
  0
TEXT
  5
1267B
  8
0
 10
2.697245272511775
 20
0.5538954384340372
 30
0.0
 40
0.125
  1
800.66.TAGUE
  0
ENDBLK
  5
1267D
  8
0
  0
BLOCK
  8
0
  2
*U67
 70
     1
 10
0.0
 20
0.0
 30
0.0
  3
*U67
  1

  0
TEXT
  5
1267F
  8
0
 10
3.1852595440213172
 20
1.4826139655959869
 30
0.0
 40
0.125
  1
Back Band
  0
TEXT
  5
12680
  8
0
 10
3.1939566790827079
 20
1.273769036082572
 30
0.0
 40
0.125
  1
TL-2293
  0
TEXT
  5
12681
  8
0
 10
3.1790351238303209
 20
1.0147194680971241
 30
0.0
 40
0.125
  1
1-
  0
TEXT
  5
12682
  8
0
 10
3.3285150010472382
 20
1.1040697409484199
 30
0.0
 40
0.0875
  1
7
  0
LINE
  5
12683
  8
0
 10
3.3553421833758441
 20
1.032393937073133
 30
0.0
 11
3.4557180597372761
 21
1.1757455448237071
 31
0.0
  0
TEXT
  5
12684
  8
0
 10
3.4151594985461009
 20
0.9855528014304578
 30
0.0
 40
0.0875
  1
8
  0
TEXT
  5
12685
  8
0
 10
3.483619594044054
 20
1.0147194680971241
 30
0.0
 40
0.125
  1
" x 2-
  0
TEXT
  5
12686
  8
0
 10
3.8794330319703851
 20
1.1040697409484199
 30
0.0
 40
0.0875
  1
7
  0
LINE
  5
12687
  8
0
 10
3.9062602142989902
 20
1.032393937073133
 30
0.0
 11
4.0066360906604244
 21
1.1757455448237071
 31
0.0
  0
TEXT
  5
12688
  8
0
 10
3.957721458527911
 20
0.9855528014304578
 30
0.0
 40
0.0875
  1
16
  0
TEXT
  5
12689
  8
0
 10
4.0939254148717028
 20
1.0147194680971241
 30
0.0
 40
0.125
  1
"
  0
TEXT
  5
1268A
  8
0
 10
3.1909723680322308
 20
0.8459211506801169
 30
0.0
 40
0.125
  1
800.66.TAGUE
  0
ENDBLK
  5
1268C
  8
0
  0
BLOCK
  8
0
  2
*U68
 70
     1
 10
0.0
 20
0.0
 30
0.0
  3
*U68
  1

  0
TEXT
  5
1268E
  8
0
 10
2.4900996379053408
 20
1.0092498715596481
 30
0.0
 40
0.125
  1
Baluster Stock
  0
TEXT
  5
1268F
  8
0
 10
2.4987967729667329
 20
0.800404942046233
 30
0.0
 40
0.125
  1
TL-236
  0
TEXT
  5
12690
  8
0
 10
2.4838752177143451
 20
0.5899399579625585
 30
0.0
 40
0.125
  1
1-9/16" x 1-9/16"
  0
TEXT
  5
12691
  8
0
 10
2.4958124619162549
 20
0.3794749738788841
 30
0.0
 40
0.125
  1
800.66.TAGUE
  0
ENDBLK
  5
12693
  8
0
  0
BLOCK
  8
0
  2
*U69
 70
     1
 10
0.0
 20
0.0
 30
0.0
  3
*U69
  1

  0
TEXT
  5
12695
  8
0
 10
2.3591545502839431
 20
0.9010435759007737
 30
0.0
 40
0.125
  1
Baluster Stock
  0
TEXT
  5
12696
  8
0
 10
2.3678516853453342
 20
0.6921986463873587
 30
0.0
 40
0.125
  1
TL-237
  0
TEXT
  5
12697
  8
0
 10
2.3529301300929468
 20
0.4817336623036842
 30
0.0
 40
0.125
  1
1-5/16" x 1-5/16"
  0
TEXT
  5
12698
  8
0
 10
2.3648673742948572
 20
0.2712686782200098
 30
0.0
 40
0.125
  1
800.66.TAGUE
  0
ENDBLK
  5
1269A
  8
0
  0
BLOCK
  8
0
  2
*U70
 70
     1
 10
0.0
 20
0.0
 30
0.0
  3
*U70
  1

  0
TEXT
  5
1269C
  8
0
 10
2.098510450655322
 20
0.7826568183311498
 30
0.0
 40
0.125
  1
Baluster Stock
  0
TEXT
  5
1269D
  8
0
 10
2.1072075857167132
 20
0.5738118888177346
 30
0.0
 40
0.125
  1
TL-238
  0
TEXT
  5
1269E
  8
0
 10
2.0922860304643258
 20
0.3633469047340601
 30
0.0
 40
0.125
  1
1-1/16" x 1-1/16"
  0
TEXT
  5
1269F
  8
0
 10
2.1042232746662362
 20
0.1528819206503857
 30
0.0
 40
0.125
  1
800.66.TAGUE
  0
ENDBLK
  5
126A1
  8
0
  0
BLOCK
  8
0
  2
*U71
 70
     1
 10
0.0
 20
0.0
 30
0.0
  3
*U71
  1

  0
TEXT
  5
126A3
  8
0
 10
1.7835912292499461
 20
0.6784890753194919
 30
0.0
 40
0.125
  1
Baluster Stock
  0
TEXT
  5
126A4
  8
0
 10
1.792288364311337
 20
0.4696441458060768
 30
0.0
 40
0.125
  1
TL-239
  0
TEXT
  5
126A5
  8
0
 10
1.7890482551708189
 20
0.2591791617224023
 30
0.0
 40
0.125
  1
3/4" x 3/4"
  0
TEXT
  5
126A6
  8
0
 10
1.78930405326086
 20
0.0487141776387279
 30
0.0
 40
0.125
  1
800.66.TAGUE
  0
ENDBLK
  5
126A8
  8
0
  0
BLOCK
  8
0
  2
*U72
 70
     1
 10
0.0
 20
0.0
 30
0.0
  3
*U72
  1

  0
TEXT
  5
126AA
  8
0
 10
2.750346038648086
 20
1.209669783574115
 30
0.0
 40
0.125
  1
Baluster Stock
  0
TEXT
  5
126AB
  8
0
 10
2.7590431737094772
 20
1.0008248540607001
 30
0.0
 40
0.125
  1
TL-526
  0
TEXT
  5
126AC
  8
0
 10
2.7441216184570898
 20
0.7903598699770261
 30
0.0
 40
0.125
  1
1-3/4" x 1-3/4"
  0
TEXT
  5
126AD
  8
0
 10
2.7560588626590001
 20
0.5798948858933518
 30
0.0
 40
0.125
  1
800.66.TAGUE
  0
ENDBLK
  5
126AF
  8
0
  0
BLOCK
  8
0
  2
*U73
 70
     1
 10
0.0
 20
0.0
 30
0.0
  3
*U73
  1

  0
TEXT
  5
126B1
  8
0
 10
4.1934393821158942
 20
3.6154353709422362
 30
0.0
 40
0.125
  1
Bar Rail
  0
TEXT
  5
126B2
  8
0
 10
4.2021365171772853
 20
3.4065904414288211
 30
0.0
 40
0.125
  1
TL-13
  0
TEXT
  5
126B3
  8
0
 10
4.19898167406678
 20
3.1961254573451461
 30
0.0
 40
0.125
  1
5-1/2" x 1-5/8"
  0
TEXT
  5
126B4
  8
0
 10
4.199152206126807
 20
2.985660473261472
 30
0.0
 40
0.125
  1
800.66.TAGUE
  0
ENDBLK
  5
126B6
  8
0
  0
BLOCK
  8
0
  2
*U74
 70
     1
 10
0.0
 20
0.0
 30
0.0
  3
*U74
  1

  0
TEXT
  5
126B8
  8
0
 10
2.7915496004018041
 20
1.6928133759646471
 30
0.0
 40
0.125
  1
Bar Rail
  0
TEXT
  5
126B9
  8
0
 10
2.8002467354631961
 20
1.483968446451231
 30
0.0
 40
0.125
  1
TL-130
  0
TEXT
  5
126BA
  8
0
 10
2.7853251802108079
 20
1.273503462367557
 30
0.0
 40
0.125
  1
1-11/16" x 2-1/4"
  0
TEXT
  5
126BB
  8
0
 10
2.7972624244127182
 20
1.0630384782838831
 30
0.0
 40
0.125
  1
800.66.TAGUE
  0
ENDBLK
  5
126BD
  8
0
  0
BLOCK
  8
0
  2
*U75
 70
     1
 10
0.0
 20
0.0
 30
0.0
  3
*U75
  1

  0
TEXT
  5
126BF
  8
0
 10
0.7422973615718824
 20
1.83447380854534
 30
0.0
 40
0.125
  1
Bar Rail
  0
TEXT
  5
126C0
  8
0
 10
0.750994496633274
 20
1.625628879031924
 30
0.0
 40
0.125
  1
TL-537
  0
TEXT
  5
126C1
  8
0
 10
0.7360729413808864
 20
1.4151638949482499
 30
0.0
 40
0.125
  1
1-5/16" x 5-3/16" / 7/8" x 3-1/16"
  0
TEXT
  5
126C2
  8
0
 10
0.7480101855827965
 20
1.204698910864576
 30
0.0
 40
0.125
  1
800.66.TAGUE
  0
ENDBLK
  5
126C4
  8
0
  0
BLOCK
  8
0
  2
*U76
 70
     1
 10
0.0
 20
0.0
 30
0.0
  3
*U76
  1

  0
TEXT
  5
126C6
  8
0
 10
1.8164004611375999
 20
3.819697741885534
 30
0.0
 40
0.125
  1
Base Board Assembly
  0
TEXT
  5
126C7
  8
0
 10
1.8250975961989919
 20
3.610852812372118
 30
0.0
 40
0.125
  1
TL-680
  0
TEXT
  5
126C8
  8
0
 10
1.8101760409466039
 20
3.4003878282884439
 30
0.0
 40
0.125
  1
1-1/16" x 6-3/4"
  0
TEXT
  5
126C9
  8
0
 10
1.822113285148514
 20
3.1899228442047698
 30
0.0
 40
0.125
  1
800.66.TAGUE
  0
ENDBLK
  5
126CB
  8
0
  0
BLOCK
  8
0
  2
*U77
 70
     1
 10
0.0
 20
0.0
 30
0.0
  3
*U77
  1

  0
TEXT
  5
126CD
  8
0
 10
1.880121442934813
 20
2.5708737061797931
 30
0.0
 40
0.125
  1
TL-541
  0
ENDBLK
  5
126CF
  8
0
  0
BLOCK
  8
0
  2
*U78
 70
     1
 10
0.0
 20
0.0
 30
0.0
  3
*U78
  1

  0
INSERT
  5
126D1
  8
0
  2
_OPEN30
 10
0.9370004965966245
 20
1.998969839043752
 30
0.0
 41
0.046875
 42
0.046875
 43
0.046875
 50
220.2352165150823
  0
POLYLINE
  5
126D2
  8
0
 66
     1
 10
0.0
 20
0.0
 30
0.0
  0
VERTEX
  5
126D3
  8
0
 10
0.9727848321090522
 20
2.0292476685058189
 30
0.0
  0
VERTEX
  5
126D4
  8
0
 10
1.687083141229663
 20
2.633629504269833
 30
0.0
  0
VERTEX
  5
126D5
  8
0
 10
1.8217142123754679
 20
2.633629504269833
 30
0.0
  0
SEQEND
  5
126D6
  8
0
  0
ENDBLK
  5
126D8
  8
0
  0
BLOCK
  8
0
  2
*U79
 70
     1
 10
0.0
 20
0.0
 30
0.0
  3
*U79
  1

  0
TEXT
  5
126DA
  8
0
 10
1.8608875418177091
 20
6.6078272811635204
 30
0.0
 40
0.125
  1
TL-540
  0
TEXT
  5
126DB
  8
0
 10
1.8649803112583641
 20
6.399238149740146
 30
0.0
 40
0.125
  1
 
  0
ENDBLK
  5
126DD
  8
0
  0
BLOCK
  8
0
  2
*U80
 70
     1
 10
0.0
 20
0.0
 30
0.0
  3
*U80
  1

  0
INSERT
  5
126DF
  8
0
  2
_OPEN30
 10
0.8157519259211198
 20
5.9858143171212532
 30
0.0
 41
0.046875
 42
0.046875
 43
0.046875
 50
218.1633806826421
  0
POLYLINE
  5
126E0
  8
0
 66
     1
 10
0.0
 20
0.0
 30
0.0
  0
VERTEX
  5
126E1
  8
0
 10
0.8526074872282775
 20
6.0147786611624072
 30
0.0
  0
VERTEX
  5
126E2
  8
0
 10
1.687083141229663
 20
6.6705830792535599
 30
0.0
  0
VERTEX
  5
126E3
  8
0
 10
1.8024803112583641
 20
6.6705830792535599
 30
0.0
  0
SEQEND
  5
126E4
  8
0
  0
ENDBLK
  5
126E6
  8
0
  0
BLOCK
  8
0
  2
*U81
 70
     1
 10
0.0
 20
0.0
 30
0.0
  3
*U81
  1

  0
TEXT
  5
126E8
  8
0
 10
1.200091944455248
 20
3.6095250915403758
 30
0.0
 40
0.125
  1
Base Board Assembly
  0
TEXT
  5
126E9
  8
0
 10
1.2087890795166401
 20
3.4006801620269611
 30
0.0
 40
0.125
  1
TL-681
  0
TEXT
  5
126EA
  8
0
 10
1.193867524264252
 20
3.190215177943287
 30
0.0
 40
0.125
  1
1" x 9-1/4"
  0
TEXT
  5
126EB
  8
0
 10
1.2058047684661619
 20
2.979750193859612
 30
0.0
 40
0.125
  1
800.66.TAGUE
  0
ENDBLK
  5
126ED
  8
0
  0
BLOCK
  8
0
  2
*U82
 70
     1
 10
0.0
 20
0.0
 30
0.0
  3
*U82
  1

  0
INSERT
  5
126EF
  8
0
  6
CONTINUOUS
  2
_OPEN30
 10
0.7500005591156196
 20
6.587852449929982
 30
0.0
 41
0.046875
 42
0.046875
 43
0.046875
 50
224.09146837719419
  0
POLYLINE
  5
126F0
  8
0
  6
CONTINUOUS
 66
     1
 10
0.0
 20
0.0
 30
0.0
  0
VERTEX
  5
126F1
  8
0
  6
CONTINUOUS
 10
0.7836675863640283
 20
6.6204683494462451
 30
0.0
  0
VERTEX
  5
126F2
  8
0
  6
CONTINUOUS
 10
1.7133956757769511
 20
7.5211691365396973
 30
0.0
  0
VERTEX
  5
126F3
  8
0
  6
CONTINUOUS
 10
1.9000752793112949
 20
7.5211691365396973
 30
0.0
  0
SEQEND
  5
126F4
  8
0
  6
CONTINUOUS
  0
ENDBLK
  5
126F6
  8
0
  0
BLOCK
  8
0
  2
*U83
 70
     1
 10
0.0
 20
0.0
 30
0.0
  3
*U83
  1

  0
TEXT
  5
126F8
  8
0
 10
1.95848250987064
 20
7.458413338449656
 30
0.0
 40
0.125
  1
TL-602
  0
ENDBLK
  5
126FA
  8
0
  0
BLOCK
  8
0
  2
*U84
 70
     1
 10
0.0
 20
0.0
 30
0.0
  3
*U84
  1

  0
INSERT
  5
126FC
  8
0
  6
CONTINUOUS
  2
_OPEN30
 10
1.0000005591156189
 20
0.8124995480944789
 30
0.0
 41
0.046875
 42
0.046875
 43
0.046875
 50
224.09146837719419
  0
POLYLINE
  5
126FD
  8
0
  6
CONTINUOUS
 66
     1
 10
0.0
 20
0.0
 30
0.0
  0
VERTEX
  5
126FE
  8
0
  6
CONTINUOUS
 10
1.0336675863640279
 20
0.8451154476107411
 30
0.0
  0
VERTEX
  5
126FF
  8
0
  6
CONTINUOUS
 10
1.9633956757769511
 20
1.745816234704193
 30
0.0
  0
VERTEX
  5
12700
  8
0
  6
CONTINUOUS
 10
2.1500752793112952
 20
1.745816234704193
 30
0.0
  0
SEQEND
  5
12701
  8
0
  6
CONTINUOUS
  0
ENDBLK
  5
12703
  8
0
  0
BLOCK
  8
0
  2
*U85
 70
     1
 10
0.0
 20
0.0
 30
0.0
  3
*U85
  1

  0
TEXT
  5
12705
  8
0
 10
2.20848250987064
 20
1.6828046385241111
 30
0.0
 40
0.125
  1
TL-266
  0
ENDBLK
  5
12707
  8
0
  0
BLOCK
  8
0
  2
*U86
 70
     1
 10
0.0
 20
0.0
 30
0.0
  3
*U86
  1

  0
INSERT
  5
12709
  8
0
  6
CONTINUOUS
  2
_OPEN30
 10
0.7500004105942253
 20
6.3960963538685291
 30
0.0
 41
0.046875
 42
0.046875
 43
0.046875
 50
219.47434747209351
  0
POLYLINE
  5
1270A
  8
0
  6
CONTINUOUS
 66
     1
 10
0.0
 20
0.0
 30
0.0
  0
VERTEX
  5
1270B
  8
0
  6
CONTINUOUS
 10
0.7861836586409798
 20
6.4258963234286979
 30
0.0
  0
VERTEX
  5
1270C
  8
0
  6
CONTINUOUS
 10
1.374056000801033
 20
6.9100589911637371
 30
0.0
  0
VERTEX
  5
1270D
  8
0
  6
CONTINUOUS
 10
1.5384924777565061
 20
6.9100589911637371
 30
0.0
  0
SEQEND
  5
1270E
  8
0
  6
CONTINUOUS
  0
ENDBLK
  5
12710
  8
0
  0
BLOCK
  8
0
  2
*U87
 70
     1
 10
0.0
 20
0.0
 30
0.0
  3
*U87
  1

  0
TEXT
  5
12712
  8
0
 10
1.5968997083158509
 20
6.8473031930736958
 30
0.0
 40
0.125
  1
TL-550
  0
ENDBLK
  5
12714
  8
0
  0
BLOCK
  8
0
  2
*U88
 70
     1
 10
0.0
 20
0.0
 30
0.0
  3
*U88
  1

  0
INSERT
  5
12716
  8
0
  6
CONTINUOUS
  2
_OPEN30
 10
0.7500004105942253
 20
2.53267018701797
 30
0.0
 41
0.046875
 42
0.046875
 43
0.046875
 50
222.22478218143399
  0
POLYLINE
  5
12717
  8
0
  6
CONTINUOUS
 66
     1
 10
0.0
 20
0.0
 30
0.0
  0
VERTEX
  5
12718
  8
0
  6
CONTINUOUS
 10
0.7847120037465148
 20
2.5641721064171099
 30
0.0
  0
VERTEX
  5
12719
  8
0
  6
CONTINUOUS
 10
1.5311175519539111
 20
3.2415598401215671
 30
0.0
  0
VERTEX
  5
1271A
  8
0
  6
CONTINUOUS
 10
1.6247289838881891
 20
3.2416177465441929
 30
0.0
  0
SEQEND
  5
1271B
  8
0
  6
CONTINUOUS
  0
ENDBLK
  5
1271D
  8
0
  0
BLOCK
  8
0
  2
*U89
 70
     1
 10
0.0
 20
0.0
 30
0.0
  3
*U89
  1

  0
TEXT
  5
1271F
  8
0
 10
1.6831362144475339
 20
3.178861948454152
 30
0.0
 40
0.125
  1
TL-551
  0
ENDBLK
  5
12721
  8
0
  0
BLOCK
  8
0
  2
*U90
 70
     1
 10
0.0
 20
0.0
 30
0.0
  3
*U90
  1

  0
INSERT
  5
12723
  8
0
  6
CONTINUOUS
  2
_OPEN30
 10
1.04738175721161
 20
0.4967917735383481
 30
0.0
 41
0.046875
 42
0.046875
 43
0.046875
 50
212.67418530855349
  0
POLYLINE
  5
12724
  8
0
  6
CONTINUOUS
 66
     1
 10
0.0
 20
0.0
 30
0.0
  0
VERTEX
  5
12725
  8
0
  6
CONTINUOUS
 10
1.0868389807680281
 20
0.5220977636240739
 30
0.0
  0
VERTEX
  5
12726
  8
0
  6
CONTINUOUS
 10
1.4785839895729389
 20
0.7733444154513336
 30
0.0
  0
VERTEX
  5
12727
  8
0
  6
CONTINUOUS
 10
1.535363721355395
 20
0.7733444154513336
 30
0.0
  0
SEQEND
  5
12728
  8
0
  6
CONTINUOUS
  0
ENDBLK
  5
1272A
  8
0
  0
BLOCK
  8
0
  2
*U91
 70
     1
 10
0.0
 20
0.0
 30
0.0
  3
*U91
  1

  0
TEXT
  5
1272C
  8
0
 10
1.5937709519147401
 20
0.7105886173612928
 30
0.0
 40
0.125
  1
TL-127
  0
ENDBLK
  5
1272E
  8
0
  0
BLOCK
  8
0
  2
*U92
 70
     1
 10
0.0
 20
0.0
 30
0.0
  3
*U92
  1

  0
TEXT
  5
12730
  8
0
 10
2.1409458709672249
 20
2.6869009874993699
 30
0.0
 40
0.125
  1
Base Board Assembly
  0
TEXT
  5
12731
  8
0
 10
2.1496430060286169
 20
2.4780560579859552
 30
0.0
 40
0.125
  1
TL-682
  0
TEXT
  5
12732
  8
0
 10
2.1347214507762291
 20
2.2675910739022811
 30
0.0
 40
0.125
  1
1-1/16" x 7-3/8"
  0
TEXT
  5
12733
  8
0
 10
2.146658694978139
 20
2.057126089818607
 30
0.0
 40
0.125
  1
800.66.TAGUE
  0
ENDBLK
  5
12735
  8
0
  0
BLOCK
  8
0
  2
*U93
 70
     1
 10
0.0
 20
0.0
 30
0.0
  3
*U93
  1

  0
TEXT
  5
12737
  8
0
 10
2.290801695922692
 20
2.6689022993974731
 30
0.0
 40
0.125
  1
Base Board Assembly
  0
TEXT
  5
12738
  8
0
 10
2.2994988309840831
 20
2.4600573698840571
 30
0.0
 40
0.125
  1
TL-683
  0
TEXT
  5
12739
  8
0
 10
2.2845772757316962
 20
2.249592385800383
 30
0.0
 40
0.125
  1
1-1/8" x 5-15/16"
  0
TEXT
  5
1273A
  8
0
 10
2.2965145199336061
 20
2.0391274017167089
 30
0.0
 40
0.125
  1
800.66.TAGUE
  0
ENDBLK
  5
1273C
  8
0
  0
BLOCK
  8
0
  2
*U94
 70
     1
 10
0.0
 20
0.0
 30
0.0
  3
*U94
  1

  0
INSERT
  5
1273E
  8
0
  6
CONTINUOUS
  2
_OPEN30
 10
1.12500054900903
 20
5.65624955358237
 30
0.0
 41
0.046875
 42
0.046875
 43
0.046875
 50
212.76268937863
  0
POLYLINE
  5
1273F
  8
0
  6
CONTINUOUS
 66
     1
 10
0.0
 20
0.0
 30
0.0
  0
VERTEX
  5
12740
  8
0
  6
CONTINUOUS
 10
1.164418635662722
 20
5.6816164625300907
 30
0.0
  0
VERTEX
  5
12741
  8
0
  6
CONTINUOUS
 10
1.5566905795914741
 20
5.9340570939541522
 30
0.0
  0
VERTEX
  5
12742
  8
0
  6
CONTINUOUS
 10
1.625384535953855
 20
5.9340570939541522
 30
0.0
  0
SEQEND
  5
12743
  8
0
  6
CONTINUOUS
  0
ENDBLK
  5
12745
  8
0
  0
BLOCK
  8
0
  2
*U95
 70
     1
 10
0.0
 20
0.0
 30
0.0
  3
*U95
  1

  0
TEXT
  5
12747
  8
0
 10
1.6837917665132001
 20
5.8710454977740696
 30
0.0
 40
0.125
  1
TL-522
  0
ENDBLK
  5
12749
  8
0
  0
BLOCK
  8
0
  2
*U96
 70
     1
 10
0.0
 20
0.0
 30
0.0
  3
*U96
  1

  0
INSERT
  5
1274B
  8
0
  6
CONTINUOUS
  2
_OPEN30
 10
1.2500005459876879
 20
0.2499995505611423
 30
0.0
 41
0.046875
 42
0.046875
 43
0.046875
 50
202.31861548713121
  0
POLYLINE
  5
1274C
  8
0
  6
CONTINUOUS
 66
     1
 10
0.0
 20
0.0
 30
0.0
  0
VERTEX
  5
1274D
  8
0
  6
CONTINUOUS
 10
1.293363970221912
 20
0.2678006478217807
 30
0.0
  0
VERTEX
  5
1274E
  8
0
  6
CONTINUOUS
 10
2.1572010681318261
 20
0.6224139761923198
 30
0.0
  0
VERTEX
  5
1274F
  8
0
  6
CONTINUOUS
 10
2.2687807536349851
 20
0.626210466030102
 30
0.0
  0
SEQEND
  5
12750
  8
0
  6
CONTINUOUS
  0
ENDBLK
  5
12752
  8
0
  0
BLOCK
  8
0
  2
*U97
 70
     1
 10
0.0
 20
0.0
 30
0.0
  3
*U97
  1

  0
TEXT
  5
12754
  8
0
 10
2.3271879841943299
 20
0.5634546679400611
 30
0.0
 40
0.125
  1
TL-126
  0
ENDBLK
  5
12756
  8
0
  0
BLOCK
  8
0
  2
*U98
 70
     1
 10
0.0
 20
0.0
 30
0.0
  3
*U98
  1

  0
INSERT
  5
12758
  8
0
  6
CONTINUOUS
  2
_OPEN30
 10
0.7500005490090304
 20
2.74999955358237
 30
0.0
 41
0.046875
 42
0.046875
 43
0.046875
 50
202.16313132933621
  0
POLYLINE
  5
12759
  8
0
  6
CONTINUOUS
 66
     1
 10
0.0
 20
0.0
 30
0.0
  0
VERTEX
  5
1275A
  8
0
  6
CONTINUOUS
 10
0.7934121205394016
 20
2.7676829096626911
 30
0.0
  0
VERTEX
  5
1275B
  8
0
  6
CONTINUOUS
 10
1.403356379662966
 20
3.0161388199879862
 30
0.0
  0
VERTEX
  5
1275C
  8
0
  6
CONTINUOUS
 10
1.4759478210543191
 20
3.0161388199879862
 30
0.0
  0
SEQEND
  5
1275D
  8
0
  6
CONTINUOUS
  0
ENDBLK
  5
1275F
  8
0
  0
BLOCK
  8
0
  2
*U99
 70
     1
 10
0.0
 20
0.0
 30
0.0
  3
*U99
  1

  0
TEXT
  5
12761
  8
0
 10
1.5194334963612759
 20
2.9533830218979449
 30
0.0
 40
0.125
  1
1 x 6
  0
ENDBLK
  5
12763
  8
0
  0
BLOCK
  8
0
  2
*U100
 70
     1
 10
0.0
 20
0.0
 30
0.0
  3
*U100
  1

  0
TEXT
  5
12765
  8
0
 10
2.704137288033603
 20
3.332115229613577
 30
0.0
 40
0.125
  1
Base Board Assembly
  0
TEXT
  5
12766
  8
0
 10
2.712834423094995
 20
3.1232703001001618
 30
0.0
 40
0.125
  1
TL-684
  0
TEXT
  5
12767
  8
0
 10
2.6979128678426072
 20
2.9128053160164882
 30
0.0
 40
0.125
  1
1-1/4" x 7-1/8"
  0
TEXT
  5
12768
  8
0
 10
2.7098501120445171
 20
2.7023403319328141
 30
0.0
 40
0.125
  1
800.66.TAGUE
  0
ENDBLK
  5
1276A
  8
0
  0
BLOCK
  8
0
  2
*U101
 70
     1
 10
0.0
 20
0.0
 30
0.0
  3
*U101
  1

  0
INSERT
  5
1276C
  8
0
  6
CONTINUOUS
  2
_OPEN30
 10
0.7451914169819816
 20
2.7500006434855768
 30
0.0
 41
0.046875
 42
0.046875
 43
0.046875
 50
202.16313132933621
  0
POLYLINE
  5
1276D
  8
0
  6
CONTINUOUS
 66
     1
 10
0.0
 20
0.0
 30
0.0
  0
VERTEX
  5
1276E
  8
0
  6
CONTINUOUS
 10
0.7886029885123529
 20
2.7676839995658988
 30
0.0
  0
VERTEX
  5
1276F
  8
0
  6
CONTINUOUS
 10
1.3985472476359171
 20
3.0161399098911938
 30
0.0
  0
VERTEX
  5
12770
  8
0
  6
CONTINUOUS
 10
1.47113868902727
 20
3.0161399098911938
 30
0.0
  0
SEQEND
  5
12771
  8
0
  6
CONTINUOUS
  0
ENDBLK
  5
12773
  8
0
  0
BLOCK
  8
0
  2
*U102
 70
     1
 10
0.0
 20
0.0
 30
0.0
  3
*U102
  1

  0
TEXT
  5
12775
  8
0
 10
1.5146243643342281
 20
2.953384111801153
 30
0.0
 40
0.125
  1
1 x 6
  0
ENDBLK
  5
12777
  8
0
  0
BLOCK
  8
0
  2
*U103
 70
     1
 10
0.0
 20
0.0
 30
0.0
  3
*U103
  1

  0
INSERT
  5
12779
  8
0
  6
CONTINUOUS
  2
_OPEN30
 10
1.1801914169819829
 20
0.4698936434855341
 30
0.0
 41
0.046875
 42
0.046875
 43
0.046875
 50
202.3186154871324
  0
POLYLINE
  5
1277A
  8
0
  6
CONTINUOUS
 66
     1
 10
0.0
 20
0.0
 30
0.0
  0
VERTEX
  5
1277B
  8
0
  6
CONTINUOUS
 10
1.2235548412162069
 20
0.4876947407461734
 30
0.0
  0
VERTEX
  5
1277C
  8
0
  6
CONTINUOUS
 10
2.0873919391260638
 20
0.8423080691167115
 30
0.0
  0
VERTEX
  5
1277D
  8
0
  6
CONTINUOUS
 10
2.1989716246292801
 20
0.8461045589546075
 30
0.0
  0
SEQEND
  5
1277E
  8
0
  6
CONTINUOUS
  0
ENDBLK
  5
12780
  8
0
  0
BLOCK
  8
0
  2
*U104
 70
     1
 10
0.0
 20
0.0
 30
0.0
  3
*U104
  1

  0
TEXT
  5
12782
  8
0
 10
2.2573788551886249
 20
0.7830929627745256
 30
0.0
 40
0.125
  1
TL-936
  0
ENDBLK
  5
12784
  8
0
  0
BLOCK
  8
0
  2
*U105
 70
     1
 10
0.0
 20
0.0
 30
0.0
  3
*U105
  1

  0
INSERT
  5
12786
  8
0
  6
CONTINUOUS
  2
_OPEN30
 10
1.1140370353124349
 20
6.0172615651794104
 30
0.0
 41
0.046875
 42
0.046875
 43
0.046875
 50
212.76268937861931
  0
POLYLINE
  5
12787
  8
0
  6
CONTINUOUS
 66
     1
 10
0.0
 20
0.0
 30
0.0
  0
VERTEX
  5
12788
  8
0
  6
CONTINUOUS
 10
1.153455121966132
 20
6.0426284741271239
 30
0.0
  0
VERTEX
  5
12789
  8
0
  6
CONTINUOUS
 10
1.5457270658948801
 20
6.2950691055510779
 30
0.0
  0
VERTEX
  5
1278A
  8
0
  6
CONTINUOUS
 10
1.614421022257261
 20
6.2950691055510779
 30
0.0
  0
SEQEND
  5
1278B
  8
0
  6
CONTINUOUS
  0
ENDBLK
  5
1278D
  8
0
  0
BLOCK
  8
0
  2
*U106
 70
     1
 10
0.0
 20
0.0
 30
0.0
  3
*U106
  1

  0
TEXT
  5
1278F
  8
0
 10
1.6728282528166061
 20
6.2320575093709971
 30
0.0
 40
0.125
  1
TL-64
  0
ENDBLK
  5
12791
  8
0
  0
BLOCK
  8
0
  2
*U107
 70
     1
 10
0.0
 20
0.0
 30
0.0
  3
*U107
  1

  0
INSERT
  5
12793
  8
0
  2
_OPEN30
 10
0.7499984483362711
 20
3.323717158281283
 30
0.0
 41
0.046875
 42
0.046875
 43
0.046875
 50
223.3453603417224
  0
POLYLINE
  5
12794
  8
0
 66
     1
 10
0.0
 20
0.0
 30
0.0
  0
VERTEX
  5
12795
  8
0
 10
0.7840873347090377
 20
3.3558918913938451
 30
0.0
  0
VERTEX
  5
12796
  8
0
 10
1.5886209634041959
 20
4.1152494867193354
 30
0.0
  0
VERTEX
  5
12797
  8
0
 10
1.696609421136031
 20
4.1152494867193354
 30
0.0
  0
SEQEND
  5
12798
  8
0
  0
ENDBLK
  5
1279A
  8
0
  0
BLOCK
  8
0
  2
*U108
 70
     1
 10
0.0
 20
0.0
 30
0.0
  3
*U108
  1

  0
TEXT
  5
1279C
  8
0
 10
1.755016651695376
 20
4.0522378905392529
 30
0.0
 40
0.125
  1
TL-AB212
  0
ENDBLK
  5
1279E
  8
0
  0
BLOCK
  8
0
  2
*U109
 70
     1
 10
0.0
 20
0.0
 30
0.0
  3
*U109
  1

  0
INSERT
  5
127A0
  8
0
  2
_OPEN30
 10
1.044936595452554
 20
0.5089059855812366
 30
0.0
 41
0.046875
 42
0.046875
 43
0.046875
 50
218.32432662178419
  0
POLYLINE
  5
127A1
  8
0
 66
     1
 10
0.0
 20
0.0
 30
0.0
  0
VERTEX
  5
127A2
  8
0
 10
1.0817106495577451
 20
0.5379737438310308
 30
0.0
  0
VERTEX
  5
127A3
  8
0
 10
1.624617115981436
 20
0.9671098372601819
 30
0.0
  0
VERTEX
  5
127A4
  8
0
 10
1.7056084592803691
 20
0.9671098372601819
 30
0.0
  0
SEQEND
  5
127A5
  8
0
  0
ENDBLK
  5
127A7
  8
0
  0
BLOCK
  8
0
  2
*U110
 70
     1
 10
0.0
 20
0.0
 30
0.0
  3
*U110
  1

  0
TEXT
  5
127A9
  8
0
 10
1.7640156898397139
 20
0.9043540391701409
 30
0.0
 40
0.125
  1
TL-AB027
  0
ENDBLK
  5
127AB
  8
0
  0
BLOCK
  8
0
  2
*U111
 70
     1
 10
0.0
 20
0.0
 30
0.0
  3
*U111
  1

  0
TEXT
  5
127AD
  8
0
 10
2.1745549234235391
 20
2.6225473309813192
 30
0.0
 40
0.125
  1
Base Board Assembly
  0
TEXT
  5
127AE
  8
0
 10
2.1832520584849302
 20
2.413702401467904
 30
0.0
 40
0.125
  1
TL-685
  0
TEXT
  5
127AF
  8
0
 10
2.1683305032325428
 20
2.2032374173842291
 30
0.0
 40
0.125
  1
1-1/4" x 5-1/2"
  0
TEXT
  5
127B0
  8
0
 10
2.1802677474344532
 20
1.992772433300555
 30
0.0
 40
0.125
  1
800.66.TAGUE
  0
ENDBLK
  5
127B2
  8
0
  0
BLOCK
  8
0
  2
*U112
 70
     1
 10
0.0
 20
0.0
 30
0.0
  3
*U112
  1

  0
INSERT
  5
127B4
  8
0
  2
_OPEN30
 10
1.237403731795552
 20
0.7228374639378217
 30
0.0
 41
0.046875
 42
0.046875
 43
0.046875
 50
218.32432662178419
  0
POLYLINE
  5
127B5
  8
0
 66
     1
 10
0.0
 20
0.0
 30
0.0
  0
VERTEX
  5
127B6
  8
0
 10
1.274177785900743
 20
0.7519052221876159
 30
0.0
  0
VERTEX
  5
127B7
  8
0
 10
1.8170842523244339
 20
1.1810413156167661
 30
0.0
  0
VERTEX
  5
127B8
  8
0
 10
1.898075595623367
 20
1.1810413156167661
 30
0.0
  0
SEQEND
  5
127B9
  8
0
  0
ENDBLK
  5
127BB
  8
0
  0
BLOCK
  8
0
  2
*U113
 70
     1
 10
0.0
 20
0.0
 30
0.0
  3
*U113
  1

  0
TEXT
  5
127BD
  8
0
 10
1.9564828261827121
 20
1.1180297194366851
 30
0.0
 40
0.125
  1
TL-AB205-2
  0
ENDBLK
  5
127BF
  8
0
  0
BLOCK
  8
0
  2
*U114
 70
     1
 10
0.0
 20
0.0
 30
0.0
  3
*U114
  1

  0
INSERT
  5
127C1
  8
0
  2
_OPEN30
 10
0.7805394140341379
 20
3.428009497764946
 30
0.0
 41
0.046875
 42
0.046875
 43
0.046875
 50
223.3453603417224
  0
POLYLINE
  5
127C2
  8
0
 66
     1
 10
0.0
 20
0.0
 30
0.0
  0
VERTEX
  5
127C3
  8
0
 10
0.8146283004069044
 20
3.460184230877509
 30
0.0
  0
VERTEX
  5
127C4
  8
0
 10
1.619161929102062
 20
4.219541826202998
 30
0.0
  0
VERTEX
  5
127C5
  8
0
 10
1.727150386833898
 20
4.219541826202998
 30
0.0
  0
SEQEND
  5
127C6
  8
0
  0
ENDBLK
  5
127C8
  8
0
  0
BLOCK
  8
0
  2
*U115
 70
     1
 10
0.0
 20
0.0
 30
0.0
  3
*U115
  1

  0
TEXT
  5
127CA
  8
0
 10
1.785557617393243
 20
4.1565302300229172
 30
0.0
 40
0.125
  1
TL-AB205-1
  0
ENDBLK
  5
127CC
  8
0
  0
BLOCK
  8
0
  2
*U116
 70
     1
 10
0.0
 20
0.0
 30
0.0
  3
*U116
  1

  0
TEXT
  5
127CE
  8
0
 10
1.775461282784117
 20
2.9617887573592721
 30
0.0
 40
0.125
  1
Base Board Assembly
  0
TEXT
  5
127CF
  8
0
 10
1.784158417845509
 20
2.7529438278458569
 30
0.0
 40
0.125
  1
TL-686
  0
TEXT
  5
127D0
  8
0
 10
1.769236862593121
 20
2.5424788437621819
 30
0.0
 40
0.125
  1
1-1/4" x 6"
  0
TEXT
  5
127D1
  8
0
 10
1.7811741067950311
 20
2.3320138596785078
 30
0.0
 40
0.125
  1
800.66.TAGUE
  0
ENDBLK
  5
127D3
  8
0
  0
BLOCK
  8
0
  2
*U117
 70
     1
 10
0.0
 20
0.0
 30
0.0
  3
*U117
  1

  0
TEXT
  5
127D5
  8
0
 10
1.8629812104003169
 20
1.3751718201384611
 30
0.0
 40
0.125
  1
Base Board
  0
TEXT
  5
127D6
  8
0
 10
1.8716783454617081
 20
1.1663268906250459
 30
0.0
 40
0.125
  1
TL-540
  0
TEXT
  5
127D7
  8
0
 10
1.8567567902093209
 20
0.9558619065413724
 30
0.0
 40
0.125
  1
1-1/16" x 1-7/8"
  0
TEXT
  5
127D8
  8
0
 10
1.8686940344112311
 20
0.745396922457698
 30
0.0
 40
0.125
  1
800.66.TAGUE
  0
ENDBLK
  5
127DA
  8
0
  0
BLOCK
  8
0
  2
*U118
 70
     1
 10
0.0
 20
0.0
 30
0.0
  3
*U118
  1

  0
TEXT
  5
127DC
  8
0
 10
2.095166123738732
 20
2.843700788541923
 30
0.0
 40
0.125
  1
Base Board
  0
TEXT
  5
127DD
  8
0
 10
2.1038632588001231
 20
2.6348558590285078
 30
0.0
 40
0.125
  1
TL-541
  0
TEXT
  5
127DE
  8
0
 10
2.0889417035477358
 20
2.4243908749448329
 30
0.0
 40
0.125
  1
1-5/16" x 5-1/8"
  0
TEXT
  5
127DF
  8
0
 10
2.1008789477496461
 20
2.2139258908611592
 30
0.0
 40
0.125
  1
800.66.TAGUE
  0
ENDBLK
  5
127E1
  8
0
  0
BLOCK
  8
0
  2
*U119
 70
     1
 10
0.0
 20
0.0
 30
0.0
  3
*U119
  1

  0
TEXT
  5
127E3
  8
0
 10
1.3029084100507859
 20
2.5127676930541152
 30
0.0
 40
0.125
  1
Base Board
  0
TEXT
  5
127E4
  8
0
 10
1.3116055451121771
 20
2.3039227635407
 30
0.0
 40
0.125
  1
TL-36
  0
TEXT
  5
127E5
  8
0
 10
1.3084507020016729
 20
2.093457779457025
 30
0.0
 40
0.125
  1
9/16" x 5-1/16"
  0
TEXT
  5
127E6
  8
0
 10
1.3086212340617001
 20
1.882992795373351
 30
0.0
 40
0.125
  1
800.66.TAGUE
  0
ENDBLK
  5
127E8
  8
0
  0
BLOCK
  8
0
  2
*U120
 70
     1
 10
0.0
 20
0.0
 30
0.0
  3
*U120
  1

  0
TEXT
  5
127EA
  8
0
 10
1.1612344098374301
 20
2.1628857347385511
 30
0.0
 40
0.125
  1
Base Board
  0
TEXT
  5
127EB
  8
0
 10
1.169931544898821
 20
1.9540408052251359
 30
0.0
 40
0.125
  1
TL-543
  0
TEXT
  5
127EC
  8
0
 10
1.1667767017883159
 20
1.743575821141462
 30
0.0
 40
0.125
  1
9/16" x 4-3/16"
  0
TEXT
  5
127ED
  8
0
 10
1.1669472338483431
 20
1.5331108370577871
 30
0.0
 40
0.125
  1
800.66.TAGUE
  0
ENDBLK
  5
127EF
  8
0
  0
BLOCK
  8
0
  2
*U121
 70
     1
 10
0.0
 20
0.0
 30
0.0
  3
*U121
  1

  0
TEXT
  5
127F1
  8
0
 10
1.038992604214154
 20
2.7540114932149891
 30
0.0
 40
0.125
  1
Base Board
  0
TEXT
  5
127F2
  8
0
 10
1.0476897392755451
 20
2.545166563701573
 30
0.0
 40
0.125
  1
TL-618
  0
TEXT
  5
127F3
  8
0
 10
1.0445348961650409
 20
2.3347015796178989
 30
0.0
 40
0.125
  1
9/16" x 5-1/4"
  0
TEXT
  5
127F4
  8
0
 10
1.0447054282250681
 20
2.1242365955342248
 30
0.0
 40
0.125
  1
800.66.TAGUE
  0
ENDBLK
  5
127F6
  8
0
  0
BLOCK
  8
0
  2
*U122
 70
     1
 10
0.0
 20
0.0
 30
0.0
  3
*U122
  1

  0
TEXT
  5
127F8
  8
0
 10
1.182401194441109
 20
1.819766214437663
 30
0.0
 40
0.125
  1
Base Board
  0
TEXT
  5
127F9
  8
0
 10
1.1910983295024999
 20
1.610921284924248
 30
0.0
 40
0.125
  1
TL-623
  0
TEXT
  5
127FA
  8
0
 10
1.1879434863919951
 20
1.400456300840573
 30
0.0
 40
0.125
  1
9/16" x 3-1/2"
  0
TEXT
  5
127FB
  8
0
 10
1.188114018452022
 20
1.189991316756899
 30
0.0
 40
0.125
  1
800.66.TAGUE
  0
ENDBLK
  5
127FD
  8
0
  0
BLOCK
  8
0
  2
*U123
 70
     1
 10
0.0
 20
0.0
 30
0.0
  3
*U123
  1

  0
TEXT
  5
127FF
  8
0
 10
1.300654159433843
 20
1.884782119222677
 30
0.0
 40
0.125
  1
Base Board
  0
TEXT
  5
12800
  8
0
 10
1.309351294495235
 20
1.6759371897092621
 30
0.0
 40
0.125
  1
TL-713
  0
TEXT
  5
12801
  8
0
 10
1.30619645138473
 20
1.4654722056255871
 30
0.0
 40
0.125
  1
9/16" x 3-1/4"
  0
TEXT
  5
12802
  8
0
 10
1.3063669834447571
 20
1.255007221541913
 30
0.0
 40
0.125
  1
800.66.TAGUE
  0
ENDBLK
  5
12804
  8
0
  0
BLOCK
  8
0
  2
*U124
 70
     1
 10
0.0
 20
0.0
 30
0.0
  3
*U124
  1

  0
TEXT
  5
12806
  8
0
 10
1.5968605762384229
 20
3.9529851600731258
 30
0.0
 40
0.125
  1
Base Board
  0
TEXT
  5
12807
  8
0
 10
1.6055577112998141
 20
3.7441402305597111
 30
0.0
 40
0.125
  1
TL-602
  0
TEXT
  5
12808
  8
0
 10
1.602317602159296
 20
3.5336752464760361
 30
0.0
 40
0.125
  1
3/4" x 9-1/4"
  0
TEXT
  5
12809
  8
0
 10
1.602573400249337
 20
3.3232102623923621
 30
0.0
 40
0.125
  1
800.66.TAGUE
  0
ENDBLK
  5
1280B
  8
0
  0
BLOCK
  8
0
  2
*U125
 70
     1
 10
0.0
 20
0.0
 30
0.0
  3
*U125
  1

  0
TEXT
  5
1280D
  8
0
 10
1.524246887462577
 20
2.1988362265429942
 30
0.0
 40
0.125
  1
Base Board
  0
TEXT
  5
1280E
  8
0
 10
1.532944022523969
 20
1.989991297029579
 30
0.0
 40
0.125
  1
TL-603
  0
TEXT
  5
1280F
  8
0
 10
1.52970391338345
 20
1.779526312945904
 30
0.0
 40
0.125
  1
3/4" x 4-1/2"
  0
TEXT
  5
12810
  8
0
 10
1.5299597114734911
 20
1.5690613288622299
 30
0.0
 40
0.125
  1
800.66.TAGUE
  0
ENDBLK
  5
12812
  8
0
  0
BLOCK
  8
0
  2
*U126
 70
     1
 10
0.0
 20
0.0
 30
0.0
  3
*U126
  1

  0
TEXT
  5
12814
  8
0
 10
1.222563432627662
 20
2.8332029065544471
 30
0.0
 40
0.125
  1
Base Board
  0
TEXT
  5
12815
  8
0
 10
1.231260567689054
 20
2.6243579770410319
 30
0.0
 40
0.125
  1
TL-2143
  0
TEXT
  5
12816
  8
0
 10
1.228020458548535
 20
2.4138929929573569
 30
0.0
 40
0.125
  1
3/4" x 5-1/4"
  0
TEXT
  5
12817
  8
0
 10
1.2282762566385761
 20
2.2034280088736828
 30
0.0
 40
0.125
  1
800.66.TAGUE
  0
ENDBLK
  5
12819
  8
0
  0
BLOCK
  8
0
  2
*U127
 70
     1
 10
0.0
 20
0.0
 30
0.0
  3
*U127
  1

  0
TEXT
  5
1281B
  8
0
 10
1.40527247153032
 20
2.9709364495405448
 30
0.0
 40
0.125
  1
Base Board
  0
TEXT
  5
1281C
  8
0
 10
1.4139696065917109
 20
2.7620915200271301
 30
0.0
 40
0.125
  1
TL-2001
  0
TEXT
  5
1281D
  8
0
 10
1.410729497451193
 20
2.5516265359434551
 30
0.0
 40
0.125
  1
3/4" x 7-1/4"
  0
TEXT
  5
1281E
  8
0
 10
1.4109852955412341
 20
2.341161551859781
 30
0.0
 40
0.125
  1
800.66.TAGUE
  0
ENDBLK
  5
12820
  8
0
  0
BLOCK
  8
0
  2
*U128
 70
     1
 10
0.0
 20
0.0
 30
0.0
  3
*U128
  1

  0
TEXT
  5
12822
  8
0
 10
1.28063331752558
 20
2.7081572525072479
 30
0.0
 40
0.125
  1
Base Board
  0
TEXT
  5
12823
  8
0
 10
1.289330452586972
 20
2.4993123229938332
 30
0.0
 40
0.125
  1
TL-2022
  0
TEXT
  5
12824
  8
0
 10
1.286090343446453
 20
2.2888473389101591
 30
0.0
 40
0.125
  1
3/4" x 5-1/2"
  0
TEXT
  5
12825
  8
0
 10
1.2863461415364941
 20
2.078382354826485
 30
0.0
 40
0.125
  1
800.66.TAGUE
  0
ENDBLK
  5
12827
  8
0
  0
BLOCK
  8
0
  2
*U129
 70
     1
 10
0.0
 20
0.0
 30
0.0
  3
*U129
  1

  0
TEXT
  5
12829
  8
0
 10
1.3261446082858399
 20
3.4366400904110601
 30
0.0
 40
0.125
  1
Base Board
  0
TEXT
  5
1282A
  8
0
 10
1.334841743347231
 20
3.227795160897645
 30
0.0
 40
0.125
  1
TL-2153
  0
TEXT
  5
1282B
  8
0
 10
1.3338185509870679
 20
3.01733017681397
 30
0.0
 40
0.125
  1
27/32" x 7-1/4"
  0
TEXT
  5
1282C
  8
0
 10
1.331857432296754
 20
2.8068651927302959
 30
0.0
 40
0.125
  1
800.66.TAGUE
  0
ENDBLK
  5
1282E
  8
0
  0
BLOCK
  8
0
  2
*U130
 70
     1
 10
0.0
 20
0.0
 30
0.0
  3
*U130
  1

  0
TEXT
  5
12830
  8
0
 10
1.503489615688391
 20
2.5863204410039771
 30
0.0
 40
0.125
  1
Base Board
  0
TEXT
  5
12831
  8
0
 10
1.5121867507497819
 20
2.377475511490561
 30
0.0
 40
0.125
  1
TL-2165
  0
TEXT
  5
12832
  8
0
 10
1.5080087152791131
 20
2.1670105274068869
 30
0.0
 40
0.125
  1
7/8" x 6"
  0
TEXT
  5
12833
  8
0
 10
1.509202439699304
 20
1.9565455433232131
 30
0.0
 40
0.125
  1
800.66.TAGUE
  0
ENDBLK
  5
12835
  8
0
  0
BLOCK
  8
0
  2
*U131
 70
     1
 10
0.0
 20
0.0
 30
0.0
  3
*U131
  1

  0
TEXT
  5
12837
  8
0
 10
1.5064754642446401
 20
2.3208047060226131
 30
0.0
 40
0.125
  1
Base Board
  0
TEXT
  5
12838
  8
0
 10
1.5151725993060321
 20
2.111959776509198
 30
0.0
 40
0.125
  1
TL-2189
  0
TEXT
  5
12839
  8
0
 10
1.511932490165514
 20
1.901494792425523
 30
0.0
 40
0.125
  1
3/4" x 4-7/8"
  0
TEXT
  5
1283A
  8
0
 10
1.512188288255554
 20
1.6910298083418489
 30
0.0
 40
0.125
  1
800.66.TAGUE
  0
ENDBLK
  5
1283C
  8
0
  0
BLOCK
  8
0
  2
*U132
 70
     1
 10
0.0
 20
0.0
 30
0.0
  3
*U132
  1

  0
TEXT
  5
1283E
  8
0
 10
1.548400335642536
 20
1.277467791325875
 30
0.0
 40
0.125
  1
Base Board
  0
TEXT
  5
1283F
  8
0
 10
1.557097470703928
 20
1.06862286181246
 30
0.0
 40
0.125
  1
TL-550
  0
TEXT
  5
12840
  8
0
 10
1.553857361563409
 20
0.858157877728786
 30
0.0
 40
0.125
  1
3/4" x 2-3/16"
  0
TEXT
  5
12841
  8
0
 10
1.5541131596534501
 20
0.6476928936451117
 30
0.0
 40
0.125
  1
800.66.TAGUE
  0
ENDBLK
  5
12843
  8
0
  0
BLOCK
  8
0
  2
*U133
 70
     1
 10
0.0
 20
0.0
 30
0.0
  3
*U133
  1

  0
TEXT
  5
12845
  8
0
 10
1.288066291210707
 20
2.8139586047301459
 30
0.0
 40
0.125
  1
Base Board
  0
TEXT
  5
12846
  8
0
 10
1.2967634262720991
 20
2.6051136752167312
 30
0.0
 40
0.125
  1
TL-551
  0
TEXT
  5
12847
  8
0
 10
1.2935233171315801
 20
2.3946486911330558
 30
0.0
 40
0.125
  1
3/4" x 5-1/2"
  0
TEXT
  5
12848
  8
0
 10
1.2937791152216209
 20
2.1841837070493821
 30
0.0
 40
0.125
  1
800.66.TAGUE
  0
ENDBLK
  5
1284A
  8
0
  0
BLOCK
  8
0
  2
*U134
 70
     1
 10
0.0
 20
0.0
 30
0.0
  3
*U134
  1

  0
TEXT
  5
1284C
  8
0
 10
1.8159948421621079
 20
3.2870887232147652
 30
0.0
 40
0.125
  1
Base Board
  0
TEXT
  5
1284D
  8
0
 10
1.8246919772235
 20
3.07824379370135
 30
0.0
 40
0.125
  1
TL-2231
  0
TEXT
  5
1284E
  8
0
 10
1.8205139417528311
 20
2.8677788096176751
 30
0.0
 40
0.125
  1
7/8" x 6-3/8"
  0
TEXT
  5
1284F
  8
0
 10
1.821707666173022
 20
2.657313825534001
 30
0.0
 40
0.125
  1
800.66.TAGUE
  0
ENDBLK
  5
12851
  8
0
  0
BLOCK
  8
0
  2
*U135
 70
     1
 10
0.0
 20
0.0
 30
0.0
  3
*U135
  1

  0
TEXT
  5
12853
  8
0
 10
1.78408614611963
 20
2.2765211976219462
 30
0.0
 40
0.125
  1
Base Board
  0
TEXT
  5
12854
  8
0
 10
1.7927832811810209
 20
2.067676268108531
 30
0.0
 40
0.125
  1
TL-2266
  0
TEXT
  5
12855
  8
0
 10
1.7895431720405031
 20
1.857211284024856
 30
0.0
 40
0.125
  1
3/4" x 5-1/2"
  0
TEXT
  5
12856
  8
0
 10
1.7897989701305439
 20
1.6467462999411819
 30
0.0
 40
0.125
  1
800.66.TAGUE
  0
ENDBLK
  5
12858
  8
0
  0
BLOCK
  8
0
  2
*U136
 70
     1
 10
0.0
 20
0.0
 30
0.0
  3
*U136
  1

  0
TEXT
  5
1285A
  8
0
 10
1.6156709723986571
 20
2.0615835911685281
 30
0.0
 40
0.125
  1
Base Board
  0
TEXT
  5
1285B
  8
0
 10
1.624368107460048
 20
1.8527386616551129
 30
0.0
 40
0.125
  1
TL-2284
  0
TEXT
  5
1285C
  8
0
 10
1.623327861893882
 20
1.6799953692494729
 30
0.0
 40
0.0875
  1
3
  0
LINE
  5
1285D
  8
0
 10
1.6501550442224879
 20
1.6083195653741871
 30
0.0
 11
1.750530920583921
 21
1.7516711731247601
 31
0.0
  0
TEXT
  5
1285E
  8
0
 10
1.713374473990289
 20
1.5633287025828071
 30
0.0
 40
0.0875
  1
4
  0
TEXT
  5
1285F
  8
0
 10
1.7812973934991569
 20
1.592495369249473
 30
0.0
 40
0.125
  1
" x 4"
  0
TEXT
  5
12860
  8
0
 10
1.621383796409571
 20
1.4236970518324661
 30
0.0
 40
0.125
  1
800.66.TAGUE
  0
ENDBLK
  5
12862
  8
0
  0
BLOCK
  8
0
  2
*U137
 70
     1
 10
0.0
 20
0.0
 30
0.0
  3
*U137
  1

  0
TEXT
  5
12864
  8
0
 10
1.985809015314014
 20
3.2420859682381429
 30
0.0
 40
0.125
  1
Base Board
  0
TEXT
  5
12865
  8
0
 10
1.9945061503754049
 20
3.0332410387247282
 30
0.0
 40
0.125
  1
TL-2312
  0
TEXT
  5
12866
  8
0
 10
1.991266041234887
 20
2.8227760546410532
 30
0.0
 40
0.125
  1
3/4" x 5-1/2"
  0
TEXT
  5
12867
  8
0
 10
1.9915218393249281
 20
2.6123110705573791
 30
0.0
 40
0.125
  1
800.66.TAGUE
  0
ENDBLK
  5
12869
  8
0
  0
BLOCK
  8
0
  2
*U138
 70
     1
 10
0.0
 20
0.0
 30
0.0
  3
*U138
  1

  0
TEXT
  5
1286B
  8
0
 10
1.5904625436382209
 20
1.187343171125592
 30
0.0
 40
0.125
  1
Base Cap
  0
TEXT
  5
1286C
  8
0
 10
1.5991596786996121
 20
0.9784982416121771
 30
0.0
 40
0.125
  1
TL-19
  0
TEXT
  5
1286D
  8
0
 10
1.595919569559094
 20
0.7680332575285026
 30
0.0
 40
0.125
  1
3/4" x 1-11/16"
  0
TEXT
  5
1286E
  8
0
 10
1.5961753676491339
 20
0.5575682734448283
 30
0.0
 40
0.125
  1
800.66.TAGUE
  0
ENDBLK
  5
12870
  8
0
  0
BLOCK
  8
0
  2
*U139
 70
     1
 10
0.0
 20
0.0
 30
0.0
  3
*U139
  1

  0
TEXT
  5
12872
  8
0
 10
1.4253430714126509
 20
0.9125752017053105
 30
0.0
 40
0.125
  1
Base Cap
  0
TEXT
  5
12873
  8
0
 10
1.4340402064740421
 20
0.7037302721918956
 30
0.0
 40
0.125
  1
TL-163
  0
TEXT
  5
12874
  8
0
 10
1.4191186512216549
 20
0.493265288108221
 30
0.0
 40
0.125
  1
11/16" x 1-3/8"
  0
TEXT
  5
12875
  8
0
 10
1.431055895423565
 20
0.2828003040245466
 30
0.0
 40
0.125
  1
800.66.TAGUE
  0
ENDBLK
  5
12877
  8
0
  0
BLOCK
  8
0
  2
*U140
 70
     1
 10
0.0
 20
0.0
 30
0.0
  3
*U140
  1

  0
TEXT
  5
12879
  8
0
 10
1.7853447687182711
 20
1.162173847628553
 30
0.0
 40
0.125
  1
Base Cap
  0
TEXT
  5
1287A
  8
0
 10
1.794041903779662
 20
0.9533289181151381
 30
0.0
 40
0.125
  1
TL-215
  0
TEXT
  5
1287B
  8
0
 10
1.789863868308994
 20
0.7428639340314637
 30
0.0
 40
0.125
  1
7/8" x 1-15/16"
  0
TEXT
  5
1287C
  8
0
 10
1.791057592729185
 20
0.5323989499477893
 30
0.0
 40
0.125
  1
800.66.TAGUE
  0
ENDBLK
  5
1287E
  8
0
  0
BLOCK
  8
0
  2
*U141
 70
     1
 10
0.0
 20
0.0
 30
0.0
  3
*U141
  1

  0
TEXT
  5
12880
  8
0
 10
1.5358763075020461
 20
8.1022165940801347
 30
0.0
 40
0.125
  1
Base Cap
  0
TEXT
  5
12881
  8
0
 10
1.5445734425634381
 20
7.89337166456672
 30
0.0
 40
0.125
  1
TL-230
  0
TEXT
  5
12882
  8
0
 10
1.540395407092769
 20
7.682906680483045
 30
0.0
 40
0.125
  1
7/8" x 1-15/16"
  0
TEXT
  5
12883
  8
0
 10
1.54158913151296
 20
7.4724416963993701
 30
0.0
 40
0.125
  1
800.66.TAGUE
  0
ENDBLK
  5
12885
  8
0
  0
BLOCK
  8
0
  2
*U142
 70
     1
 10
0.0
 20
0.0
 30
0.0
  3
*U142
  1

  0
TEXT
  5
12887
  8
0
 10
1.6109911707451761
 20
1.18025645756599
 30
0.0
 40
0.125
  1
Base Cap
  0
TEXT
  5
12888
  8
0
 10
1.619688305806567
 20
0.9714115280525753
 30
0.0
 40
0.125
  1
TL-406
  0
TEXT
  5
12889
  8
0
 10
1.615510270335899
 20
0.7609465439689008
 30
0.0
 40
0.125
  1
7/8" x 1-11/16"
  0
TEXT
  5
1288A
  8
0
 10
1.6167039947560899
 20
0.5504815598852265
 30
0.0
 40
0.125
  1
800.66.TAGUE
  0
ENDBLK
  5
1288C
  8
0
  0
BLOCK
  8
0
  2
*U143
 70
     1
 10
0.0
 20
0.0
 30
0.0
  3
*U143
  1

  0
TEXT
  5
1288E
  8
0
 10
1.322001327344235
 20
1.081186133431872
 30
0.0
 40
0.125
  1
Base Cap
  0
TEXT
  5
1288F
  8
0
 10
1.3306984624056259
 20
0.8723412039184573
 30
0.0
 40
0.125
  1
TL-314
  0
TEXT
  5
12890
  8
0
 10
1.3274583532651081
 20
0.661876219834783
 30
0.0
 40
0.125
  1
3/4" x 1-3/8"
  0
TEXT
  5
12891
  8
0
 10
1.3277141513551489
 20
0.4514112357511085
 30
0.0
 40
0.125
  1
800.66.TAGUE
  0
ENDBLK
  5
12893
  8
0
  0
BLOCK
  8
0
  2
*U144
 70
     1
 10
0.0
 20
0.0
 30
0.0
  3
*U144
  1

  0
TEXT
  5
12895
  8
0
 10
1.545356558052088
 20
0.8011638535049475
 30
0.0
 40
0.125
  1
Base Cap
  0
TEXT
  5
12896
  8
0
 10
1.554053693113479
 20
0.5923189239915323
 30
0.0
 40
0.125
  1
TL-2021
  0
TEXT
  5
12897
  8
0
 10
1.5498756576428101
 20
0.3818539399078579
 30
0.0
 40
0.125
  1
7/8" x 1"
  0
TEXT
  5
12898
  8
0
 10
1.551069382063001
 20
0.1713889558241834
 30
0.0
 40
0.125
  1
800.66.TAGUE
  0
ENDBLK
  5
1289A
  8
0
  0
BLOCK
  8
0
  2
*U145
 70
     1
 10
0.0
 20
0.0
 30
0.0
  3
*U145
  1

  0
TEXT
  5
1289C
  8
0
 10
1.849024073205253
 20
1.552839362160755
 30
0.0
 40
0.125
  1
Base Cap
  0
TEXT
  5
1289D
  8
0
 10
1.8577212082666441
 20
1.3439944326473401
 30
0.0
 40
0.125
  1
TL-2025
  0
TEXT
  5
1289E
  8
0
 10
1.842799653014257
 20
1.1335294485636651
 30
0.0
 40
0.125
  1
1-1/4" x 2"
  0
TEXT
  5
1289F
  8
0
 10
1.8547368972161671
 20
0.9230644644799912
 30
0.0
 40
0.125
  1
800.66.TAGUE
  0
ENDBLK
  5
128A1
  8
0
  0
BLOCK
  8
0
  2
*U146
 70
     1
 10
0.0
 20
0.0
 30
0.0
  3
*U146
  1

  0
TEXT
  5
128A3
  8
0
 10
-384.1024314645814
 20
841.29621259857345
 30
0.0
 40
0.125
  1
Base Cap
  0
TEXT
  5
128A4
  8
0
 10
-384.09373432951998
 20
841.08736766905986
 30
0.0
 40
0.125
  1
TL-2025
  0
TEXT
  5
128A5
  8
0
 10
-384.10865588477242
 20
840.87690268497624
 30
0.0
 40
0.125
  1
1-1/4" x 2"
  0
TEXT
  5
128A6
  8
0
 10
-384.09671864057049
 20
840.66643770089263
 30
0.0
 40
0.125
  1
800.66.TAGUE
  0
ENDBLK
  5
128A8
  8
0
  0
ENDSEC
  0
SECTION
  2
ENTITIES
  0
INSERT
  5
12129
  8
0
  2
*U146
 10
0.0
 20
0.0
 30
0.0
  0
POLYLINE
  8
0
  5
128A9
  66
     1
 10
0.000000
 20
0.000000
 30
0.000000
  70
     8
  0
VERTEX
  8
0
  5
128AA
 10
-384.833
 20
840.203
 30
0.000000
  70
    32
  0
VERTEX
  8
0
  5
128AB
 10
-384.834
 20
840.202
 30
0.000000
  70
    32
  0
VERTEX
  8
0
  5
128AC
 10
-384.834
 20
840.201
 30
0.000000
  70
    32
  0
VERTEX
  8
0
  5
128AD
 10
-384.834
 20
840.200
 30
0.000000
  70
    32
  0
VERTEX
  8
0
  5
128AE
 10
-384.834
 20
840.199
 30
0.000000
  70
    32
  0
VERTEX
  8
0
  5
128AF
 10
-384.834
 20
840.199
 30
0.000000
  70
    32
  0
VERTEX
  8
0
  5
128B0
 10
-384.834
 20
840.198
 30
0.000000
  70
    32
  0
VERTEX
  8
0
  5
128B1
 10
-384.834
 20
840.197
 30
0.000000
  70
    32
  0
VERTEX
  8
0
  5
128B2
 10
-384.835
 20
840.196
 30
0.000000
  70
    32
  0
VERTEX
  8
0
  5
128B3
 10
-384.835
 20
840.195
 30
0.000000
  70
    32
  0
VERTEX
  8
0
  5
128B4
 10
-384.835
 20
840.194
 30
0.000000
  70
    32
  0
VERTEX
  8
0
  5
128B5
 10
-384.835
 20
840.193
 30
0.000000
  70
    32
  0
VERTEX
  8
0
  5
128B6
 10
-384.835
 20
840.192
 30
0.000000
  70
    32
  0
VERTEX
  8
0
  5
128B7
 10
-384.835
 20
840.191
 30
0.000000
  70
    32
  0
VERTEX
  8
0
  5
128B8
 10
-384.835
 20
840.190
 30
0.000000
  70
    32
  0
VERTEX
  8
0
  5
128B9
 10
-384.835
 20
840.189
 30
0.000000
  70
    32
  0
VERTEX
  8
0
  5
128BA
 10
-384.835
 20
840.189
 30
0.000000
  70
    32
  0
VERTEX
  8
0
  5
128BB
 10
-384.836
 20
840.188
 30
0.000000
  70
    32
  0
VERTEX
  8
0
  5
128BC
 10
-384.836
 20
840.187
 30
0.000000
  70
    32
  0
VERTEX
  8
0
  5
128BD
 10
-384.836
 20
840.186
 30
0.000000
  70
    32
  0
VERTEX
  8
0
  5
128BE
 10
-384.836
 20
840.185
 30
0.000000
  70
    32
  0
VERTEX
  8
0
  5
128BF
 10
-384.836
 20
840.184
 30
0.000000
  70
    32
  0
VERTEX
  8
0
  5
128C0
 10
-384.836
 20
840.183
 30
0.000000
  70
    32
  0
VERTEX
  8
0
  5
128C1
 10
-384.836
 20
840.182
 30
0.000000
  70
    32
  0
VERTEX
  8
0
  5
128C2
 10
-384.836
 20
840.181
 30
0.000000
  70
    32
  0
VERTEX
  8
0
  5
128C3
 10
-384.836
 20
840.180
 30
0.000000
  70
    32
  0
VERTEX
  8
0
  5
128C4
 10
-384.836
 20
840.179
 30
0.000000
  70
    32
  0
VERTEX
  8
0
  5
128C5
 10
-384.837
 20
840.178
 30
0.000000
  70
    32
  0
VERTEX
  8
0
  5
128C6
 10
-384.837
 20
840.178
 30
0.000000
  70
    32
  0
VERTEX
  8
0
  5
128C7
 10
-384.837
 20
840.177
 30
0.000000
  70
    32
  0
VERTEX
  8
0
  5
128C8
 10
-384.837
 20
840.176
 30
0.000000
  70
    32
  0
VERTEX
  8
0
  5
128C9
 10
-384.837
 20
840.175
 30
0.000000
  70
    32
  0
VERTEX
  8
0
  5
128CA
 10
-384.837
 20
840.174
 30
0.000000
  70
    32
  0
VERTEX
  8
0
  5
128CB
 10
-384.837
 20
840.173
 30
0.000000
  70
    32
  0
VERTEX
  8
0
  5
128CC
 10
-384.837
 20
840.172
 30
0.000000
  70
    32
  0
VERTEX
  8
0
  5
128CD
 10
-384.837
 20
840.171
 30
0.000000
  70
    32
  0
VERTEX
  8
0
  5
128CE
 10
-384.837
 20
840.170
 30
0.000000
  70
    32
  0
VERTEX
  8
0
  5
128CF
 10
-384.837
 20
840.169
 30
0.000000
  70
    32
  0
VERTEX
  8
0
  5
128D0
 10
-384.837
 20
840.168
 30
0.000000
  70
    32
  0
VERTEX
  8
0
  5
128D1
 10
-384.838
 20
840.167
 30
0.000000
  70
    32
  0
VERTEX
  8
0
  5
128D2
 10
-384.838
 20
840.166
 30
0.000000
  70
    32
  0
VERTEX
  8
0
  5
128D3
 10
-384.838
 20
840.166
 30
0.000000
  70
    32
  0
VERTEX
  8
0
  5
128D4
 10
-384.838
 20
840.165
 30
0.000000
  70
    32
  0
VERTEX
  8
0
  5
128D5
 10
-384.838
 20
840.164
 30
0.000000
  70
    32
  0
VERTEX
  8
0
  5
128D6
 10
-384.838
 20
840.163
 30
0.000000
  70
    32
  0
VERTEX
  8
0
  5
128D7
 10
-384.838
 20
840.162
 30
0.000000
  70
    32
  0
VERTEX
  8
0
  5
128D8
 10
-384.838
 20
840.161
 30
0.000000
  70
    32
  0
VERTEX
  8
0
  5
128D9
 10
-384.838
 20
840.160
 30
0.000000
  70
    32
  0
VERTEX
  8
0
  5
128DA
 10
-384.838
 20
840.159
 30
0.000000
  70
    32
  0
VERTEX
  8
0
  5
128DB
 10
-384.838
 20
840.158
 30
0.000000
  70
    32
  0
VERTEX
  8
0
  5
128DC
 10
-384.839
 20
840.157
 30
0.000000
  70
    32
  0
VERTEX
  8
0
  5
128DD
 10
-384.839
 20
840.156
 30
0.000000
  70
    32
  0
VERTEX
  8
0
  5
128DE
 10
-384.839
 20
840.156
 30
0.000000
  70
    32
  0
VERTEX
  8
0
  5
128DF
 10
-384.839
 20
840.155
 30
0.000000
  70
    32
  0
VERTEX
  8
0
  5
128E0
 10
-384.839
 20
840.154
 30
0.000000
  70
    32
  0
VERTEX
  8
0
  5
128E1
 10
-384.839
 20
840.153
 30
0.000000
  70
    32
  0
VERTEX
  8
0
  5
128E2
 10
-384.839
 20
840.152
 30
0.000000
  70
    32
  0
VERTEX
  8
0
  5
128E3
 10
-384.839
 20
840.151
 30
0.000000
  70
    32
  0
VERTEX
  8
0
  5
128E4
 10
-384.840
 20
840.150
 30
0.000000
  70
    32
  0
VERTEX
  8
0
  5
128E5
 10
-384.840
 20
840.149
 30
0.000000
  70
    32
  0
VERTEX
  8
0
  5
128E6
 10
-384.840
 20
840.148
 30
0.000000
  70
    32
  0
VERTEX
  8
0
  5
128E7
 10
-384.840
 20
840.147
 30
0.000000
  70
    32
  0
VERTEX
  8
0
  5
128E8
 10
-384.840
 20
840.146
 30
0.000000
  70
    32
  0
VERTEX
  8
0
  5
128E9
 10
-384.840
 20
840.146
 30
0.000000
  70
    32
  0
VERTEX
  8
0
  5
128EA
 10
-384.840
 20
840.145
 30
0.000000
  70
    32
  0
VERTEX
  8
0
  5
128EB
 10
-384.841
 20
840.144
 30
0.000000
  70
    32
  0
VERTEX
  8
0
  5
128EC
 10
-384.841
 20
840.143
 30
0.000000
  70
    32
  0
VERTEX
  8
0
  5
128ED
 10
-384.841
 20
840.142
 30
0.000000
  70
    32
  0
VERTEX
  8
0
  5
128EE
 10
-384.841
 20
840.141
 30
0.000000
  70
    32
  0
VERTEX
  8
0
  5
128EF
 10
-384.841
 20
840.140
 30
0.000000
  70
    32
  0
VERTEX
  8
0
  5
128F0
 10
-384.841
 20
840.139
 30
0.000000
  70
    32
  0
VERTEX
  8
0
  5
128F1
 10
-384.842
 20
840.138
 30
0.000000
  70
    32
  0
VERTEX
  8
0
  5
128F2
 10
-384.842
 20
840.138
 30
0.000000
  70
    32
  0
VERTEX
  8
0
  5
128F3
 10
-384.842
 20
840.137
 30
0.000000
  70
    32
  0
VERTEX
  8
0
  5
128F4
 10
-384.842
 20
840.136
 30
0.000000
  70
    32
  0
VERTEX
  8
0
  5
128F5
 10
-384.842
 20
840.135
 30
0.000000
  70
    32
  0
VERTEX
  8
0
  5
128F6
 10
-384.843
 20
840.134
 30
0.000000
  70
    32
  0
VERTEX
  8
0
  5
128F7
 10
-384.843
 20
840.133
 30
0.000000
  70
    32
  0
VERTEX
  8
0
  5
128F8
 10
-384.843
 20
840.132
 30
0.000000
  70
    32
  0
VERTEX
  8
0
  5
128F9
 10
-384.843
 20
840.131
 30
0.000000
  70
    32
  0
VERTEX
  8
0
  5
128FA
 10
-384.844
 20
840.131
 30
0.000000
  70
    32
  0
VERTEX
  8
0
  5
128FB
 10
-384.844
 20
840.130
 30
0.000000
  70
    32
  0
VERTEX
  8
0
  5
128FC
 10
-384.844
 20
840.129
 30
0.000000
  70
    32
  0
VERTEX
  8
0
  5
128FD
 10
-384.844
 20
840.128
 30
0.000000
  70
    32
  0
VERTEX
  8
0
  5
128FE
 10
-384.845
 20
840.127
 30
0.000000
  70
    32
  0
VERTEX
  8
0
  5
128FF
 10
-384.845
 20
840.126
 30
0.000000
  70
    32
  0
VERTEX
  8
0
  5
12900
 10
-384.845
 20
840.125
 30
0.000000
  70
    32
  0
VERTEX
  8
0
  5
12901
 10
-384.845
 20
840.125
 30
0.000000
  70
    32
  0
VERTEX
  8
0
  5
12902
 10
-384.846
 20
840.124
 30
0.000000
  70
    32
  0
VERTEX
  8
0
  5
12903
 10
-384.846
 20
840.123
 30
0.000000
  70
    32
  0
VERTEX
  8
0
  5
12904
 10
-384.846
 20
840.122
 30
0.000000
  70
    32
  0
VERTEX
  8
0
  5
12905
 10
-384.847
 20
840.121
 30
0.000000
  70
    32
  0
VERTEX
  8
0
  5
12906
 10
-384.847
 20
840.120
 30
0.000000
  70
    32
  0
VERTEX
  8
0
  5
12907
 10
-384.847
 20
840.120
 30
0.000000
  70
    32
  0
VERTEX
  8
0
  5
12908
 10
-384.848
 20
840.119
 30
0.000000
  70
    32
  0
VERTEX
  8
0
  5
12909
 10
-384.848
 20
840.118
 30
0.000000
  70
    32
  0
VERTEX
  8
0
  5
1290A
 10
-384.848
 20
840.117
 30
0.000000
  70
    32
  0
VERTEX
  8
0
  5
1290B
 10
-384.849
 20
840.116
 30
0.000000
  70
    32
  0
VERTEX
  8
0
  5
1290C
 10
-384.849
 20
840.115
 30
0.000000
  70
    32
  0
VERTEX
  8
0
  5
1290D
 10
-384.849
 20
840.115
 30
0.000000
  70
    32
  0
VERTEX
  8
0
  5
1290E
 10
-384.850
 20
840.114
 30
0.000000
  70
    32
  0
VERTEX
  8
0
  5
1290F
 10
-384.850
 20
840.113
 30
0.000000
  70
    32
  0
VERTEX
  8
0
  5
12910
 10
-384.851
 20
840.112
 30
0.000000
  70
    32
  0
VERTEX
  8
0
  5
12911
 10
-384.851
 20
840.111
 30
0.000000
  70
    32
  0
VERTEX
  8
0
  5
12912
 10
-384.851
 20
840.111
 30
0.000000
  70
    32
  0
VERTEX
  8
0
  5
12913
 10
-384.852
 20
840.110
 30
0.000000
  70
    32
  0
VERTEX
  8
0
  5
12914
 10
-384.852
 20
840.109
 30
0.000000
  70
    32
  0
VERTEX
  8
0
  5
12915
 10
-384.853
 20
840.108
 30
0.000000
  70
    32
  0
VERTEX
  8
0
  5
12916
 10
-384.853
 20
840.107
 30
0.000000
  70
    32
  0
VERTEX
  8
0
  5
12917
 10
-384.853
 20
840.107
 30
0.000000
  70
    32
  0
VERTEX
  8
0
  5
12918
 10
-384.854
 20
840.106
 30
0.000000
  70
    32
  0
VERTEX
  8
0
  5
12919
 10
-384.854
 20
840.105
 30
0.000000
  70
    32
  0
VERTEX
  8
0
  5
1291A
 10
-384.855
 20
840.104
 30
0.000000
  70
    32
  0
VERTEX
  8
0
  5
1291B
 10
-384.855
 20
840.103
 30
0.000000
  70
    32
  0
VERTEX
  8
0
  5
1291C
 10
-384.856
 20
840.103
 30
0.000000
  70
    32
  0
VERTEX
  8
0
  5
1291D
 10
-384.856
 20
840.102
 30
0.000000
  70
    32
  0
VERTEX
  8
0
  5
1291E
 10
-384.857
 20
840.101
 30
0.000000
  70
    32
  0
VERTEX
  8
0
  5
1291F
 10
-384.857
 20
840.100
 30
0.000000
  70
    32
  0
VERTEX
  8
0
  5
12920
 10
-384.858
 20
840.100
 30
0.000000
  70
    32
  0
VERTEX
  8
0
  5
12921
 10
-384.858
 20
840.099
 30
0.000000
  70
    32
  0
VERTEX
  8
0
  5
12922
 10
-384.858
 20
840.098
 30
0.000000
  70
    32
  0
VERTEX
  8
0
  5
12923
 10
-384.859
 20
840.097
 30
0.000000
  70
    32
  0
VERTEX
  8
0
  5
12924
 10
-384.859
 20
840.096
 30
0.000000
  70
    32
  0
VERTEX
  8
0
  5
12925
 10
-384.860
 20
840.096
 30
0.000000
  70
    32
  0
VERTEX
  8
0
  5
12926
 10
-384.860
 20
840.095
 30
0.000000
  70
    32
  0
VERTEX
  8
0
  5
12927
 10
-384.861
 20
840.094
 30
0.000000
  70
    32
  0
VERTEX
  8
0
  5
12928
 10
-384.861
 20
840.093
 30
0.000000
  70
    32
  0
VERTEX
  8
0
  5
12929
 10
-384.862
 20
840.093
 30
0.000000
  70
    32
  0
VERTEX
  8
0
  5
1292A
 10
-384.862
 20
840.092
 30
0.000000
  70
    32
  0
VERTEX
  8
0
  5
1292B
 10
-384.863
 20
840.091
 30
0.000000
  70
    32
  0
VERTEX
  8
0
  5
1292C
 10
-384.864
 20
840.090
 30
0.000000
  70
    32
  0
VERTEX
  8
0
  5
1292D
 10
-384.864
 20
840.090
 30
0.000000
  70
    32
  0
VERTEX
  8
0
  5
1292E
 10
-384.865
 20
840.089
 30
0.000000
  70
    32
  0
VERTEX
  8
0
  5
1292F
 10
-384.865
 20
840.088
 30
0.000000
  70
    32
  0
VERTEX
  8
0
  5
12930
 10
-384.866
 20
840.087
 30
0.000000
  70
    32
  0
VERTEX
  8
0
  5
12931
 10
-384.866
 20
840.087
 30
0.000000
  70
    32
  0
VERTEX
  8
0
  5
12932
 10
-384.867
 20
840.086
 30
0.000000
  70
    32
  0
VERTEX
  8
0
  5
12933
 10
-384.867
 20
840.085
 30
0.000000
  70
    32
  0
VERTEX
  8
0
  5
12934
 10
-384.868
 20
840.084
 30
0.000000
  70
    32
  0
VERTEX
  8
0
  5
12935
 10
-384.868
 20
840.084
 30
0.000000
  70
    32
  0
VERTEX
  8
0
  5
12936
 10
-384.869
 20
840.083
 30
0.000000
  70
    32
  0
VERTEX
  8
0
  5
12937
 10
-384.869
 20
840.082
 30
0.000000
  70
    32
  0
VERTEX
  8
0
  5
12938
 10
-384.870
 20
840.081
 30
0.000000
  70
    32
  0
VERTEX
  8
0
  5
12939
 10
-384.871
 20
840.081
 30
0.000000
  70
    32
  0
VERTEX
  8
0
  5
1293A
 10
-384.871
 20
840.080
 30
0.000000
  70
    32
  0
VERTEX
  8
0
  5
1293B
 10
-384.872
 20
840.079
 30
0.000000
  70
    32
  0
VERTEX
  8
0
  5
1293C
 10
-384.872
 20
840.078
 30
0.000000
  70
    32
  0
VERTEX
  8
0
  5
1293D
 10
-384.873
 20
840.078
 30
0.000000
  70
    32
  0
VERTEX
  8
0
  5
1293E
 10
-384.873
 20
840.077
 30
0.000000
  70
    32
  0
VERTEX
  8
0
  5
1293F
 10
-384.874
 20
840.076
 30
0.000000
  70
    32
  0
VERTEX
  8
0
  5
12940
 10
-384.875
 20
840.075
 30
0.000000
  70
    32
  0
VERTEX
  8
0
  5
12941
 10
-384.875
 20
840.075
 30
0.000000
  70
    32
  0
VERTEX
  8
0
  5
12942
 10
-384.876
 20
840.074
 30
0.000000
  70
    32
  0
VERTEX
  8
0
  5
12943
 10
-384.876
 20
840.073
 30
0.000000
  70
    32
  0
VERTEX
  8
0
  5
12944
 10
-384.877
 20
840.072
 30
0.000000
  70
    32
  0
VERTEX
  8
0
  5
12945
 10
-384.878
 20
840.072
 30
0.000000
  70
    32
  0
VERTEX
  8
0
  5
12946
 10
-384.878
 20
840.071
 30
0.000000
  70
    32
  0
VERTEX
  8
0
  5
12947
 10
-384.879
 20
840.070
 30
0.000000
  70
    32
  0
VERTEX
  8
0
  5
12948
 10
-384.879
 20
840.070
 30
0.000000
  70
    32
  0
VERTEX
  8
0
  5
12949
 10
-384.880
 20
840.069
 30
0.000000
  70
    32
  0
VERTEX
  8
0
  5
1294A
 10
-384.880
 20
840.068
 30
0.000000
  70
    32
  0
VERTEX
  8
0
  5
1294B
 10
-384.881
 20
840.067
 30
0.000000
  70
    32
  0
VERTEX
  8
0
  5
1294C
 10
-384.882
 20
840.067
 30
0.000000
  70
    32
  0
VERTEX
  8
0
  5
1294D
 10
-384.882
 20
840.066
 30
0.000000
  70
    32
  0
VERTEX
  8
0
  5
1294E
 10
-384.883
 20
840.065
 30
0.000000
  70
    32
  0
VERTEX
  8
0
  5
1294F
 10
-384.883
 20
840.064
 30
0.000000
  70
    32
  0
VERTEX
  8
0
  5
12950
 10
-384.884
 20
840.064
 30
0.000000
  70
    32
  0
VERTEX
  8
0
  5
12951
 10
-384.885
 20
840.063
 30
0.000000
  70
    32
  0
VERTEX
  8
0
  5
12952
 10
-384.885
 20
840.062
 30
0.000000
  70
    32
  0
VERTEX
  8
0
  5
12953
 10
-384.886
 20
840.062
 30
0.000000
  70
    32
  0
VERTEX
  8
0
  5
12954
 10
-384.886
 20
840.061
 30
0.000000
  70
    32
  0
VERTEX
  8
0
  5
12955
 10
-384.887
 20
840.060
 30
0.000000
  70
    32
  0
VERTEX
  8
0
  5
12956
 10
-384.888
 20
840.059
 30
0.000000
  70
    32
  0
VERTEX
  8
0
  5
12957
 10
-384.888
 20
840.059
 30
0.000000
  70
    32
  0
VERTEX
  8
0
  5
12958
 10
-384.889
 20
840.058
 30
0.000000
  70
    32
  0
VERTEX
  8
0
  5
12959
 10
-384.889
 20
840.057
 30
0.000000
  70
    32
  0
VERTEX
  8
0
  5
1295A
 10
-384.890
 20
840.057
 30
0.000000
  70
    32
  0
VERTEX
  8
0
  5
1295B
 10
-384.891
 20
840.056
 30
0.000000
  70
    32
  0
VERTEX
  8
0
  5
1295C
 10
-384.891
 20
840.055
 30
0.000000
  70
    32
  0
VERTEX
  8
0
  5
1295D
 10
-384.892
 20
840.054
 30
0.000000
  70
    32
  0
VERTEX
  8
0
  5
1295E
 10
-384.892
 20
840.054
 30
0.000000
  70
    32
  0
VERTEX
  8
0
  5
1295F
 10
-384.893
 20
840.053
 30
0.000000
  70
    32
  0
VERTEX
  8
0
  5
12960
 10
-384.894
 20
840.052
 30
0.000000
  70
    32
  0
VERTEX
  8
0
  5
12961
 10
-384.894
 20
840.052
 30
0.000000
  70
    32
  0
VERTEX
  8
0
  5
12962
 10
-384.895
 20
840.051
 30
0.000000
  70
    32
  0
VERTEX
  8
0
  5
12963
 10
-384.895
 20
840.050
 30
0.000000
  70
    32
  0
VERTEX
  8
0
  5
12964
 10
-384.896
 20
840.049
 30
0.000000
  70
    32
  0
VERTEX
  8
0
  5
12965
 10
-384.896
 20
840.049
 30
0.000000
  70
    32
  0
VERTEX
  8
0
  5
12966
 10
-384.897
 20
840.048
 30
0.000000
  70
    32
  0
VERTEX
  8
0
  5
12967
 10
-384.898
 20
840.047
 30
0.000000
  70
    32
  0
VERTEX
  8
0
  5
12968
 10
-384.898
 20
840.047
 30
0.000000
  70
    32
  0
VERTEX
  8
0
  5
12969
 10
-384.899
 20
840.046
 30
0.000000
  70
    32
  0
VERTEX
  8
0
  5
1296A
 10
-384.899
 20
840.045
 30
0.000000
  70
    32
  0
VERTEX
  8
0
  5
1296B
 10
-384.900
 20
840.044
 30
0.000000
  70
    32
  0
VERTEX
  8
0
  5
1296C
 10
-384.901
 20
840.044
 30
0.000000
  70
    32
  0
VERTEX
  8
0
  5
1296D
 10
-384.901
 20
840.043
 30
0.000000
  70
    32
  0
VERTEX
  8
0
  5
1296E
 10
-384.902
 20
840.042
 30
0.000000
  70
    32
  0
VERTEX
  8
0
  5
1296F
 10
-384.902
 20
840.042
 30
0.000000
  70
    32
  0
VERTEX
  8
0
  5
12970
 10
-384.903
 20
840.041
 30
0.000000
  70
    32
  0
VERTEX
  8
0
  5
12971
 10
-384.903
 20
840.040
 30
0.000000
  70
    32
  0
VERTEX
  8
0
  5
12972
 10
-384.904
 20
840.039
 30
0.000000
  70
    32
  0
VERTEX
  8
0
  5
12973
 10
-384.905
 20
840.039
 30
0.000000
  70
    32
  0
VERTEX
  8
0
  5
12974
 10
-384.905
 20
840.038
 30
0.000000
  70
    32
  0
VERTEX
  8
0
  5
12975
 10
-384.906
 20
840.037
 30
0.000000
  70
    32
  0
VERTEX
  8
0
  5
12976
 10
-384.906
 20
840.036
 30
0.000000
  70
    32
  0
VERTEX
  8
0
  5
12977
 10
-384.907
 20
840.036
 30
0.000000
  70
    32
  0
VERTEX
  8
0
  5
12978
 10
-384.907
 20
840.035
 30
0.000000
  70
    32
  0
VERTEX
  8
0
  5
12979
 10
-384.908
 20
840.034
 30
0.000000
  70
    32
  0
VERTEX
  8
0
  5
1297A
 10
-384.908
 20
840.034
 30
0.000000
  70
    32
  0
VERTEX
  8
0
  5
1297B
 10
-384.909
 20
840.033
 30
0.000000
  70
    32
  0
VERTEX
  8
0
  5
1297C
 10
-384.910
 20
840.032
 30
0.000000
  70
    32
  0
VERTEX
  8
0
  5
1297D
 10
-384.910
 20
840.031
 30
0.000000
  70
    32
  0
VERTEX
  8
0
  5
1297E
 10
-384.911
 20
840.031
 30
0.000000
  70
    32
  0
VERTEX
  8
0
  5
1297F
 10
-384.911
 20
840.030
 30
0.000000
  70
    32
  0
VERTEX
  8
0
  5
12980
 10
-384.912
 20
840.029
 30
0.000000
  70
    32
  0
VERTEX
  8
0
  5
12981
 10
-384.912
 20
840.028
 30
0.000000
  70
    32
  0
VERTEX
  8
0
  5
12982
 10
-384.913
 20
840.028
 30
0.000000
  70
    32
  0
VERTEX
  8
0
  5
12983
 10
-384.913
 20
840.027
 30
0.000000
  70
    32
  0
VERTEX
  8
0
  5
12984
 10
-384.914
 20
840.026
 30
0.000000
  70
    32
  0
VERTEX
  8
0
  5
12985
 10
-384.914
 20
840.025
 30
0.000000
  70
    32
  0
VERTEX
  8
0
  5
12986
 10
-384.915
 20
840.025
 30
0.000000
  70
    32
  0
VERTEX
  8
0
  5
12987
 10
-384.915
 20
840.024
 30
0.000000
  70
    32
  0
VERTEX
  8
0
  5
12988
 10
-384.916
 20
840.023
 30
0.000000
  70
    32
  0
VERTEX
  8
0
  5
12989
 10
-384.916
 20
840.022
 30
0.000000
  70
    32
  0
VERTEX
  8
0
  5
1298A
 10
-384.917
 20
840.022
 30
0.000000
  70
    32
  0
VERTEX
  8
0
  5
1298B
 10
-384.917
 20
840.021
 30
0.000000
  70
    32
  0
VERTEX
  8
0
  5
1298C
 10
-384.918
 20
840.020
 30
0.000000
  70
    32
  0
VERTEX
  8
0
  5
1298D
 10
-384.918
 20
840.019
 30
0.000000
  70
    32
  0
VERTEX
  8
0
  5
1298E
 10
-384.919
 20
840.019
 30
0.000000
  70
    32
  0
VERTEX
  8
0
  5
1298F
 10
-384.919
 20
840.018
 30
0.000000
  70
    32
  0
VERTEX
  8
0
  5
12990
 10
-384.920
 20
840.017
 30
0.000000
  70
    32
  0
VERTEX
  8
0
  5
12991
 10
-384.920
 20
840.016
 30
0.000000
  70
    32
  0
VERTEX
  8
0
  5
12992
 10
-384.921
 20
840.016
 30
0.000000
  70
    32
  0
VERTEX
  8
0
  5
12993
 10
-384.921
 20
840.015
 30
0.000000
  70
    32
  0
VERTEX
  8
0
  5
12994
 10
-384.922
 20
840.014
 30
0.000000
  70
    32
  0
VERTEX
  8
0
  5
12995
 10
-384.922
 20
840.013
 30
0.000000
  70
    32
  0
VERTEX
  8
0
  5
12996
 10
-384.923
 20
840.012
 30
0.000000
  70
    32
  0
VERTEX
  8
0
  5
12997
 10
-384.923
 20
840.012
 30
0.000000
  70
    32
  0
VERTEX
  8
0
  5
12998
 10
-384.923
 20
840.011
 30
0.000000
  70
    32
  0
VERTEX
  8
0
  5
12999
 10
-384.924
 20
840.010
 30
0.000000
  70
    32
  0
VERTEX
  8
0
  5
1299A
 10
-384.924
 20
840.009
 30
0.000000
  70
    32
  0
VERTEX
  8
0
  5
1299B
 10
-384.925
 20
840.008
 30
0.000000
  70
    32
  0
VERTEX
  8
0
  5
1299C
 10
-384.925
 20
840.008
 30
0.000000
  70
    32
  0
VERTEX
  8
0
  5
1299D
 10
-384.926
 20
840.007
 30
0.000000
  70
    32
  0
VERTEX
  8
0
  5
1299E
 10
-384.926
 20
840.006
 30
0.000000
  70
    32
  0
VERTEX
  8
0
  5
1299F
 10
-384.926
 20
840.005
 30
0.000000
  70
    32
  0
VERTEX
  8
0
  5
129A0
 10
-384.927
 20
840.004
 30
0.000000
  70
    32
  0
VERTEX
  8
0
  5
129A1
 10
-384.927
 20
840.004
 30
0.000000
  70
    32
  0
VERTEX
  8
0
  5
129A2
 10
-384.928
 20
840.003
 30
0.000000
  70
    32
  0
VERTEX
  8
0
  5
129A3
 10
-384.928
 20
840.002
 30
0.000000
  70
    32
  0
VERTEX
  8
0
  5
129A4
 10
-384.928
 20
840.001
 30
0.000000
  70
    32
  0
VERTEX
  8
0
  5
129A5
 10
-384.929
 20
840.000
 30
0.000000
  70
    32
  0
VERTEX
  8
0
  5
129A6
 10
-384.929
 20
840.000
 30
0.000000
  70
    32
  0
VERTEX
  8
0
  5
129A7
 10
-384.930
 20
839.999
 30
0.000000
  70
    32
  0
VERTEX
  8
0
  5
129A8
 10
-384.930
 20
839.998
 30
0.000000
  70
    32
  0
VERTEX
  8
0
  5
129A9
 10
-384.930
 20
839.997
 30
0.000000
  70
    32
  0
VERTEX
  8
0
  5
129AA
 10
-384.931
 20
839.996
 30
0.000000
  70
    32
  0
VERTEX
  8
0
  5
129AB
 10
-384.931
 20
839.995
 30
0.000000
  70
    32
  0
VERTEX
  8
0
  5
129AC
 10
-384.931
 20
839.995
 30
0.000000
  70
    32
  0
VERTEX
  8
0
  5
129AD
 10
-384.932
 20
839.994
 30
0.000000
  70
    32
  0
VERTEX
  8
0
  5
129AE
 10
-384.932
 20
839.993
 30
0.000000
  70
    32
  0
VERTEX
  8
0
  5
129AF
 10
-384.932
 20
839.992
 30
0.000000
  70
    32
  0
VERTEX
  8
0
  5
129B0
 10
-384.933
 20
839.991
 30
0.000000
  70
    32
  0
VERTEX
  8
0
  5
129B1
 10
-384.933
 20
839.990
 30
0.000000
  70
    32
  0
VERTEX
  8
0
  5
129B2
 10
-384.934
 20
839.990
 30
0.000000
  70
    32
  0
VERTEX
  8
0
  5
129B3
 10
-384.934
 20
839.989
 30
0.000000
  70
    32
  0
VERTEX
  8
0
  5
129B4
 10
-384.934
 20
839.988
 30
0.000000
  70
    32
  0
VERTEX
  8
0
  5
129B5
 10
-384.935
 20
839.987
 30
0.000000
  70
    32
  0
VERTEX
  8
0
  5
129B6
 10
-384.935
 20
839.986
 30
0.000000
  70
    32
  0
VERTEX
  8
0
  5
129B7
 10
-384.935
 20
839.985
 30
0.000000
  70
    32
  0
VERTEX
  8
0
  5
129B8
 10
-384.936
 20
839.984
 30
0.000000
  70
    32
  0
VERTEX
  8
0
  5
129B9
 10
-384.936
 20
839.984
 30
0.000000
  70
    32
  0
VERTEX
  8
0
  5
129BA
 10
-384.936
 20
839.983
 30
0.000000
  70
    32
  0
VERTEX
  8
0
  5
129BB
 10
-384.936
 20
839.982
 30
0.000000
  70
    32
  0
VERTEX
  8
0
  5
129BC
 10
-384.937
 20
839.981
 30
0.000000
  70
    32
  0
VERTEX
  8
0
  5
129BD
 10
-384.937
 20
839.980
 30
0.000000
  70
    32
  0
VERTEX
  8
0
  5
129BE
 10
-384.937
 20
839.979
 30
0.000000
  70
    32
  0
VERTEX
  8
0
  5
129BF
 10
-384.938
 20
839.978
 30
0.000000
  70
    32
  0
VERTEX
  8
0
  5
129C0
 10
-384.938
 20
839.977
 30
0.000000
  70
    32
  0
VERTEX
  8
0
  5
129C1
 10
-384.938
 20
839.977
 30
0.000000
  70
    32
  0
VERTEX
  8
0
  5
129C2
 10
-384.939
 20
839.976
 30
0.000000
  70
    32
  0
VERTEX
  8
0
  5
129C3
 10
-384.939
 20
839.975
 30
0.000000
  70
    32
  0
VERTEX
  8
0
  5
129C4
 10
-384.939
 20
839.974
 30
0.000000
  70
    32
  0
VERTEX
  8
0
  5
129C5
 10
-384.940
 20
839.973
 30
0.000000
  70
    32
  0
VERTEX
  8
0
  5
129C6
 10
-384.940
 20
839.972
 30
0.000000
  70
    32
  0
VERTEX
  8
0
  5
129C7
 10
-384.940
 20
839.971
 30
0.000000
  70
    32
  0
VERTEX
  8
0
  5
129C8
 10
-384.940
 20
839.971
 30
0.000000
  70
    32
  0
VERTEX
  8
0
  5
129C9
 10
-384.941
 20
839.970
 30
0.000000
  70
    32
  0
VERTEX
  8
0
  5
129CA
 10
-384.941
 20
839.969
 30
0.000000
  70
    32
  0
VERTEX
  8
0
  5
129CB
 10
-384.941
 20
839.968
 30
0.000000
  70
    32
  0
VERTEX
  8
0
  5
129CC
 10
-384.942
 20
839.967
 30
0.000000
  70
    32
  0
VERTEX
  8
0
  5
129CD
 10
-384.942
 20
839.966
 30
0.000000
  70
    32
  0
VERTEX
  8
0
  5
129CE
 10
-384.942
 20
839.965
 30
0.000000
  70
    32
  0
VERTEX
  8
0
  5
129CF
 10
-384.943
 20
839.964
 30
0.000000
  70
    32
  0
VERTEX
  8
0
  5
129D0
 10
-384.943
 20
839.964
 30
0.000000
  70
    32
  0
VERTEX
  8
0
  5
129D1
 10
-384.943
 20
839.963
 30
0.000000
  70
    32
  0
VERTEX
  8
0
  5
129D2
 10
-384.943
 20
839.962
 30
0.000000
  70
    32
  0
VERTEX
  8
0
  5
129D3
 10
-384.944
 20
839.961
 30
0.000000
  70
    32
  0
VERTEX
  8
0
  5
129D4
 10
-384.944
 20
839.960
 30
0.000000
  70
    32
  0
VERTEX
  8
0
  5
129D5
 10
-384.944
 20
839.959
 30
0.000000
  70
    32
  0
VERTEX
  8
0
  5
129D6
 10
-384.945
 20
839.958
 30
0.000000
  70
    32
  0
VERTEX
  8
0
  5
129D7
 10
-384.945
 20
839.958
 30
0.000000
  70
    32
  0
VERTEX
  8
0
  5
129D8
 10
-384.945
 20
839.957
 30
0.000000
  70
    32
  0
VERTEX
  8
0
  5
129D9
 10
-384.946
 20
839.956
 30
0.000000
  70
    32
  0
VERTEX
  8
0
  5
129DA
 10
-384.946
 20
839.955
 30
0.000000
  70
    32
  0
VERTEX
  8
0
  5
129DB
 10
-384.946
 20
839.954
 30
0.000000
  70
    32
  0
VERTEX
  8
0
  5
129DC
 10
-384.946
 20
839.953
 30
0.000000
  70
    32
  0
VERTEX
  8
0
  5
129DD
 10
-384.947
 20
839.952
 30
0.000000
  70
    32
  0
VERTEX
  8
0
  5
129DE
 10
-384.947
 20
839.952
 30
0.000000
  70
    32
  0
VERTEX
  8
0
  5
129DF
 10
-384.947
 20
839.951
 30
0.000000
  70
    32
  0
VERTEX
  8
0
  5
129E0
 10
-384.948
 20
839.950
 30
0.000000
  70
    32
  0
VERTEX
  8
0
  5
129E1
 10
-384.948
 20
839.949
 30
0.000000
  70
    32
  0
VERTEX
  8
0
  5
129E2
 10
-384.948
 20
839.948
 30
0.000000
  70
    32
  0
VERTEX
  8
0
  5
129E3
 10
-384.949
 20
839.947
 30
0.000000
  70
    32
  0
VERTEX
  8
0
  5
129E4
 10
-384.949
 20
839.946
 30
0.000000
  70
    32
  0
VERTEX
  8
0
  5
129E5
 10
-384.949
 20
839.946
 30
0.000000
  70
    32
  0
VERTEX
  8
0
  5
129E6
 10
-384.949
 20
839.945
 30
0.000000
  70
    32
  0
VERTEX
  8
0
  5
129E7
 10
-384.950
 20
839.944
 30
0.000000
  70
    32
  0
VERTEX
  8
0
  5
129E8
 10
-384.950
 20
839.943
 30
0.000000
  70
    32
  0
VERTEX
  8
0
  5
129E9
 10
-384.950
 20
839.942
 30
0.000000
  70
    32
  0
VERTEX
  8
0
  5
129EA
 10
-384.951
 20
839.941
 30
0.000000
  70
    32
  0
VERTEX
  8
0
  5
129EB
 10
-384.951
 20
839.940
 30
0.000000
  70
    32
  0
VERTEX
  8
0
  5
129EC
 10
-384.951
 20
839.940
 30
0.000000
  70
    32
  0
VERTEX
  8
0
  5
129ED
 10
-384.951
 20
839.939
 30
0.000000
  70
    32
  0
VERTEX
  8
0
  5
129EE
 10
-384.952
 20
839.938
 30
0.000000
  70
    32
  0
VERTEX
  8
0
  5
129EF
 10
-384.952
 20
839.937
 30
0.000000
  70
    32
  0
VERTEX
  8
0
  5
129F0
 10
-384.952
 20
839.936
 30
0.000000
  70
    32
  0
VERTEX
  8
0
  5
129F1
 10
-384.952
 20
839.935
 30
0.000000
  70
    32
  0
VERTEX
  8
0
  5
129F2
 10
-384.953
 20
839.934
 30
0.000000
  70
    32
  0
VERTEX
  8
0
  5
129F3
 10
-384.953
 20
839.933
 30
0.000000
  70
    32
  0
VERTEX
  8
0
  5
129F4
 10
-384.953
 20
839.932
 30
0.000000
  70
    32
  0
VERTEX
  8
0
  5
129F5
 10
-384.953
 20
839.932
 30
0.000000
  70
    32
  0
VERTEX
  8
0
  5
129F6
 10
-384.954
 20
839.931
 30
0.000000
  70
    32
  0
VERTEX
  8
0
  5
129F7
 10
-384.954
 20
839.930
 30
0.000000
  70
    32
  0
VERTEX
  8
0
  5
129F8
 10
-384.954
 20
839.929
 30
0.000000
  70
    32
  0
VERTEX
  8
0
  5
129F9
 10
-384.954
 20
839.928
 30
0.000000
  70
    32
  0
VERTEX
  8
0
  5
129FA
 10
-384.954
 20
839.927
 30
0.000000
  70
    32
  0
VERTEX
  8
0
  5
129FB
 10
-384.955
 20
839.926
 30
0.000000
  70
    32
  0
VERTEX
  8
0
  5
129FC
 10
-384.955
 20
839.925
 30
0.000000
  70
    32
  0
VERTEX
  8
0
  5
129FD
 10
-384.955
 20
839.924
 30
0.000000
  70
    32
  0
VERTEX
  8
0
  5
129FE
 10
-384.955
 20
839.923
 30
0.000000
  70
    32
  0
VERTEX
  8
0
  5
129FF
 10
-384.955
 20
839.922
 30
0.000000
  70
    32
  0
VERTEX
  8
0
  5
12A00
 10
-384.955
 20
839.921
 30
0.000000
  70
    32
  0
VERTEX
  8
0
  5
12A01
 10
-384.956
 20
839.920
 30
0.000000
  70
    32
  0
VERTEX
  8
0
  5
12A02
 10
-384.956
 20
839.919
 30
0.000000
  70
    32
  0
VERTEX
  8
0
  5
12A03
 10
-384.956
 20
839.919
 30
0.000000
  70
    32
  0
VERTEX
  8
0
  5
12A04
 10
-384.956
 20
839.918
 30
0.000000
  70
    32
  0
VERTEX
  8
0
  5
12A05
 10
-384.956
 20
839.917
 30
0.000000
  70
    32
  0
VERTEX
  8
0
  5
12A06
 10
-384.957
 20
839.916
 30
0.000000
  70
    32
  0
VERTEX
  8
0
  5
12A07
 10
-384.957
 20
839.915
 30
0.000000
  70
    32
  0
VERTEX
  8
0
  5
12A08
 10
-384.957
 20
839.914
 30
0.000000
  70
    32
  0
VERTEX
  8
0
  5
12A09
 10
-384.957
 20
839.913
 30
0.000000
  70
    32
  0
VERTEX
  8
0
  5
12A0A
 10
-384.958
 20
839.912
 30
0.000000
  70
    32
  0
VERTEX
  8
0
  5
12A0B
 10
-384.958
 20
839.911
 30
0.000000
  70
    32
  0
VERTEX
  8
0
  5
12A0C
 10
-384.958
 20
839.910
 30
0.000000
  70
    32
  0
VERTEX
  8
0
  5
12A0D
 10
-384.958
 20
839.910
 30
0.000000
  70
    32
  0
VERTEX
  8
0
  5
12A0E
 10
-384.959
 20
839.909
 30
0.000000
  70
    32
  0
VERTEX
  8
0
  5
12A0F
 10
-384.959
 20
839.908
 30
0.000000
  70
    32
  0
VERTEX
  8
0
  5
12A10
 10
-384.959
 20
839.907
 30
0.000000
  70
    32
  0
VERTEX
  8
0
  5
12A11
 10
-384.960
 20
839.906
 30
0.000000
  70
    32
  0
VERTEX
  8
0
  5
12A12
 10
-384.960
 20
839.905
 30
0.000000
  70
    32
  0
VERTEX
  8
0
  5
12A13
 10
-384.960
 20
839.905
 30
0.000000
  70
    32
  0
VERTEX
  8
0
  5
12A14
 10
-384.961
 20
839.904
 30
0.000000
  70
    32
  0
VERTEX
  8
0
  5
12A15
 10
-384.961
 20
839.903
 30
0.000000
  70
    32
  0
VERTEX
  8
0
  5
12A16
 10
-384.962
 20
839.902
 30
0.000000
  70
    32
  0
VERTEX
  8
0
  5
12A17
 10
-384.962
 20
839.902
 30
0.000000
  70
    32
  0
VERTEX
  8
0
  5
12A18
 10
-384.963
 20
839.901
 30
0.000000
  70
    32
  0
VERTEX
  8
0
  5
12A19
 10
-384.963
 20
839.900
 30
0.000000
  70
    32
  0
VERTEX
  8
0
  5
12A1A
 10
-384.964
 20
839.900
 30
0.000000
  70
    32
  0
VERTEX
  8
0
  5
12A1B
 10
-384.965
 20
839.899
 30
0.000000
  70
    32
  0
VERTEX
  8
0
  5
12A1C
 10
-384.965
 20
839.898
 30
0.000000
  70
    32
  0
VERTEX
  8
0
  5
12A1D
 10
-384.966
 20
839.898
 30
0.000000
  70
    32
  0
VERTEX
  8
0
  5
12A1E
 10
-384.966
 20
839.897
 30
0.000000
  70
    32
  0
VERTEX
  8
0
  5
12A1F
 10
-384.967
 20
839.896
 30
0.000000
  70
    32
  0
VERTEX
  8
0
  5
12A20
 10
-384.968
 20
839.896
 30
0.000000
  70
    32
  0
VERTEX
  8
0
  5
12A21
 10
-384.969
 20
839.895
 30
0.000000
  70
    32
  0
VERTEX
  8
0
  5
12A22
 10
-384.969
 20
839.895
 30
0.000000
  70
    32
  0
VERTEX
  8
0
  5
12A23
 10
-384.970
 20
839.894
 30
0.000000
  70
    32
  0
VERTEX
  8
0
  5
12A24
 10
-384.971
 20
839.894
 30
0.000000
  70
    32
  0
VERTEX
  8
0
  5
12A25
 10
-384.972
 20
839.893
 30
0.000000
  70
    32
  0
VERTEX
  8
0
  5
12A26
 10
-384.972
 20
839.892
 30
0.000000
  70
    32
  0
VERTEX
  8
0
  5
12A27
 10
-384.973
 20
839.892
 30
0.000000
  70
    32
  0
VERTEX
  8
0
  5
12A28
 10
-384.974
 20
839.891
 30
0.000000
  70
    32
  0
VERTEX
  8
0
  5
12A29
 10
-384.975
 20
839.891
 30
0.000000
  70
    32
  0
VERTEX
  8
0
  5
12A2A
 10
-384.975
 20
839.890
 30
0.000000
  70
    32
  0
VERTEX
  8
0
  5
12A2B
 10
-384.976
 20
839.890
 30
0.000000
  70
    32
  0
VERTEX
  8
0
  5
12A2C
 10
-384.977
 20
839.889
 30
0.000000
  70
    32
  0
VERTEX
  8
0
  5
12A2D
 10
-384.978
 20
839.889
 30
0.000000
  70
    32
  0
VERTEX
  8
0
  5
12A2E
 10
-384.978
 20
839.888
 30
0.000000
  70
    32
  0
VERTEX
  8
0
  5
12A2F
 10
-384.979
 20
839.888
 30
0.000000
  70
    32
  0
VERTEX
  8
0
  5
12A30
 10
-384.980
 20
839.887
 30
0.000000
  70
    32
  0
VERTEX
  8
0
  5
12A31
 10
-384.981
 20
839.887
 30
0.000000
  70
    32
  0
VERTEX
  8
0
  5
12A32
 10
-384.981
 20
839.886
 30
0.000000
  70
    32
  0
VERTEX
  8
0
  5
12A33
 10
-384.982
 20
839.886
 30
0.000000
  70
    32
  0
VERTEX
  8
0
  5
12A34
 10
-384.983
 20
839.885
 30
0.000000
  70
    32
  0
VERTEX
  8
0
  5
12A35
 10
-384.984
 20
839.885
 30
0.000000
  70
    32
  0
VERTEX
  8
0
  5
12A36
 10
-384.984
 20
839.884
 30
0.000000
  70
    32
  0
VERTEX
  8
0
  5
12A37
 10
-384.985
 20
839.884
 30
0.000000
  70
    32
  0
VERTEX
  8
0
  5
12A38
 10
-384.986
 20
839.883
 30
0.000000
  70
    32
  0
VERTEX
  8
0
  5
12A39
 10
-384.986
 20
839.882
 30
0.000000
  70
    32
  0
VERTEX
  8
0
  5
12A3A
 10
-384.987
 20
839.882
 30
0.000000
  70
    32
  0
VERTEX
  8
0
  5
12A3B
 10
-384.988
 20
839.881
 30
0.000000
  70
    32
  0
VERTEX
  8
0
  5
12A3C
 10
-384.989
 20
839.881
 30
0.000000
  70
    32
  0
VERTEX
  8
0
  5
12A3D
 10
-384.989
 20
839.880
 30
0.000000
  70
    32
  0
VERTEX
  8
0
  5
12A3E
 10
-384.990
 20
839.880
 30
0.000000
  70
    32
  0
VERTEX
  8
0
  5
12A3F
 10
-384.991
 20
839.879
 30
0.000000
  70
    32
  0
VERTEX
  8
0
  5
12A40
 10
-384.992
 20
839.878
 30
0.000000
  70
    32
  0
VERTEX
  8
0
  5
12A41
 10
-384.992
 20
839.878
 30
0.000000
  70
    32
  0
VERTEX
  8
0
  5
12A42
 10
-384.993
 20
839.877
 30
0.000000
  70
    32
  0
VERTEX
  8
0
  5
12A43
 10
-384.994
 20
839.877
 30
0.000000
  70
    32
  0
VERTEX
  8
0
  5
12A44
 10
-384.994
 20
839.876
 30
0.000000
  70
    32
  0
VERTEX
  8
0
  5
12A45
 10
-384.995
 20
839.875
 30
0.000000
  70
    32
  0
VERTEX
  8
0
  5
12A46
 10
-384.996
 20
839.875
 30
0.000000
  70
    32
  0
VERTEX
  8
0
  5
12A47
 10
-384.997
 20
839.874
 30
0.000000
  70
    32
  0
VERTEX
  8
0
  5
12A48
 10
-384.997
 20
839.874
 30
0.000000
  70
    32
  0
VERTEX
  8
0
  5
12A49
 10
-384.998
 20
839.873
 30
0.000000
  70
    32
  0
VERTEX
  8
0
  5
12A4A
 10
-384.999
 20
839.873
 30
0.000000
  70
    32
  0
VERTEX
  8
0
  5
12A4B
 10
-385.000
 20
839.872
 30
0.000000
  70
    32
  0
VERTEX
  8
0
  5
12A4C
 10
-385.000
 20
839.872
 30
0.000000
  70
    32
  0
VERTEX
  8
0
  5
12A4D
 10
-385.001
 20
839.871
 30
0.000000
  70
    32
  0
VERTEX
  8
0
  5
12A4E
 10
-385.002
 20
839.871
 30
0.000000
  70
    32
  0
VERTEX
  8
0
  5
12A4F
 10
-385.003
 20
839.870
 30
0.000000
  70
    32
  0
VERTEX
  8
0
  5
12A50
 10
-385.004
 20
839.870
 30
0.000000
  70
    32
  0
VERTEX
  8
0
  5
12A51
 10
-385.004
 20
839.870
 30
0.000000
  70
    32
  0
VERTEX
  8
0
  5
12A52
 10
-385.005
 20
839.869
 30
0.000000
  70
    32
  0
VERTEX
  8
0
  5
12A53
 10
-385.006
 20
839.869
 30
0.000000
  70
    32
  0
VERTEX
  8
0
  5
12A54
 10
-385.007
 20
839.869
 30
0.000000
  70
    32
  0
VERTEX
  8
0
  5
12A55
 10
-385.008
 20
839.869
 30
0.000000
  70
    32
  0
VERTEX
  8
0
  5
12A56
 10
-385.009
 20
839.869
 30
0.000000
  70
    32
  0
VERTEX
  8
0
  5
12A57
 10
-385.010
 20
839.869
 30
0.000000
  70
    32
  0
VERTEX
  8
0
  5
12A58
 10
-385.010
 20
839.868
 30
0.000000
  70
    32
  0
VERTEX
  8
0
  5
12A59
 10
-385.011
 20
839.868
 30
0.000000
  70
    32
  0
VERTEX
  8
0
  5
12A5A
 10
-385.012
 20
839.868
 30
0.000000
  70
    32
  0
VERTEX
  8
0
  5
12A5B
 10
-385.013
 20
839.868
 30
0.000000
  70
    32
  0
VERTEX
  8
0
  5
12A5C
 10
-385.014
 20
839.868
 30
0.000000
  70
    32
  0
VERTEX
  8
0
  5
12A5D
 10
-385.015
 20
839.868
 30
0.000000
  70
    32
  0
VERTEX
  8
0
  5
12A5E
 10
-385.016
 20
839.868
 30
0.000000
  70
    32
  0
VERTEX
  8
0
  5
12A5F
 10
-385.017
 20
839.868
 30
0.000000
  70
    32
  0
VERTEX
  8
0
  5
12A60
 10
-385.018
 20
839.868
 30
0.000000
  70
    32
  0
VERTEX
  8
0
  5
12A61
 10
-385.019
 20
839.868
 30
0.000000
  70
    32
  0
VERTEX
  8
0
  5
12A62
 10
-385.020
 20
839.868
 30
0.000000
  70
    32
  0
VERTEX
  8
0
  5
12A63
 10
-385.021
 20
839.868
 30
0.000000
  70
    32
  0
VERTEX
  8
0
  5
12A64
 10
-385.022
 20
839.868
 30
0.000000
  70
    32
  0
VERTEX
  8
0
  5
12A65
 10
-385.023
 20
839.868
 30
0.000000
  70
    32
  0
VERTEX
  8
0
  5
12A66
 10
-385.023
 20
839.868
 30
0.000000
  70
    32
  0
VERTEX
  8
0
  5
12A67
 10
-385.024
 20
839.868
 30
0.000000
  70
    32
  0
VERTEX
  8
0
  5
12A68
 10
-385.025
 20
839.868
 30
0.000000
  70
    32
  0
VERTEX
  8
0
  5
12A69
 10
-385.026
 20
839.868
 30
0.000000
  70
    32
  0
VERTEX
  8
0
  5
12A6A
 10
-385.027
 20
839.868
 30
0.000000
  70
    32
  0
VERTEX
  8
0
  5
12A6B
 10
-385.028
 20
839.868
 30
0.000000
  70
    32
  0
VERTEX
  8
0
  5
12A6C
 10
-385.029
 20
839.868
 30
0.000000
  70
    32
  0
VERTEX
  8
0
  5
12A6D
 10
-385.030
 20
839.868
 30
0.000000
  70
    32
  0
VERTEX
  8
0
  5
12A6E
 10
-385.031
 20
839.868
 30
0.000000
  70
    32
  0
VERTEX
  8
0
  5
12A6F
 10
-385.032
 20
839.868
 30
0.000000
  70
    32
  0
VERTEX
  8
0
  5
12A70
 10
-385.033
 20
839.868
 30
0.000000
  70
    32
  0
VERTEX
  8
0
  5
12A71
 10
-385.034
 20
839.868
 30
0.000000
  70
    32
  0
VERTEX
  8
0
  5
12A72
 10
-385.035
 20
839.867
 30
0.000000
  70
    32
  0
VERTEX
  8
0
  5
12A73
 10
-385.036
 20
839.867
 30
0.000000
  70
    32
  0
VERTEX
  8
0
  5
12A74
 10
-385.036
 20
839.867
 30
0.000000
  70
    32
  0
VERTEX
  8
0
  5
12A75
 10
-385.037
 20
839.867
 30
0.000000
  70
    32
  0
VERTEX
  8
0
  5
12A76
 10
-385.038
 20
839.866
 30
0.000000
  70
    32
  0
VERTEX
  8
0
  5
12A77
 10
-385.039
 20
839.866
 30
0.000000
  70
    32
  0
VERTEX
  8
0
  5
12A78
 10
-385.040
 20
839.866
 30
0.000000
  70
    32
  0
VERTEX
  8
0
  5
12A79
 10
-385.040
 20
839.865
 30
0.000000
  70
    32
  0
VERTEX
  8
0
  5
12A7A
 10
-385.041
 20
839.865
 30
0.000000
  70
    32
  0
VERTEX
  8
0
  5
12A7B
 10
-385.042
 20
839.864
 30
0.000000
  70
    32
  0
VERTEX
  8
0
  5
12A7C
 10
-385.042
 20
839.864
 30
0.000000
  70
    32
  0
VERTEX
  8
0
  5
12A7D
 10
-385.043
 20
839.863
 30
0.000000
  70
    32
  0
VERTEX
  8
0
  5
12A7E
 10
-385.044
 20
839.863
 30
0.000000
  70
    32
  0
VERTEX
  8
0
  5
12A7F
 10
-385.044
 20
839.862
 30
0.000000
  70
    32
  0
VERTEX
  8
0
  5
12A80
 10
-385.045
 20
839.861
 30
0.000000
  70
    32
  0
VERTEX
  8
0
  5
12A81
 10
-385.046
 20
839.861
 30
0.000000
  70
    32
  0
VERTEX
  8
0
  5
12A82
 10
-385.046
 20
839.860
 30
0.000000
  70
    32
  0
VERTEX
  8
0
  5
12A83
 10
-385.047
 20
839.859
 30
0.000000
  70
    32
  0
VERTEX
  8
0
  5
12A84
 10
-385.048
 20
839.859
 30
0.000000
  70
    32
  0
VERTEX
  8
0
  5
12A85
 10
-385.048
 20
839.858
 30
0.000000
  70
    32
  0
VERTEX
  8
0
  5
12A86
 10
-385.049
 20
839.857
 30
0.000000
  70
    32
  0
VERTEX
  8
0
  5
12A87
 10
-385.049
 20
839.856
 30
0.000000
  70
    32
  0
VERTEX
  8
0
  5
12A88
 10
-385.050
 20
839.856
 30
0.000000
  70
    32
  0
VERTEX
  8
0
  5
12A89
 10
-385.051
 20
839.855
 30
0.000000
  70
    32
  0
VERTEX
  8
0
  5
12A8A
 10
-385.051
 20
839.854
 30
0.000000
  70
    32
  0
VERTEX
  8
0
  5
12A8B
 10
-385.052
 20
839.853
 30
0.000000
  70
    32
  0
VERTEX
  8
0
  5
12A8C
 10
-385.052
 20
839.853
 30
0.000000
  70
    32
  0
VERTEX
  8
0
  5
12A8D
 10
-385.053
 20
839.852
 30
0.000000
  70
    32
  0
VERTEX
  8
0
  5
12A8E
 10
-385.054
 20
839.851
 30
0.000000
  70
    32
  0
VERTEX
  8
0
  5
12A8F
 10
-385.054
 20
839.850
 30
0.000000
  70
    32
  0
VERTEX
  8
0
  5
12A90
 10
-385.055
 20
839.850
 30
0.000000
  70
    32
  0
VERTEX
  8
0
  5
12A91
 10
-385.056
 20
839.849
 30
0.000000
  70
    32
  0
VERTEX
  8
0
  5
12A92
 10
-385.056
 20
839.848
 30
0.000000
  70
    32
  0
VERTEX
  8
0
  5
12A93
 10
-385.057
 20
839.847
 30
0.000000
  70
    32
  0
VERTEX
  8
0
  5
12A94
 10
-385.057
 20
839.847
 30
0.000000
  70
    32
  0
VERTEX
  8
0
  5
12A95
 10
-385.058
 20
839.846
 30
0.000000
  70
    32
  0
VERTEX
  8
0
  5
12A96
 10
-385.059
 20
839.845
 30
0.000000
  70
    32
  0
VERTEX
  8
0
  5
12A97
 10
-385.059
 20
839.845
 30
0.000000
  70
    32
  0
VERTEX
  8
0
  5
12A98
 10
-385.060
 20
839.844
 30
0.000000
  70
    32
  0
VERTEX
  8
0
  5
12A99
 10
-385.060
 20
839.843
 30
0.000000
  70
    32
  0
VERTEX
  8
0
  5
12A9A
 10
-385.061
 20
839.843
 30
0.000000
  70
    32
  0
VERTEX
  8
0
  5
12A9B
 10
-385.062
 20
839.842
 30
0.000000
  70
    32
  0
VERTEX
  8
0
  5
12A9C
 10
-385.062
 20
839.841
 30
0.000000
  70
    32
  0
VERTEX
  8
0
  5
12A9D
 10
-385.063
 20
839.840
 30
0.000000
  70
    32
  0
VERTEX
  8
0
  5
12A9E
 10
-385.063
 20
839.840
 30
0.000000
  70
    32
  0
VERTEX
  8
0
  5
12A9F
 10
-385.064
 20
839.839
 30
0.000000
  70
    32
  0
VERTEX
  8
0
  5
12AA0
 10
-385.064
 20
839.838
 30
0.000000
  70
    32
  0
VERTEX
  8
0
  5
12AA1
 10
-385.065
 20
839.837
 30
0.000000
  70
    32
  0
VERTEX
  8
0
  5
12AA2
 10
-385.065
 20
839.837
 30
0.000000
  70
    32
  0
VERTEX
  8
0
  5
12AA3
 10
-385.066
 20
839.836
 30
0.000000
  70
    32
  0
VERTEX
  8
0
  5
12AA4
 10
-385.066
 20
839.835
 30
0.000000
  70
    32
  0
VERTEX
  8
0
  5
12AA5
 10
-385.066
 20
839.834
 30
0.000000
  70
    32
  0
VERTEX
  8
0
  5
12AA6
 10
-385.067
 20
839.834
 30
0.000000
  70
    32
  0
VERTEX
  8
0
  5
12AA7
 10
-385.067
 20
839.833
 30
0.000000
  70
    32
  0
VERTEX
  8
0
  5
12AA8
 10
-385.067
 20
839.832
 30
0.000000
  70
    32
  0
VERTEX
  8
0
  5
12AA9
 10
-385.068
 20
839.831
 30
0.000000
  70
    32
  0
VERTEX
  8
0
  5
12AAA
 10
-385.068
 20
839.830
 30
0.000000
  70
    32
  0
VERTEX
  8
0
  5
12AAB
 10
-385.068
 20
839.829
 30
0.000000
  70
    32
  0
VERTEX
  8
0
  5
12AAC
 10
-385.068
 20
839.828
 30
0.000000
  70
    32
  0
VERTEX
  8
0
  5
12AAD
 10
-385.069
 20
839.828
 30
0.000000
  70
    32
  0
VERTEX
  8
0
  5
12AAE
 10
-385.069
 20
839.827
 30
0.000000
  70
    32
  0
VERTEX
  8
0
  5
12AAF
 10
-385.069
 20
839.826
 30
0.000000
  70
    32
  0
VERTEX
  8
0
  5
12AB0
 10
-385.069
 20
839.825
 30
0.000000
  70
    32
  0
VERTEX
  8
0
  5
12AB1
 10
-385.069
 20
839.824
 30
0.000000
  70
    32
  0
VERTEX
  8
0
  5
12AB2
 10
-385.069
 20
839.823
 30
0.000000
  70
    32
  0
VERTEX
  8
0
  5
12AB3
 10
-385.069
 20
839.822
 30
0.000000
  70
    32
  0
VERTEX
  8
0
  5
12AB4
 10
-385.070
 20
839.821
 30
0.000000
  70
    32
  0
VERTEX
  8
0
  5
12AB5
 10
-385.070
 20
839.820
 30
0.000000
  70
    32
  0
VERTEX
  8
0
  5
12AB6
 10
-385.070
 20
839.819
 30
0.000000
  70
    32
  0
VERTEX
  8
0
  5
12AB7
 10
-385.070
 20
839.818
 30
0.000000
  70
    32
  0
VERTEX
  8
0
  5
12AB8
 10
-385.070
 20
839.818
 30
0.000000
  70
    32
  0
VERTEX
  8
0
  5
12AB9
 10
-385.070
 20
839.817
 30
0.000000
  70
    32
  0
VERTEX
  8
0
  5
12ABA
 10
-385.070
 20
839.816
 30
0.000000
  70
    32
  0
VERTEX
  8
0
  5
12ABB
 10
-385.070
 20
839.815
 30
0.000000
  70
    32
  0
VERTEX
  8
0
  5
12ABC
 10
-385.070
 20
839.814
 30
0.000000
  70
    32
  0
VERTEX
  8
0
  5
12ABD
 10
-385.070
 20
839.813
 30
0.000000
  70
    32
  0
VERTEX
  8
0
  5
12ABE
 10
-385.070
 20
839.812
 30
0.000000
  70
    32
  0
VERTEX
  8
0
  5
12ABF
 10
-385.070
 20
839.811
 30
0.000000
  70
    32
  0
VERTEX
  8
0
  5
12AC0
 10
-385.070
 20
839.810
 30
0.000000
  70
    32
  0
VERTEX
  8
0
  5
12AC1
 10
-385.070
 20
839.809
 30
0.000000
  70
    32
  0
VERTEX
  8
0
  5
12AC2
 10
-385.070
 20
839.808
 30
0.000000
  70
    32
  0
VERTEX
  8
0
  5
12AC3
 10
-385.070
 20
839.807
 30
0.000000
  70
    32
  0
VERTEX
  8
0
  5
12AC4
 10
-385.070
 20
839.806
 30
0.000000
  70
    32
  0
VERTEX
  8
0
  5
12AC5
 10
-385.070
 20
839.805
 30
0.000000
  70
    32
  0
VERTEX
  8
0
  5
12AC6
 10
-385.070
 20
839.804
 30
0.000000
  70
    32
  0
VERTEX
  8
0
  5
12AC7
 10
-385.070
 20
839.803
 30
0.000000
  70
    32
  0
VERTEX
  8
0
  5
12AC8
 10
-385.070
 20
839.803
 30
0.000000
  70
    32
  0
VERTEX
  8
0
  5
12AC9
 10
-385.070
 20
839.802
 30
0.000000
  70
    32
  0
VERTEX
  8
0
  5
12ACA
 10
-385.070
 20
839.801
 30
0.000000
  70
    32
  0
VERTEX
  8
0
  5
12ACB
 10
-385.070
 20
839.800
 30
0.000000
  70
    32
  0
VERTEX
  8
0
  5
12ACC
 10
-385.070
 20
839.799
 30
0.000000
  70
    32
  0
VERTEX
  8
0
  5
12ACD
 10
-385.070
 20
839.798
 30
0.000000
  70
    32
  0
VERTEX
  8
0
  5
12ACE
 10
-385.070
 20
839.797
 30
0.000000
  70
    32
  0
VERTEX
  8
0
  5
12ACF
 10
-385.070
 20
839.796
 30
0.000000
  70
    32
  0
VERTEX
  8
0
  5
12AD0
 10
-385.070
 20
839.795
 30
0.000000
  70
    32
  0
VERTEX
  8
0
  5
12AD1
 10
-385.070
 20
839.794
 30
0.000000
  70
    32
  0
VERTEX
  8
0
  5
12AD2
 10
-385.070
 20
839.793
 30
0.000000
  70
    32
  0
VERTEX
  8
0
  5
12AD3
 10
-385.070
 20
839.793
 30
0.000000
  70
    32
  0
VERTEX
  8
0
  5
12AD4
 10
-385.070
 20
839.792
 30
0.000000
  70
    32
  0
VERTEX
  8
0
  5
12AD5
 10
-385.071
 20
839.791
 30
0.000000
  70
    32
  0
VERTEX
  8
0
  5
12AD6
 10
-385.071
 20
839.790
 30
0.000000
  70
    32
  0
VERTEX
  8
0
  5
12AD7
 10
-385.071
 20
839.789
 30
0.000000
  70
    32
  0
VERTEX
  8
0
  5
12AD8
 10
-385.071
 20
839.788
 30
0.000000
  70
    32
  0
VERTEX
  8
0
  5
12AD9
 10
-385.071
 20
839.787
 30
0.000000
  70
    32
  0
VERTEX
  8
0
  5
12ADA
 10
-385.071
 20
839.786
 30
0.000000
  70
    32
  0
VERTEX
  8
0
  5
12ADB
 10
-385.071
 20
839.785
 30
0.000000
  70
    32
  0
VERTEX
  8
0
  5
12ADC
 10
-385.071
 20
839.784
 30
0.000000
  70
    32
  0
VERTEX
  8
0
  5
12ADD
 10
-385.071
 20
839.784
 30
0.000000
  70
    32
  0
VERTEX
  8
0
  5
12ADE
 10
-385.071
 20
839.783
 30
0.000000
  70
    32
  0
VERTEX
  8
0
  5
12ADF
 10
-385.071
 20
839.782
 30
0.000000
  70
    32
  0
VERTEX
  8
0
  5
12AE0
 10
-385.071
 20
839.781
 30
0.000000
  70
    32
  0
VERTEX
  8
0
  5
12AE1
 10
-385.071
 20
839.780
 30
0.000000
  70
    32
  0
VERTEX
  8
0
  5
12AE2
 10
-385.071
 20
839.779
 30
0.000000
  70
    32
  0
VERTEX
  8
0
  5
12AE3
 10
-385.071
 20
839.778
 30
0.000000
  70
    32
  0
VERTEX
  8
0
  5
12AE4
 10
-385.071
 20
839.777
 30
0.000000
  70
    32
  0
VERTEX
  8
0
  5
12AE5
 10
-385.071
 20
839.776
 30
0.000000
  70
    32
  0
VERTEX
  8
0
  5
12AE6
 10
-385.071
 20
839.775
 30
0.000000
  70
    32
  0
VERTEX
  8
0
  5
12AE7
 10
-385.071
 20
839.774
 30
0.000000
  70
    32
  0
VERTEX
  8
0
  5
12AE8
 10
-385.071
 20
839.774
 30
0.000000
  70
    32
  0
VERTEX
  8
0
  5
12AE9
 10
-385.071
 20
839.773
 30
0.000000
  70
    32
  0
VERTEX
  8
0
  5
12AEA
 10
-385.071
 20
839.772
 30
0.000000
  70
    32
  0
VERTEX
  8
0
  5
12AEB
 10
-385.071
 20
839.771
 30
0.000000
  70
    32
  0
VERTEX
  8
0
  5
12AEC
 10
-385.071
 20
839.770
 30
0.000000
  70
    32
  0
VERTEX
  8
0
  5
12AED
 10
-385.071
 20
839.769
 30
0.000000
  70
    32
  0
VERTEX
  8
0
  5
12AEE
 10
-385.071
 20
839.768
 30
0.000000
  70
    32
  0
VERTEX
  8
0
  5
12AEF
 10
-385.071
 20
839.767
 30
0.000000
  70
    32
  0
VERTEX
  8
0
  5
12AF0
 10
-385.071
 20
839.766
 30
0.000000
  70
    32
  0
VERTEX
  8
0
  5
12AF1
 10
-385.071
 20
839.765
 30
0.000000
  70
    32
  0
VERTEX
  8
0
  5
12AF2
 10
-385.071
 20
839.764
 30
0.000000
  70
    32
  0
VERTEX
  8
0
  5
12AF3
 10
-385.071
 20
839.763
 30
0.000000
  70
    32
  0
VERTEX
  8
0
  5
12AF4
 10
-385.071
 20
839.763
 30
0.000000
  70
    32
  0
VERTEX
  8
0
  5
12AF5
 10
-385.071
 20
839.762
 30
0.000000
  70
    32
  0
VERTEX
  8
0
  5
12AF6
 10
-385.071
 20
839.761
 30
0.000000
  70
    32
  0
VERTEX
  8
0
  5
12AF7
 10
-385.071
 20
839.760
 30
0.000000
  70
    32
  0
VERTEX
  8
0
  5
12AF8
 10
-385.071
 20
839.759
 30
0.000000
  70
    32
  0
VERTEX
  8
0
  5
12AF9
 10
-385.071
 20
839.758
 30
0.000000
  70
    32
  0
VERTEX
  8
0
  5
12AFA
 10
-385.071
 20
839.757
 30
0.000000
  70
    32
  0
VERTEX
  8
0
  5
12AFB
 10
-385.071
 20
839.756
 30
0.000000
  70
    32
  0
VERTEX
  8
0
  5
12AFC
 10
-385.071
 20
839.755
 30
0.000000
  70
    32
  0
VERTEX
  8
0
  5
12AFD
 10
-385.071
 20
839.754
 30
0.000000
  70
    32
  0
VERTEX
  8
0
  5
12AFE
 10
-385.071
 20
839.753
 30
0.000000
  70
    32
  0
VERTEX
  8
0
  5
12AFF
 10
-385.071
 20
839.753
 30
0.000000
  70
    32
  0
VERTEX
  8
0
  5
12B00
 10
-385.071
 20
839.752
 30
0.000000
  70
    32
  0
VERTEX
  8
0
  5
12B01
 10
-385.071
 20
839.751
 30
0.000000
  70
    32
  0
VERTEX
  8
0
  5
12B02
 10
-385.071
 20
839.750
 30
0.000000
  70
    32
  0
VERTEX
  8
0
  5
12B03
 10
-385.071
 20
839.749
 30
0.000000
  70
    32
  0
VERTEX
  8
0
  5
12B04
 10
-385.071
 20
839.748
 30
0.000000
  70
    32
  0
VERTEX
  8
0
  5
12B05
 10
-385.071
 20
839.747
 30
0.000000
  70
    32
  0
VERTEX
  8
0
  5
12B06
 10
-385.071
 20
839.746
 30
0.000000
  70
    32
  0
VERTEX
  8
0
  5
12B07
 10
-385.071
 20
839.745
 30
0.000000
  70
    32
  0
VERTEX
  8
0
  5
12B08
 10
-385.071
 20
839.744
 30
0.000000
  70
    32
  0
VERTEX
  8
0
  5
12B09
 10
-385.071
 20
839.743
 30
0.000000
  70
    32
  0
SEQEND
  8
0
  5
12B0A
  0
POLYLINE
  8
0
  5
12B0B
  66
     1
 10
0.000000
 20
0.000000
 30
0.000000
  70
     8
  0
VERTEX
  8
0
  5
12B0C
 10
-385.753
 20
841.571
 30
0.000000
  70
    32
  0
VERTEX
  8
0
  5
12B0D
 10
-385.749
 20
841.571
 30
0.000000
  70
    32
  0
VERTEX
  8
0
  5
12B0E
 10
-385.746
 20
841.570
 30
0.000000
  70
    32
  0
VERTEX
  8
0
  5
12B0F
 10
-385.742
 20
841.570
 30
0.000000
  70
    32
  0
VERTEX
  8
0
  5
12B10
 10
-385.738
 20
841.569
 30
0.000000
  70
    32
  0
VERTEX
  8
0
  5
12B11
 10
-385.734
 20
841.569
 30
0.000000
  70
    32
  0
VERTEX
  8
0
  5
12B12
 10
-385.731
 20
841.568
 30
0.000000
  70
    32
  0
VERTEX
  8
0
  5
12B13
 10
-385.727
 20
841.568
 30
0.000000
  70
    32
  0
VERTEX
  8
0
  5
12B14
 10
-385.723
 20
841.567
 30
0.000000
  70
    32
  0
VERTEX
  8
0
  5
12B15
 10
-385.720
 20
841.566
 30
0.000000
  70
    32
  0
VERTEX
  8
0
  5
12B16
 10
-385.716
 20
841.566
 30
0.000000
  70
    32
  0
VERTEX
  8
0
  5
12B17
 10
-385.712
 20
841.565
 30
0.000000
  70
    32
  0
VERTEX
  8
0
  5
12B18
 10
-385.709
 20
841.564
 30
0.000000
  70
    32
  0
VERTEX
  8
0
  5
12B19
 10
-385.705
 20
841.563
 30
0.000000
  70
    32
  0
VERTEX
  8
0
  5
12B1A
 10
-385.701
 20
841.562
 30
0.000000
  70
    32
  0
VERTEX
  8
0
  5
12B1B
 10
-385.698
 20
841.561
 30
0.000000
  70
    32
  0
VERTEX
  8
0
  5
12B1C
 10
-385.694
 20
841.560
 30
0.000000
  70
    32
  0
VERTEX
  8
0
  5
12B1D
 10
-385.690
 20
841.559
 30
0.000000
  70
    32
  0
VERTEX
  8
0
  5
12B1E
 10
-385.687
 20
841.558
 30
0.000000
  70
    32
  0
VERTEX
  8
0
  5
12B1F
 10
-385.683
 20
841.557
 30
0.000000
  70
    32
  0
VERTEX
  8
0
  5
12B20
 10
-385.679
 20
841.556
 30
0.000000
  70
    32
  0
VERTEX
  8
0
  5
12B21
 10
-385.676
 20
841.555
 30
0.000000
  70
    32
  0
VERTEX
  8
0
  5
12B22
 10
-385.672
 20
841.554
 30
0.000000
  70
    32
  0
VERTEX
  8
0
  5
12B23
 10
-385.669
 20
841.553
 30
0.000000
  70
    32
  0
VERTEX
  8
0
  5
12B24
 10
-385.665
 20
841.551
 30
0.000000
  70
    32
  0
VERTEX
  8
0
  5
12B25
 10
-385.661
 20
841.550
 30
0.000000
  70
    32
  0
VERTEX
  8
0
  5
12B26
 10
-385.658
 20
841.549
 30
0.000000
  70
    32
  0
VERTEX
  8
0
  5
12B27
 10
-385.654
 20
841.548
 30
0.000000
  70
    32
  0
VERTEX
  8
0
  5
12B28
 10
-385.651
 20
841.546
 30
0.000000
  70
    32
  0
VERTEX
  8
0
  5
12B29
 10
-385.647
 20
841.545
 30
0.000000
  70
    32
  0
VERTEX
  8
0
  5
12B2A
 10
-385.644
 20
841.543
 30
0.000000
  70
    32
  0
VERTEX
  8
0
  5
12B2B
 10
-385.640
 20
841.542
 30
0.000000
  70
    32
  0
VERTEX
  8
0
  5
12B2C
 10
-385.637
 20
841.540
 30
0.000000
  70
    32
  0
VERTEX
  8
0
  5
12B2D
 10
-385.633
 20
841.539
 30
0.000000
  70
    32
  0
VERTEX
  8
0
  5
12B2E
 10
-385.630
 20
841.537
 30
0.000000
  70
    32
  0
VERTEX
  8
0
  5
12B2F
 10
-385.626
 20
841.536
 30
0.000000
  70
    32
  0
VERTEX
  8
0
  5
12B30
 10
-385.623
 20
841.534
 30
0.000000
  70
    32
  0
VERTEX
  8
0
  5
12B31
 10
-385.619
 20
841.533
 30
0.000000
  70
    32
  0
VERTEX
  8
0
  5
12B32
 10
-385.616
 20
841.531
 30
0.000000
  70
    32
  0
VERTEX
  8
0
  5
12B33
 10
-385.613
 20
841.529
 30
0.000000
  70
    32
  0
VERTEX
  8
0
  5
12B34
 10
-385.609
 20
841.528
 30
0.000000
  70
    32
  0
VERTEX
  8
0
  5
12B35
 10
-385.606
 20
841.526
 30
0.000000
  70
    32
  0
VERTEX
  8
0
  5
12B36
 10
-385.602
 20
841.524
 30
0.000000
  70
    32
  0
VERTEX
  8
0
  5
12B37
 10
-385.599
 20
841.522
 30
0.000000
  70
    32
  0
VERTEX
  8
0
  5
12B38
 10
-385.596
 20
841.520
 30
0.000000
  70
    32
  0
VERTEX
  8
0
  5
12B39
 10
-385.592
 20
841.519
 30
0.000000
  70
    32
  0
VERTEX
  8
0
  5
12B3A
 10
-385.589
 20
841.517
 30
0.000000
  70
    32
  0
VERTEX
  8
0
  5
12B3B
 10
-385.586
 20
841.515
 30
0.000000
  70
    32
  0
VERTEX
  8
0
  5
12B3C
 10
-385.582
 20
841.513
 30
0.000000
  70
    32
  0
VERTEX
  8
0
  5
12B3D
 10
-385.579
 20
841.511
 30
0.000000
  70
    32
  0
VERTEX
  8
0
  5
12B3E
 10
-385.576
 20
841.509
 30
0.000000
  70
    32
  0
VERTEX
  8
0
  5
12B3F
 10
-385.572
 20
841.507
 30
0.000000
  70
    32
  0
VERTEX
  8
0
  5
12B40
 10
-385.569
 20
841.505
 30
0.000000
  70
    32
  0
VERTEX
  8
0
  5
12B41
 10
-385.566
 20
841.503
 30
0.000000
  70
    32
  0
VERTEX
  8
0
  5
12B42
 10
-385.563
 20
841.501
 30
0.000000
  70
    32
  0
VERTEX
  8
0
  5
12B43
 10
-385.559
 20
841.499
 30
0.000000
  70
    32
  0
VERTEX
  8
0
  5
12B44
 10
-385.556
 20
841.497
 30
0.000000
  70
    32
  0
VERTEX
  8
0
  5
12B45
 10
-385.553
 20
841.495
 30
0.000000
  70
    32
  0
VERTEX
  8
0
  5
12B46
 10
-385.550
 20
841.493
 30
0.000000
  70
    32
  0
VERTEX
  8
0
  5
12B47
 10
-385.547
 20
841.491
 30
0.000000
  70
    32
  0
VERTEX
  8
0
  5
12B48
 10
-385.544
 20
841.488
 30
0.000000
  70
    32
  0
VERTEX
  8
0
  5
12B49
 10
-385.540
 20
841.486
 30
0.000000
  70
    32
  0
VERTEX
  8
0
  5
12B4A
 10
-385.537
 20
841.484
 30
0.000000
  70
    32
  0
VERTEX
  8
0
  5
12B4B
 10
-385.534
 20
841.482
 30
0.000000
  70
    32
  0
VERTEX
  8
0
  5
12B4C
 10
-385.531
 20
841.480
 30
0.000000
  70
    32
  0
VERTEX
  8
0
  5
12B4D
 10
-385.528
 20
841.477
 30
0.000000
  70
    32
  0
VERTEX
  8
0
  5
12B4E
 10
-385.525
 20
841.475
 30
0.000000
  70
    32
  0
VERTEX
  8
0
  5
12B4F
 10
-385.522
 20
841.473
 30
0.000000
  70
    32
  0
VERTEX
  8
0
  5
12B50
 10
-385.519
 20
841.471
 30
0.000000
  70
    32
  0
VERTEX
  8
0
  5
12B51
 10
-385.516
 20
841.468
 30
0.000000
  70
    32
  0
VERTEX
  8
0
  5
12B52
 10
-385.513
 20
841.466
 30
0.000000
  70
    32
  0
VERTEX
  8
0
  5
12B53
 10
-385.510
 20
841.464
 30
0.000000
  70
    32
  0
VERTEX
  8
0
  5
12B54
 10
-385.507
 20
841.461
 30
0.000000
  70
    32
  0
VERTEX
  8
0
  5
12B55
 10
-385.504
 20
841.459
 30
0.000000
  70
    32
  0
VERTEX
  8
0
  5
12B56
 10
-385.501
 20
841.457
 30
0.000000
  70
    32
  0
VERTEX
  8
0
  5
12B57
 10
-385.498
 20
841.454
 30
0.000000
  70
    32
  0
VERTEX
  8
0
  5
12B58
 10
-385.496
 20
841.452
 30
0.000000
  70
    32
  0
VERTEX
  8
0
  5
12B59
 10
-385.493
 20
841.449
 30
0.000000
  70
    32
  0
VERTEX
  8
0
  5
12B5A
 10
-385.490
 20
841.447
 30
0.000000
  70
    32
  0
VERTEX
  8
0
  5
12B5B
 10
-385.487
 20
841.444
 30
0.000000
  70
    32
  0
VERTEX
  8
0
  5
12B5C
 10
-385.484
 20
841.442
 30
0.000000
  70
    32
  0
VERTEX
  8
0
  5
12B5D
 10
-385.481
 20
841.439
 30
0.000000
  70
    32
  0
VERTEX
  8
0
  5
12B5E
 10
-385.478
 20
841.437
 30
0.000000
  70
    32
  0
VERTEX
  8
0
  5
12B5F
 10
-385.476
 20
841.434
 30
0.000000
  70
    32
  0
VERTEX
  8
0
  5
12B60
 10
-385.473
 20
841.432
 30
0.000000
  70
    32
  0
VERTEX
  8
0
  5
12B61
 10
-385.470
 20
841.429
 30
0.000000
  70
    32
  0
VERTEX
  8
0
  5
12B62
 10
-385.467
 20
841.427
 30
0.000000
  70
    32
  0
VERTEX
  8
0
  5
12B63
 10
-385.465
 20
841.424
 30
0.000000
  70
    32
  0
VERTEX
  8
0
  5
12B64
 10
-385.462
 20
841.422
 30
0.000000
  70
    32
  0
VERTEX
  8
0
  5
12B65
 10
-385.459
 20
841.419
 30
0.000000
  70
    32
  0
VERTEX
  8
0
  5
12B66
 10
-385.456
 20
841.416
 30
0.000000
  70
    32
  0
VERTEX
  8
0
  5
12B67
 10
-385.454
 20
841.414
 30
0.000000
  70
    32
  0
VERTEX
  8
0
  5
12B68
 10
-385.451
 20
841.411
 30
0.000000
  70
    32
  0
VERTEX
  8
0
  5
12B69
 10
-385.448
 20
841.409
 30
0.000000
  70
    32
  0
VERTEX
  8
0
  5
12B6A
 10
-385.446
 20
841.406
 30
0.000000
  70
    32
  0
VERTEX
  8
0
  5
12B6B
 10
-385.443
 20
841.403
 30
0.000000
  70
    32
  0
VERTEX
  8
0
  5
12B6C
 10
-385.440
 20
841.401
 30
0.000000
  70
    32
  0
VERTEX
  8
0
  5
12B6D
 10
-385.438
 20
841.398
 30
0.000000
  70
    32
  0
VERTEX
  8
0
  5
12B6E
 10
-385.435
 20
841.395
 30
0.000000
  70
    32
  0
VERTEX
  8
0
  5
12B6F
 10
-385.433
 20
841.392
 30
0.000000
  70
    32
  0
VERTEX
  8
0
  5
12B70
 10
-385.430
 20
841.390
 30
0.000000
  70
    32
  0
VERTEX
  8
0
  5
12B71
 10
-385.427
 20
841.387
 30
0.000000
  70
    32
  0
VERTEX
  8
0
  5
12B72
 10
-385.425
 20
841.384
 30
0.000000
  70
    32
  0
VERTEX
  8
0
  5
12B73
 10
-385.422
 20
841.381
 30
0.000000
  70
    32
  0
VERTEX
  8
0
  5
12B74
 10
-385.420
 20
841.379
 30
0.000000
  70
    32
  0
VERTEX
  8
0
  5
12B75
 10
-385.417
 20
841.376
 30
0.000000
  70
    32
  0
VERTEX
  8
0
  5
12B76
 10
-385.415
 20
841.373
 30
0.000000
  70
    32
  0
VERTEX
  8
0
  5
12B77
 10
-385.412
 20
841.370
 30
0.000000
  70
    32
  0
VERTEX
  8
0
  5
12B78
 10
-385.410
 20
841.368
 30
0.000000
  70
    32
  0
VERTEX
  8
0
  5
12B79
 10
-385.407
 20
841.365
 30
0.000000
  70
    32
  0
VERTEX
  8
0
  5
12B7A
 10
-385.405
 20
841.362
 30
0.000000
  70
    32
  0
VERTEX
  8
0
  5
12B7B
 10
-385.402
 20
841.359
 30
0.000000
  70
    32
  0
VERTEX
  8
0
  5
12B7C
 10
-385.400
 20
841.356
 30
0.000000
  70
    32
  0
VERTEX
  8
0
  5
12B7D
 10
-385.397
 20
841.353
 30
0.000000
  70
    32
  0
VERTEX
  8
0
  5
12B7E
 10
-385.395
 20
841.351
 30
0.000000
  70
    32
  0
VERTEX
  8
0
  5
12B7F
 10
-385.392
 20
841.348
 30
0.000000
  70
    32
  0
VERTEX
  8
0
  5
12B80
 10
-385.390
 20
841.345
 30
0.000000
  70
    32
  0
VERTEX
  8
0
  5
12B81
 10
-385.388
 20
841.342
 30
0.000000
  70
    32
  0
VERTEX
  8
0
  5
12B82
 10
-385.385
 20
841.339
 30
0.000000
  70
    32
  0
VERTEX
  8
0
  5
12B83
 10
-385.383
 20
841.336
 30
0.000000
  70
    32
  0
VERTEX
  8
0
  5
12B84
 10
-385.380
 20
841.333
 30
0.000000
  70
    32
  0
VERTEX
  8
0
  5
12B85
 10
-385.378
 20
841.330
 30
0.000000
  70
    32
  0
VERTEX
  8
0
  5
12B86
 10
-385.376
 20
841.327
 30
0.000000
  70
    32
  0
VERTEX
  8
0
  5
12B87
 10
-385.373
 20
841.324
 30
0.000000
  70
    32
  0
VERTEX
  8
0
  5
12B88
 10
-385.371
 20
841.322
 30
0.000000
  70
    32
  0
VERTEX
  8
0
  5
12B89
 10
-385.368
 20
841.319
 30
0.000000
  70
    32
  0
VERTEX
  8
0
  5
12B8A
 10
-385.366
 20
841.316
 30
0.000000
  70
    32
  0
VERTEX
  8
0
  5
12B8B
 10
-385.364
 20
841.313
 30
0.000000
  70
    32
  0
VERTEX
  8
0
  5
12B8C
 10
-385.361
 20
841.310
 30
0.000000
  70
    32
  0
VERTEX
  8
0
  5
12B8D
 10
-385.359
 20
841.307
 30
0.000000
  70
    32
  0
VERTEX
  8
0
  5
12B8E
 10
-385.357
 20
841.304
 30
0.000000
  70
    32
  0
VERTEX
  8
0
  5
12B8F
 10
-385.354
 20
841.301
 30
0.000000
  70
    32
  0
VERTEX
  8
0
  5
12B90
 10
-385.352
 20
841.298
 30
0.000000
  70
    32
  0
VERTEX
  8
0
  5
12B91
 10
-385.350
 20
841.295
 30
0.000000
  70
    32
  0
VERTEX
  8
0
  5
12B92
 10
-385.348
 20
841.292
 30
0.000000
  70
    32
  0
VERTEX
  8
0
  5
12B93
 10
-385.345
 20
841.289
 30
0.000000
  70
    32
  0
VERTEX
  8
0
  5
12B94
 10
-385.343
 20
841.286
 30
0.000000
  70
    32
  0
VERTEX
  8
0
  5
12B95
 10
-385.341
 20
841.283
 30
0.000000
  70
    32
  0
VERTEX
  8
0
  5
12B96
 10
-385.338
 20
841.280
 30
0.000000
  70
    32
  0
VERTEX
  8
0
  5
12B97
 10
-385.336
 20
841.277
 30
0.000000
  70
    32
  0
VERTEX
  8
0
  5
12B98
 10
-385.334
 20
841.274
 30
0.000000
  70
    32
  0
VERTEX
  8
0
  5
12B99
 10
-385.332
 20
841.271
 30
0.000000
  70
    32
  0
VERTEX
  8
0
  5
12B9A
 10
-385.329
 20
841.268
 30
0.000000
  70
    32
  0
VERTEX
  8
0
  5
12B9B
 10
-385.327
 20
841.265
 30
0.000000
  70
    32
  0
VERTEX
  8
0
  5
12B9C
 10
-385.325
 20
841.262
 30
0.000000
  70
    32
  0
VERTEX
  8
0
  5
12B9D
 10
-385.323
 20
841.259
 30
0.000000
  70
    32
  0
VERTEX
  8
0
  5
12B9E
 10
-385.321
 20
841.256
 30
0.000000
  70
    32
  0
VERTEX
  8
0
  5
12B9F
 10
-385.318
 20
841.253
 30
0.000000
  70
    32
  0
VERTEX
  8
0
  5
12BA0
 10
-385.316
 20
841.250
 30
0.000000
  70
    32
  0
VERTEX
  8
0
  5
12BA1
 10
-385.314
 20
841.246
 30
0.000000
  70
    32
  0
VERTEX
  8
0
  5
12BA2
 10
-385.312
 20
841.243
 30
0.000000
  70
    32
  0
VERTEX
  8
0
  5
12BA3
 10
-385.310
 20
841.240
 30
0.000000
  70
    32
  0
VERTEX
  8
0
  5
12BA4
 10
-385.307
 20
841.237
 30
0.000000
  70
    32
  0
VERTEX
  8
0
  5
12BA5
 10
-385.305
 20
841.234
 30
0.000000
  70
    32
  0
VERTEX
  8
0
  5
12BA6
 10
-385.303
 20
841.231
 30
0.000000
  70
    32
  0
VERTEX
  8
0
  5
12BA7
 10
-385.301
 20
841.228
 30
0.000000
  70
    32
  0
VERTEX
  8
0
  5
12BA8
 10
-385.299
 20
841.225
 30
0.000000
  70
    32
  0
VERTEX
  8
0
  5
12BA9
 10
-385.296
 20
841.222
 30
0.000000
  70
    32
  0
VERTEX
  8
0
  5
12BAA
 10
-385.294
 20
841.219
 30
0.000000
  70
    32
  0
VERTEX
  8
0
  5
12BAB
 10
-385.292
 20
841.216
 30
0.000000
  70
    32
  0
VERTEX
  8
0
  5
12BAC
 10
-385.290
 20
841.213
 30
0.000000
  70
    32
  0
VERTEX
  8
0
  5
12BAD
 10
-385.288
 20
841.210
 30
0.000000
  70
    32
  0
VERTEX
  8
0
  5
12BAE
 10
-385.286
 20
841.207
 30
0.000000
  70
    32
  0
VERTEX
  8
0
  5
12BAF
 10
-385.284
 20
841.203
 30
0.000000
  70
    32
  0
VERTEX
  8
0
  5
12BB0
 10
-385.282
 20
841.200
 30
0.000000
  70
    32
  0
VERTEX
  8
0
  5
12BB1
 10
-385.279
 20
841.197
 30
0.000000
  70
    32
  0
VERTEX
  8
0
  5
12BB2
 10
-385.277
 20
841.194
 30
0.000000
  70
    32
  0
VERTEX
  8
0
  5
12BB3
 10
-385.275
 20
841.191
 30
0.000000
  70
    32
  0
VERTEX
  8
0
  5
12BB4
 10
-385.273
 20
841.188
 30
0.000000
  70
    32
  0
VERTEX
  8
0
  5
12BB5
 10
-385.271
 20
841.185
 30
0.000000
  70
    32
  0
VERTEX
  8
0
  5
12BB6
 10
-385.269
 20
841.182
 30
0.000000
  70
    32
  0
VERTEX
  8
0
  5
12BB7
 10
-385.267
 20
841.179
 30
0.000000
  70
    32
  0
VERTEX
  8
0
  5
12BB8
 10
-385.265
 20
841.175
 30
0.000000
  70
    32
  0
VERTEX
  8
0
  5
12BB9
 10
-385.263
 20
841.172
 30
0.000000
  70
    32
  0
VERTEX
  8
0
  5
12BBA
 10
-385.261
 20
841.169
 30
0.000000
  70
    32
  0
VERTEX
  8
0
  5
12BBB
 10
-385.259
 20
841.166
 30
0.000000
  70
    32
  0
VERTEX
  8
0
  5
12BBC
 10
-385.257
 20
841.163
 30
0.000000
  70
    32
  0
VERTEX
  8
0
  5
12BBD
 10
-385.255
 20
841.160
 30
0.000000
  70
    32
  0
VERTEX
  8
0
  5
12BBE
 10
-385.253
 20
841.157
 30
0.000000
  70
    32
  0
VERTEX
  8
0
  5
12BBF
 10
-385.251
 20
841.153
 30
0.000000
  70
    32
  0
VERTEX
  8
0
  5
12BC0
 10
-385.249
 20
841.150
 30
0.000000
  70
    32
  0
VERTEX
  8
0
  5
12BC1
 10
-385.247
 20
841.147
 30
0.000000
  70
    32
  0
VERTEX
  8
0
  5
12BC2
 10
-385.245
 20
841.144
 30
0.000000
  70
    32
  0
VERTEX
  8
0
  5
12BC3
 10
-385.243
 20
841.141
 30
0.000000
  70
    32
  0
VERTEX
  8
0
  5
12BC4
 10
-385.241
 20
841.138
 30
0.000000
  70
    32
  0
VERTEX
  8
0
  5
12BC5
 10
-385.239
 20
841.134
 30
0.000000
  70
    32
  0
VERTEX
  8
0
  5
12BC6
 10
-385.237
 20
841.131
 30
0.000000
  70
    32
  0
VERTEX
  8
0
  5
12BC7
 10
-385.235
 20
841.128
 30
0.000000
  70
    32
  0
VERTEX
  8
0
  5
12BC8
 10
-385.233
 20
841.125
 30
0.000000
  70
    32
  0
VERTEX
  8
0
  5
12BC9
 10
-385.231
 20
841.122
 30
0.000000
  70
    32
  0
VERTEX
  8
0
  5
12BCA
 10
-385.229
 20
841.118
 30
0.000000
  70
    32
  0
VERTEX
  8
0
  5
12BCB
 10
-385.227
 20
841.115
 30
0.000000
  70
    32
  0
VERTEX
  8
0
  5
12BCC
 10
-385.225
 20
841.112
 30
0.000000
  70
    32
  0
VERTEX
  8
0
  5
12BCD
 10
-385.223
 20
841.109
 30
0.000000
  70
    32
  0
VERTEX
  8
0
  5
12BCE
 10
-385.221
 20
841.105
 30
0.000000
  70
    32
  0
VERTEX
  8
0
  5
12BCF
 10
-385.219
 20
841.102
 30
0.000000
  70
    32
  0
VERTEX
  8
0
  5
12BD0
 10
-385.217
 20
841.099
 30
0.000000
  70
    32
  0
VERTEX
  8
0
  5
12BD1
 10
-385.215
 20
841.096
 30
0.000000
  70
    32
  0
VERTEX
  8
0
  5
12BD2
 10
-385.213
 20
841.093
 30
0.000000
  70
    32
  0
VERTEX
  8
0
  5
12BD3
 10
-385.212
 20
841.089
 30
0.000000
  70
    32
  0
VERTEX
  8
0
  5
12BD4
 10
-385.210
 20
841.086
 30
0.000000
  70
    32
  0
VERTEX
  8
0
  5
12BD5
 10
-385.208
 20
841.083
 30
0.000000
  70
    32
  0
VERTEX
  8
0
  5
12BD6
 10
-385.206
 20
841.080
 30
0.000000
  70
    32
  0
VERTEX
  8
0
  5
12BD7
 10
-385.204
 20
841.076
 30
0.000000
  70
    32
  0
VERTEX
  8
0
  5
12BD8
 10
-385.202
 20
841.073
 30
0.000000
  70
    32
  0
VERTEX
  8
0
  5
12BD9
 10
-385.200
 20
841.070
 30
0.000000
  70
    32
  0
VERTEX
  8
0
  5
12BDA
 10
-385.199
 20
841.067
 30
0.000000
  70
    32
  0
VERTEX
  8
0
  5
12BDB
 10
-385.197
 20
841.063
 30
0.000000
  70
    32
  0
VERTEX
  8
0
  5
12BDC
 10
-385.195
 20
841.060
 30
0.000000
  70
    32
  0
VERTEX
  8
0
  5
12BDD
 10
-385.193
 20
841.057
 30
0.000000
  70
    32
  0
VERTEX
  8
0
  5
12BDE
 10
-385.191
 20
841.053
 30
0.000000
  70
    32
  0
VERTEX
  8
0
  5
12BDF
 10
-385.189
 20
841.050
 30
0.000000
  70
    32
  0
VERTEX
  8
0
  5
12BE0
 10
-385.188
 20
841.047
 30
0.000000
  70
    32
  0
VERTEX
  8
0
  5
12BE1
 10
-385.186
 20
841.044
 30
0.000000
  70
    32
  0
VERTEX
  8
0
  5
12BE2
 10
-385.184
 20
841.040
 30
0.000000
  70
    32
  0
VERTEX
  8
0
  5
12BE3
 10
-385.182
 20
841.037
 30
0.000000
  70
    32
  0
VERTEX
  8
0
  5
12BE4
 10
-385.181
 20
841.034
 30
0.000000
  70
    32
  0
VERTEX
  8
0
  5
12BE5
 10
-385.179
 20
841.030
 30
0.000000
  70
    32
  0
VERTEX
  8
0
  5
12BE6
 10
-385.177
 20
841.027
 30
0.000000
  70
    32
  0
VERTEX
  8
0
  5
12BE7
 10
-385.175
 20
841.024
 30
0.000000
  70
    32
  0
VERTEX
  8
0
  5
12BE8
 10
-385.173
 20
841.020
 30
0.000000
  70
    32
  0
VERTEX
  8
0
  5
12BE9
 10
-385.172
 20
841.017
 30
0.000000
  70
    32
  0
VERTEX
  8
0
  5
12BEA
 10
-385.170
 20
841.014
 30
0.000000
  70
    32
  0
VERTEX
  8
0
  5
12BEB
 10
-385.168
 20
841.010
 30
0.000000
  70
    32
  0
VERTEX
  8
0
  5
12BEC
 10
-385.167
 20
841.007
 30
0.000000
  70
    32
  0
VERTEX
  8
0
  5
12BED
 10
-385.165
 20
841.004
 30
0.000000
  70
    32
  0
VERTEX
  8
0
  5
12BEE
 10
-385.163
 20
841.000
 30
0.000000
  70
    32
  0
VERTEX
  8
0
  5
12BEF
 10
-385.161
 20
840.997
 30
0.000000
  70
    32
  0
VERTEX
  8
0
  5
12BF0
 10
-385.160
 20
840.994
 30
0.000000
  70
    32
  0
VERTEX
  8
0
  5
12BF1
 10
-385.158
 20
840.990
 30
0.000000
  70
    32
  0
VERTEX
  8
0
  5
12BF2
 10
-385.156
 20
840.987
 30
0.000000
  70
    32
  0
VERTEX
  8
0
  5
12BF3
 10
-385.154
 20
840.984
 30
0.000000
  70
    32
  0
VERTEX
  8
0
  5
12BF4
 10
-385.153
 20
840.980
 30
0.000000
  70
    32
  0
VERTEX
  8
0
  5
12BF5
 10
-385.151
 20
840.977
 30
0.000000
  70
    32
  0
VERTEX
  8
0
  5
12BF6
 10
-385.149
 20
840.974
 30
0.000000
  70
    32
  0
VERTEX
  8
0
  5
12BF7
 10
-385.147
 20
840.970
 30
0.000000
  70
    32
  0
VERTEX
  8
0
  5
12BF8
 10
-385.146
 20
840.967
 30
0.000000
  70
    32
  0
VERTEX
  8
0
  5
12BF9
 10
-385.144
 20
840.964
 30
0.000000
  70
    32
  0
VERTEX
  8
0
  5
12BFA
 10
-385.142
 20
840.961
 30
0.000000
  70
    32
  0
VERTEX
  8
0
  5
12BFB
 10
-385.141
 20
840.957
 30
0.000000
  70
    32
  0
VERTEX
  8
0
  5
12BFC
 10
-385.139
 20
840.954
 30
0.000000
  70
    32
  0
VERTEX
  8
0
  5
12BFD
 10
-385.137
 20
840.951
 30
0.000000
  70
    32
  0
VERTEX
  8
0
  5
12BFE
 10
-385.135
 20
840.947
 30
0.000000
  70
    32
  0
VERTEX
  8
0
  5
12BFF
 10
-385.134
 20
840.944
 30
0.000000
  70
    32
  0
VERTEX
  8
0
  5
12C00
 10
-385.132
 20
840.941
 30
0.000000
  70
    32
  0
VERTEX
  8
0
  5
12C01
 10
-385.130
 20
840.937
 30
0.000000
  70
    32
  0
VERTEX
  8
0
  5
12C02
 10
-385.128
 20
840.934
 30
0.000000
  70
    32
  0
VERTEX
  8
0
  5
12C03
 10
-385.127
 20
840.931
 30
0.000000
  70
    32
  0
VERTEX
  8
0
  5
12C04
 10
-385.125
 20
840.927
 30
0.000000
  70
    32
  0
VERTEX
  8
0
  5
12C05
 10
-385.123
 20
840.924
 30
0.000000
  70
    32
  0
VERTEX
  8
0
  5
12C06
 10
-385.121
 20
840.921
 30
0.000000
  70
    32
  0
VERTEX
  8
0
  5
12C07
 10
-385.119
 20
840.917
 30
0.000000
  70
    32
  0
VERTEX
  8
0
  5
12C08
 10
-385.118
 20
840.914
 30
0.000000
  70
    32
  0
VERTEX
  8
0
  5
12C09
 10
-385.116
 20
840.911
 30
0.000000
  70
    32
  0
VERTEX
  8
0
  5
12C0A
 10
-385.114
 20
840.908
 30
0.000000
  70
    32
  0
VERTEX
  8
0
  5
12C0B
 10
-385.112
 20
840.904
 30
0.000000
  70
    32
  0
VERTEX
  8
0
  5
12C0C
 10
-385.110
 20
840.901
 30
0.000000
  70
    32
  0
VERTEX
  8
0
  5
12C0D
 10
-385.109
 20
840.898
 30
0.000000
  70
    32
  0
VERTEX
  8
0
  5
12C0E
 10
-385.107
 20
840.894
 30
0.000000
  70
    32
  0
VERTEX
  8
0
  5
12C0F
 10
-385.105
 20
840.891
 30
0.000000
  70
    32
  0
VERTEX
  8
0
  5
12C10
 10
-385.103
 20
840.888
 30
0.000000
  70
    32
  0
VERTEX
  8
0
  5
12C11
 10
-385.101
 20
840.885
 30
0.000000
  70
    32
  0
VERTEX
  8
0
  5
12C12
 10
-385.099
 20
840.881
 30
0.000000
  70
    32
  0
VERTEX
  8
0
  5
12C13
 10
-385.097
 20
840.878
 30
0.000000
  70
    32
  0
VERTEX
  8
0
  5
12C14
 10
-385.096
 20
840.875
 30
0.000000
  70
    32
  0
VERTEX
  8
0
  5
12C15
 10
-385.094
 20
840.872
 30
0.000000
  70
    32
  0
VERTEX
  8
0
  5
12C16
 10
-385.092
 20
840.868
 30
0.000000
  70
    32
  0
VERTEX
  8
0
  5
12C17
 10
-385.090
 20
840.865
 30
0.000000
  70
    32
  0
VERTEX
  8
0
  5
12C18
 10
-385.088
 20
840.862
 30
0.000000
  70
    32
  0
VERTEX
  8
0
  5
12C19
 10
-385.086
 20
840.859
 30
0.000000
  70
    32
  0
VERTEX
  8
0
  5
12C1A
 10
-385.084
 20
840.856
 30
0.000000
  70
    32
  0
VERTEX
  8
0
  5
12C1B
 10
-385.082
 20
840.852
 30
0.000000
  70
    32
  0
VERTEX
  8
0
  5
12C1C
 10
-385.080
 20
840.849
 30
0.000000
  70
    32
  0
VERTEX
  8
0
  5
12C1D
 10
-385.078
 20
840.846
 30
0.000000
  70
    32
  0
VERTEX
  8
0
  5
12C1E
 10
-385.076
 20
840.843
 30
0.000000
  70
    32
  0
VERTEX
  8
0
  5
12C1F
 10
-385.074
 20
840.840
 30
0.000000
  70
    32
  0
VERTEX
  8
0
  5
12C20
 10
-385.072
 20
840.836
 30
0.000000
  70
    32
  0
VERTEX
  8
0
  5
12C21
 10
-385.070
 20
840.833
 30
0.000000
  70
    32
  0
VERTEX
  8
0
  5
12C22
 10
-385.068
 20
840.830
 30
0.000000
  70
    32
  0
VERTEX
  8
0
  5
12C23
 10
-385.066
 20
840.827
 30
0.000000
  70
    32
  0
VERTEX
  8
0
  5
12C24
 10
-385.064
 20
840.824
 30
0.000000
  70
    32
  0
VERTEX
  8
0
  5
12C25
 10
-385.062
 20
840.821
 30
0.000000
  70
    32
  0
VERTEX
  8
0
  5
12C26
 10
-385.060
 20
840.818
 30
0.000000
  70
    32
  0
VERTEX
  8
0
  5
12C27
 10
-385.058
 20
840.814
 30
0.000000
  70
    32
  0
VERTEX
  8
0
  5
12C28
 10
-385.056
 20
840.811
 30
0.000000
  70
    32
  0
VERTEX
  8
0
  5
12C29
 10
-385.054
 20
840.808
 30
0.000000
  70
    32
  0
VERTEX
  8
0
  5
12C2A
 10
-385.052
 20
840.805
 30
0.000000
  70
    32
  0
VERTEX
  8
0
  5
12C2B
 10
-385.049
 20
840.802
 30
0.000000
  70
    32
  0
VERTEX
  8
0
  5
12C2C
 10
-385.047
 20
840.799
 30
0.000000
  70
    32
  0
VERTEX
  8
0
  5
12C2D
 10
-385.045
 20
840.796
 30
0.000000
  70
    32
  0
VERTEX
  8
0
  5
12C2E
 10
-385.043
 20
840.793
 30
0.000000
  70
    32
  0
VERTEX
  8
0
  5
12C2F
 10
-385.041
 20
840.790
 30
0.000000
  70
    32
  0
VERTEX
  8
0
  5
12C30
 10
-385.039
 20
840.787
 30
0.000000
  70
    32
  0
VERTEX
  8
0
  5
12C31
 10
-385.036
 20
840.784
 30
0.000000
  70
    32
  0
VERTEX
  8
0
  5
12C32
 10
-385.034
 20
840.781
 30
0.000000
  70
    32
  0
VERTEX
  8
0
  5
12C33
 10
-385.032
 20
840.778
 30
0.000000
  70
    32
  0
VERTEX
  8
0
  5
12C34
 10
-385.030
 20
840.775
 30
0.000000
  70
    32
  0
VERTEX
  8
0
  5
12C35
 10
-385.028
 20
840.772
 30
0.000000
  70
    32
  0
VERTEX
  8
0
  5
12C36
 10
-385.025
 20
840.769
 30
0.000000
  70
    32
  0
VERTEX
  8
0
  5
12C37
 10
-385.023
 20
840.766
 30
0.000000
  70
    32
  0
VERTEX
  8
0
  5
12C38
 10
-385.021
 20
840.763
 30
0.000000
  70
    32
  0
VERTEX
  8
0
  5
12C39
 10
-385.019
 20
840.760
 30
0.000000
  70
    32
  0
VERTEX
  8
0
  5
12C3A
 10
-385.016
 20
840.757
 30
0.000000
  70
    32
  0
VERTEX
  8
0
  5
12C3B
 10
-385.014
 20
840.754
 30
0.000000
  70
    32
  0
VERTEX
  8
0
  5
12C3C
 10
-385.012
 20
840.751
 30
0.000000
  70
    32
  0
VERTEX
  8
0
  5
12C3D
 10
-385.009
 20
840.748
 30
0.000000
  70
    32
  0
VERTEX
  8
0
  5
12C3E
 10
-385.007
 20
840.745
 30
0.000000
  70
    32
  0
VERTEX
  8
0
  5
12C3F
 10
-385.005
 20
840.742
 30
0.000000
  70
    32
  0
VERTEX
  8
0
  5
12C40
 10
-385.002
 20
840.739
 30
0.000000
  70
    32
  0
VERTEX
  8
0
  5
12C41
 10
-385.000
 20
840.736
 30
0.000000
  70
    32
  0
VERTEX
  8
0
  5
12C42
 10
-384.998
 20
840.733
 30
0.000000
  70
    32
  0
VERTEX
  8
0
  5
12C43
 10
-384.995
 20
840.730
 30
0.000000
  70
    32
  0
VERTEX
  8
0
  5
12C44
 10
-384.993
 20
840.727
 30
0.000000
  70
    32
  0
VERTEX
  8
0
  5
12C45
 10
-384.991
 20
840.724
 30
0.000000
  70
    32
  0
VERTEX
  8
0
  5
12C46
 10
-384.988
 20
840.721
 30
0.000000
  70
    32
  0
VERTEX
  8
0
  5
12C47
 10
-384.986
 20
840.718
 30
0.000000
  70
    32
  0
VERTEX
  8
0
  5
12C48
 10
-384.983
 20
840.716
 30
0.000000
  70
    32
  0
VERTEX
  8
0
  5
12C49
 10
-384.981
 20
840.713
 30
0.000000
  70
    32
  0
VERTEX
  8
0
  5
12C4A
 10
-384.978
 20
840.710
 30
0.000000
  70
    32
  0
VERTEX
  8
0
  5
12C4B
 10
-384.976
 20
840.707
 30
0.000000
  70
    32
  0
VERTEX
  8
0
  5
12C4C
 10
-384.973
 20
840.704
 30
0.000000
  70
    32
  0
VERTEX
  8
0
  5
12C4D
 10
-384.971
 20
840.701
 30
0.000000
  70
    32
  0
VERTEX
  8
0
  5
12C4E
 10
-384.968
 20
840.699
 30
0.000000
  70
    32
  0
VERTEX
  8
0
  5
12C4F
 10
-384.966
 20
840.696
 30
0.000000
  70
    32
  0
VERTEX
  8
0
  5
12C50
 10
-384.963
 20
840.693
 30
0.000000
  70
    32
  0
VERTEX
  8
0
  5
12C51
 10
-384.961
 20
840.690
 30
0.000000
  70
    32
  0
VERTEX
  8
0
  5
12C52
 10
-384.958
 20
840.687
 30
0.000000
  70
    32
  0
VERTEX
  8
0
  5
12C53
 10
-384.956
 20
840.685
 30
0.000000
  70
    32
  0
VERTEX
  8
0
  5
12C54
 10
-384.953
 20
840.682
 30
0.000000
  70
    32
  0
VERTEX
  8
0
  5
12C55
 10
-384.951
 20
840.679
 30
0.000000
  70
    32
  0
VERTEX
  8
0
  5
12C56
 10
-384.948
 20
840.677
 30
0.000000
  70
    32
  0
VERTEX
  8
0
  5
12C57
 10
-384.945
 20
840.674
 30
0.000000
  70
    32
  0
VERTEX
  8
0
  5
12C58
 10
-384.943
 20
840.671
 30
0.000000
  70
    32
  0
VERTEX
  8
0
  5
12C59
 10
-384.940
 20
840.669
 30
0.000000
  70
    32
  0
VERTEX
  8
0
  5
12C5A
 10
-384.938
 20
840.666
 30
0.000000
  70
    32
  0
VERTEX
  8
0
  5
12C5B
 10
-384.935
 20
840.663
 30
0.000000
  70
    32
  0
VERTEX
  8
0
  5
12C5C
 10
-384.932
 20
840.661
 30
0.000000
  70
    32
  0
VERTEX
  8
0
  5
12C5D
 10
-384.930
 20
840.658
 30
0.000000
  70
    32
  0
VERTEX
  8
0
  5
12C5E
 10
-384.927
 20
840.656
 30
0.000000
  70
    32
  0
VERTEX
  8
0
  5
12C5F
 10
-384.924
 20
840.653
 30
0.000000
  70
    32
  0
VERTEX
  8
0
  5
12C60
 10
-384.921
 20
840.650
 30
0.000000
  70
    32
  0
VERTEX
  8
0
  5
12C61
 10
-384.919
 20
840.648
 30
0.000000
  70
    32
  0
VERTEX
  8
0
  5
12C62
 10
-384.916
 20
840.645
 30
0.000000
  70
    32
  0
VERTEX
  8
0
  5
12C63
 10
-384.913
 20
840.643
 30
0.000000
  70
    32
  0
VERTEX
  8
0
  5
12C64
 10
-384.910
 20
840.640
 30
0.000000
  70
    32
  0
VERTEX
  8
0
  5
12C65
 10
-384.908
 20
840.638
 30
0.000000
  70
    32
  0
VERTEX
  8
0
  5
12C66
 10
-384.905
 20
840.635
 30
0.000000
  70
    32
  0
VERTEX
  8
0
  5
12C67
 10
-384.902
 20
840.633
 30
0.000000
  70
    32
  0
VERTEX
  8
0
  5
12C68
 10
-384.899
 20
840.630
 30
0.000000
  70
    32
  0
VERTEX
  8
0
  5
12C69
 10
-384.897
 20
840.628
 30
0.000000
  70
    32
  0
VERTEX
  8
0
  5
12C6A
 10
-384.894
 20
840.625
 30
0.000000
  70
    32
  0
VERTEX
  8
0
  5
12C6B
 10
-384.891
 20
840.623
 30
0.000000
  70
    32
  0
VERTEX
  8
0
  5
12C6C
 10
-384.888
 20
840.621
 30
0.000000
  70
    32
  0
VERTEX
  8
0
  5
12C6D
 10
-384.885
 20
840.618
 30
0.000000
  70
    32
  0
VERTEX
  8
0
  5
12C6E
 10
-384.882
 20
840.616
 30
0.000000
  70
    32
  0
VERTEX
  8
0
  5
12C6F
 10
-384.879
 20
840.613
 30
0.000000
  70
    32
  0
VERTEX
  8
0
  5
12C70
 10
-384.877
 20
840.611
 30
0.000000
  70
    32
  0
VERTEX
  8
0
  5
12C71
 10
-384.874
 20
840.609
 30
0.000000
  70
    32
  0
VERTEX
  8
0
  5
12C72
 10
-384.871
 20
840.606
 30
0.000000
  70
    32
  0
VERTEX
  8
0
  5
12C73
 10
-384.868
 20
840.604
 30
0.000000
  70
    32
  0
VERTEX
  8
0
  5
12C74
 10
-384.865
 20
840.601
 30
0.000000
  70
    32
  0
VERTEX
  8
0
  5
12C75
 10
-384.862
 20
840.599
 30
0.000000
  70
    32
  0
VERTEX
  8
0
  5
12C76
 10
-384.859
 20
840.597
 30
0.000000
  70
    32
  0
VERTEX
  8
0
  5
12C77
 10
-384.856
 20
840.594
 30
0.000000
  70
    32
  0
VERTEX
  8
0
  5
12C78
 10
-384.853
 20
840.592
 30
0.000000
  70
    32
  0
VERTEX
  8
0
  5
12C79
 10
-384.851
 20
840.590
 30
0.000000
  70
    32
  0
VERTEX
  8
0
  5
12C7A
 10
-384.848
 20
840.587
 30
0.000000
  70
    32
  0
VERTEX
  8
0
  5
12C7B
 10
-384.845
 20
840.585
 30
0.000000
  70
    32
  0
VERTEX
  8
0
  5
12C7C
 10
-384.842
 20
840.583
 30
0.000000
  70
    32
  0
VERTEX
  8
0
  5
12C7D
 10
-384.839
 20
840.580
 30
0.000000
  70
    32
  0
VERTEX
  8
0
  5
12C7E
 10
-384.836
 20
840.578
 30
0.000000
  70
    32
  0
VERTEX
  8
0
  5
12C7F
 10
-384.833
 20
840.576
 30
0.000000
  70
    32
  0
VERTEX
  8
0
  5
12C80
 10
-384.830
 20
840.573
 30
0.000000
  70
    32
  0
VERTEX
  8
0
  5
12C81
 10
-384.827
 20
840.571
 30
0.000000
  70
    32
  0
VERTEX
  8
0
  5
12C82
 10
-384.824
 20
840.569
 30
0.000000
  70
    32
  0
VERTEX
  8
0
  5
12C83
 10
-384.821
 20
840.566
 30
0.000000
  70
    32
  0
VERTEX
  8
0
  5
12C84
 10
-384.818
 20
840.564
 30
0.000000
  70
    32
  0
VERTEX
  8
0
  5
12C85
 10
-384.815
 20
840.562
 30
0.000000
  70
    32
  0
VERTEX
  8
0
  5
12C86
 10
-384.812
 20
840.559
 30
0.000000
  70
    32
  0
VERTEX
  8
0
  5
12C87
 10
-384.809
 20
840.557
 30
0.000000
  70
    32
  0
VERTEX
  8
0
  5
12C88
 10
-384.806
 20
840.555
 30
0.000000
  70
    32
  0
VERTEX
  8
0
  5
12C89
 10
-384.803
 20
840.552
 30
0.000000
  70
    32
  0
VERTEX
  8
0
  5
12C8A
 10
-384.800
 20
840.550
 30
0.000000
  70
    32
  0
VERTEX
  8
0
  5
12C8B
 10
-384.797
 20
840.548
 30
0.000000
  70
    32
  0
VERTEX
  8
0
  5
12C8C
 10
-384.794
 20
840.545
 30
0.000000
  70
    32
  0
VERTEX
  8
0
  5
12C8D
 10
-384.791
 20
840.543
 30
0.000000
  70
    32
  0
VERTEX
  8
0
  5
12C8E
 10
-384.788
 20
840.541
 30
0.000000
  70
    32
  0
VERTEX
  8
0
  5
12C8F
 10
-384.785
 20
840.538
 30
0.000000
  70
    32
  0
VERTEX
  8
0
  5
12C90
 10
-384.782
 20
840.536
 30
0.000000
  70
    32
  0
VERTEX
  8
0
  5
12C91
 10
-384.779
 20
840.533
 30
0.000000
  70
    32
  0
VERTEX
  8
0
  5
12C92
 10
-384.776
 20
840.531
 30
0.000000
  70
    32
  0
VERTEX
  8
0
  5
12C93
 10
-384.773
 20
840.529
 30
0.000000
  70
    32
  0
VERTEX
  8
0
  5
12C94
 10
-384.770
 20
840.526
 30
0.000000
  70
    32
  0
VERTEX
  8
0
  5
12C95
 10
-384.767
 20
840.524
 30
0.000000
  70
    32
  0
VERTEX
  8
0
  5
12C96
 10
-384.765
 20
840.521
 30
0.000000
  70
    32
  0
VERTEX
  8
0
  5
12C97
 10
-384.762
 20
840.519
 30
0.000000
  70
    32
  0
VERTEX
  8
0
  5
12C98
 10
-384.759
 20
840.516
 30
0.000000
  70
    32
  0
VERTEX
  8
0
  5
12C99
 10
-384.756
 20
840.514
 30
0.000000
  70
    32
  0
VERTEX
  8
0
  5
12C9A
 10
-384.753
 20
840.511
 30
0.000000
  70
    32
  0
VERTEX
  8
0
  5
12C9B
 10
-384.750
 20
840.509
 30
0.000000
  70
    32
  0
VERTEX
  8
0
  5
12C9C
 10
-384.748
 20
840.506
 30
0.000000
  70
    32
  0
VERTEX
  8
0
  5
12C9D
 10
-384.745
 20
840.504
 30
0.000000
  70
    32
  0
VERTEX
  8
0
  5
12C9E
 10
-384.742
 20
840.501
 30
0.000000
  70
    32
  0
VERTEX
  8
0
  5
12C9F
 10
-384.739
 20
840.498
 30
0.000000
  70
    32
  0
VERTEX
  8
0
  5
12CA0
 10
-384.737
 20
840.496
 30
0.000000
  70
    32
  0
VERTEX
  8
0
  5
12CA1
 10
-384.734
 20
840.493
 30
0.000000
  70
    32
  0
VERTEX
  8
0
  5
12CA2
 10
-384.732
 20
840.490
 30
0.000000
  70
    32
  0
VERTEX
  8
0
  5
12CA3
 10
-384.729
 20
840.487
 30
0.000000
  70
    32
  0
VERTEX
  8
0
  5
12CA4
 10
-384.727
 20
840.485
 30
0.000000
  70
    32
  0
VERTEX
  8
0
  5
12CA5
 10
-384.725
 20
840.482
 30
0.000000
  70
    32
  0
VERTEX
  8
0
  5
12CA6
 10
-384.722
 20
840.479
 30
0.000000
  70
    32
  0
VERTEX
  8
0
  5
12CA7
 10
-384.720
 20
840.476
 30
0.000000
  70
    32
  0
VERTEX
  8
0
  5
12CA8
 10
-384.718
 20
840.473
 30
0.000000
  70
    32
  0
VERTEX
  8
0
  5
12CA9
 10
-384.716
 20
840.470
 30
0.000000
  70
    32
  0
VERTEX
  8
0
  5
12CAA
 10
-384.714
 20
840.467
 30
0.000000
  70
    32
  0
VERTEX
  8
0
  5
12CAB
 10
-384.712
 20
840.463
 30
0.000000
  70
    32
  0
VERTEX
  8
0
  5
12CAC
 10
-384.710
 20
840.460
 30
0.000000
  70
    32
  0
VERTEX
  8
0
  5
12CAD
 10
-384.708
 20
840.457
 30
0.000000
  70
    32
  0
VERTEX
  8
0
  5
12CAE
 10
-384.706
 20
840.454
 30
0.000000
  70
    32
  0
VERTEX
  8
0
  5
12CAF
 10
-384.705
 20
840.450
 30
0.000000
  70
    32
  0
VERTEX
  8
0
  5
12CB0
 10
-384.703
 20
840.447
 30
0.000000
  70
    32
  0
VERTEX
  8
0
  5
12CB1
 10
-384.701
 20
840.444
 30
0.000000
  70
    32
  0
VERTEX
  8
0
  5
12CB2
 10
-384.700
 20
840.440
 30
0.000000
  70
    32
  0
VERTEX
  8
0
  5
12CB3
 10
-384.698
 20
840.437
 30
0.000000
  70
    32
  0
VERTEX
  8
0
  5
12CB4
 10
-384.697
 20
840.433
 30
0.000000
  70
    32
  0
VERTEX
  8
0
  5
12CB5
 10
-384.695
 20
840.430
 30
0.000000
  70
    32
  0
VERTEX
  8
0
  5
12CB6
 10
-384.694
 20
840.426
 30
0.000000
  70
    32
  0
VERTEX
  8
0
  5
12CB7
 10
-384.692
 20
840.423
 30
0.000000
  70
    32
  0
VERTEX
  8
0
  5
12CB8
 10
-384.691
 20
840.419
 30
0.000000
  70
    32
  0
VERTEX
  8
0
  5
12CB9
 10
-384.690
 20
840.416
 30
0.000000
  70
    32
  0
VERTEX
  8
0
  5
12CBA
 10
-384.688
 20
840.412
 30
0.000000
  70
    32
  0
VERTEX
  8
0
  5
12CBB
 10
-384.687
 20
840.409
 30
0.000000
  70
    32
  0
VERTEX
  8
0
  5
12CBC
 10
-384.686
 20
840.405
 30
0.000000
  70
    32
  0
VERTEX
  8
0
  5
12CBD
 10
-384.685
 20
840.401
 30
0.000000
  70
    32
  0
VERTEX
  8
0
  5
12CBE
 10
-384.683
 20
840.398
 30
0.000000
  70
    32
  0
VERTEX
  8
0
  5
12CBF
 10
-384.682
 20
840.394
 30
0.000000
  70
    32
  0
VERTEX
  8
0
  5
12CC0
 10
-384.681
 20
840.390
 30
0.000000
  70
    32
  0
VERTEX
  8
0
  5
12CC1
 10
-384.680
 20
840.387
 30
0.000000
  70
    32
  0
VERTEX
  8
0
  5
12CC2
 10
-384.679
 20
840.383
 30
0.000000
  70
    32
  0
VERTEX
  8
0
  5
12CC3
 10
-384.678
 20
840.380
 30
0.000000
  70
    32
  0
VERTEX
  8
0
  5
12CC4
 10
-384.677
 20
840.376
 30
0.000000
  70
    32
  0
VERTEX
  8
0
  5
12CC5
 10
-384.676
 20
840.372
 30
0.000000
  70
    32
  0
VERTEX
  8
0
  5
12CC6
 10
-384.676
 20
840.368
 30
0.000000
  70
    32
  0
VERTEX
  8
0
  5
12CC7
 10
-384.675
 20
840.365
 30
0.000000
  70
    32
  0
VERTEX
  8
0
  5
12CC8
 10
-384.675
 20
840.361
 30
0.000000
  70
    32
  0
VERTEX
  8
0
  5
12CC9
 10
-384.674
 20
840.357
 30
0.000000
  70
    32
  0
VERTEX
  8
0
  5
12CCA
 10
-384.674
 20
840.354
 30
0.000000
  70
    32
  0
VERTEX
  8
0
  5
12CCB
 10
-384.674
 20
840.350
 30
0.000000
  70
    32
  0
VERTEX
  8
0
  5
12CCC
 10
-384.673
 20
840.346
 30
0.000000
  70
    32
  0
VERTEX
  8
0
  5
12CCD
 10
-384.673
 20
840.342
 30
0.000000
  70
    32
  0
VERTEX
  8
0
  5
12CCE
 10
-384.674
 20
840.339
 30
0.000000
  70
    32
  0
VERTEX
  8
0
  5
12CCF
 10
-384.674
 20
840.335
 30
0.000000
  70
    32
  0
VERTEX
  8
0
  5
12CD0
 10
-384.674
 20
840.331
 30
0.000000
  70
    32
  0
VERTEX
  8
0
  5
12CD1
 10
-384.675
 20
840.328
 30
0.000000
  70
    32
  0
VERTEX
  8
0
  5
12CD2
 10
-384.675
 20
840.324
 30
0.000000
  70
    32
  0
VERTEX
  8
0
  5
12CD3
 10
-384.676
 20
840.320
 30
0.000000
  70
    32
  0
VERTEX
  8
0
  5
12CD4
 10
-384.677
 20
840.316
 30
0.000000
  70
    32
  0
VERTEX
  8
0
  5
12CD5
 10
-384.678
 20
840.313
 30
0.000000
  70
    32
  0
VERTEX
  8
0
  5
12CD6
 10
-384.679
 20
840.309
 30
0.000000
  70
    32
  0
VERTEX
  8
0
  5
12CD7
 10
-384.680
 20
840.305
 30
0.000000
  70
    32
  0
VERTEX
  8
0
  5
12CD8
 10
-384.681
 20
840.302
 30
0.000000
  70
    32
  0
VERTEX
  8
0
  5
12CD9
 10
-384.683
 20
840.298
 30
0.000000
  70
    32
  0
VERTEX
  8
0
  5
12CDA
 10
-384.684
 20
840.295
 30
0.000000
  70
    32
  0
VERTEX
  8
0
  5
12CDB
 10
-384.686
 20
840.291
 30
0.000000
  70
    32
  0
VERTEX
  8
0
  5
12CDC
 10
-384.687
 20
840.288
 30
0.000000
  70
    32
  0
VERTEX
  8
0
  5
12CDD
 10
-384.689
 20
840.284
 30
0.000000
  70
    32
  0
VERTEX
  8
0
  5
12CDE
 10
-384.691
 20
840.281
 30
0.000000
  70
    32
  0
VERTEX
  8
0
  5
12CDF
 10
-384.693
 20
840.278
 30
0.000000
  70
    32
  0
VERTEX
  8
0
  5
12CE0
 10
-384.695
 20
840.274
 30
0.000000
  70
    32
  0
VERTEX
  8
0
  5
12CE1
 10
-384.697
 20
840.271
 30
0.000000
  70
    32
  0
VERTEX
  8
0
  5
12CE2
 10
-384.699
 20
840.268
 30
0.000000
  70
    32
  0
VERTEX
  8
0
  5
12CE3
 10
-384.701
 20
840.265
 30
0.000000
  70
    32
  0
VERTEX
  8
0
  5
12CE4
 10
-384.704
 20
840.262
 30
0.000000
  70
    32
  0
VERTEX
  8
0
  5
12CE5
 10
-384.706
 20
840.258
 30
0.000000
  70
    32
  0
VERTEX
  8
0
  5
12CE6
 10
-384.708
 20
840.256
 30
0.000000
  70
    32
  0
VERTEX
  8
0
  5
12CE7
 10
-384.711
 20
840.253
 30
0.000000
  70
    32
  0
VERTEX
  8
0
  5
12CE8
 10
-384.713
 20
840.250
 30
0.000000
  70
    32
  0
VERTEX
  8
0
  5
12CE9
 10
-384.716
 20
840.247
 30
0.000000
  70
    32
  0
VERTEX
  8
0
  5
12CEA
 10
-384.719
 20
840.244
 30
0.000000
  70
    32
  0
VERTEX
  8
0
  5
12CEB
 10
-384.721
 20
840.242
 30
0.000000
  70
    32
  0
VERTEX
  8
0
  5
12CEC
 10
-384.724
 20
840.239
 30
0.000000
  70
    32
  0
VERTEX
  8
0
  5
12CED
 10
-384.727
 20
840.237
 30
0.000000
  70
    32
  0
VERTEX
  8
0
  5
12CEE
 10
-384.730
 20
840.235
 30
0.000000
  70
    32
  0
VERTEX
  8
0
  5
12CEF
 10
-384.733
 20
840.232
 30
0.000000
  70
    32
  0
VERTEX
  8
0
  5
12CF0
 10
-384.736
 20
840.230
 30
0.000000
  70
    32
  0
VERTEX
  8
0
  5
12CF1
 10
-384.739
 20
840.228
 30
0.000000
  70
    32
  0
VERTEX
  8
0
  5
12CF2
 10
-384.743
 20
840.226
 30
0.000000
  70
    32
  0
VERTEX
  8
0
  5
12CF3
 10
-384.746
 20
840.225
 30
0.000000
  70
    32
  0
VERTEX
  8
0
  5
12CF4
 10
-384.749
 20
840.223
 30
0.000000
  70
    32
  0
VERTEX
  8
0
  5
12CF5
 10
-384.752
 20
840.221
 30
0.000000
  70
    32
  0
VERTEX
  8
0
  5
12CF6
 10
-384.756
 20
840.220
 30
0.000000
  70
    32
  0
VERTEX
  8
0
  5
12CF7
 10
-384.759
 20
840.218
 30
0.000000
  70
    32
  0
VERTEX
  8
0
  5
12CF8
 10
-384.763
 20
840.217
 30
0.000000
  70
    32
  0
VERTEX
  8
0
  5
12CF9
 10
-384.766
 20
840.216
 30
0.000000
  70
    32
  0
VERTEX
  8
0
  5
12CFA
 10
-384.770
 20
840.215
 30
0.000000
  70
    32
  0
VERTEX
  8
0
  5
12CFB
 10
-384.774
 20
840.213
 30
0.000000
  70
    32
  0
VERTEX
  8
0
  5
12CFC
 10
-384.777
 20
840.212
 30
0.000000
  70
    32
  0
VERTEX
  8
0
  5
12CFD
 10
-384.781
 20
840.212
 30
0.000000
  70
    32
  0
VERTEX
  8
0
  5
12CFE
 10
-384.785
 20
840.211
 30
0.000000
  70
    32
  0
VERTEX
  8
0
  5
12CFF
 10
-384.788
 20
840.210
 30
0.000000
  70
    32
  0
VERTEX
  8
0
  5
12D00
 10
-384.792
 20
840.209
 30
0.000000
  70
    32
  0
VERTEX
  8
0
  5
12D01
 10
-384.796
 20
840.208
 30
0.000000
  70
    32
  0
VERTEX
  8
0
  5
12D02
 10
-384.799
 20
840.208
 30
0.000000
  70
    32
  0
VERTEX
  8
0
  5
12D03
 10
-384.803
 20
840.207
 30
0.000000
  70
    32
  0
VERTEX
  8
0
  5
12D04
 10
-384.807
 20
840.206
 30
0.000000
  70
    32
  0
VERTEX
  8
0
  5
12D05
 10
-384.811
 20
840.206
 30
0.000000
  70
    32
  0
VERTEX
  8
0
  5
12D06
 10
-384.815
 20
840.205
 30
0.000000
  70
    32
  0
VERTEX
  8
0
  5
12D07
 10
-384.818
 20
840.205
 30
0.000000
  70
    32
  0
VERTEX
  8
0
  5
12D08
 10
-384.822
 20
840.204
 30
0.000000
  70
    32
  0
VERTEX
  8
0
  5
12D09
 10
-384.826
 20
840.204
 30
0.000000
  70
    32
  0
VERTEX
  8
0
  5
12D0A
 10
-384.830
 20
840.204
 30
0.000000
  70
    32
  0
VERTEX
  8
0
  5
12D0B
 10
-384.833
 20
840.203
 30
0.000000
  70
    32
  0
SEQEND
  8
0
  5
12D0C
  0
LINE
  5
1212C
  8
0
 10
-385.19849217432301
 20
839.74337284001126
 30
0.0
 11
-385.0713637805809
 21
839.74337284001126
 31
0.0
  0
LINE
  5
1212D
  8
0
 10
-385.19849217432301
 20
840.02189070797181
 30
0.0
 11
-385.19849217432301
 21
839.74337284001126
 31
0.0
  0
LINE
  5
1212E
  8
0
 10
-385.95145677257528
 20
840.02189070797181
 30
0.0
 11
-385.19849217432301
 21
840.02189070797181
 31
0.0
  0
LINE
  5
1212F
  8
0
 10
-385.95145677257528
 20
841.70939070797169
 30
0.0
 11
-385.95145677257528
 21
840.02189070797181
 31
0.0
  0
LINE
  5
12130
  8
0
 10
-385.75300958046103
 20
841.70939070797169
 30
0.0
 11
-385.95145677257528
 21
841.70939070797169
 31
0.0
  0
LINE
  5
12131
  8
0
 10
-385.75300958046103
 20
841.57102925708136
 30
0.0
 11
-385.75300958046103
 21
841.70939070797169
 31
0.0
  0
VIEWPORT
  5
BADA
 67
     1
  8
0
 10
5.249999665167536
 20
4.016860864854312
 30
0.0
 40
16.259362384438411
 41
8.0158201110956853
 68
     1
 69
     1
1001
ACAD
1000
MVIEW
1002
{
1070
    16
1010
0.0
1020
0.0
1030
0.0
1010
0.0
1020
0.0
1030
1.0
1040
0.0
1040
8.0158201110956853
1040
5.249999665167536
1040
4.016860864854312
1040
50.0
1040
0.0
1040
0.0
1070
     0
1070
   100
1070
     1
1070
     1
1070
     0
1070
     0
1070
     0
1070
     0
1040
0.0
1040
0.0
1040
0.0
1040
0.5
1040
0.5
1040
0.5
1040
0.5
1070
     0
1002
{
1002
}
1002
}
  0
VIEWPORT
  5
BADD
 67
     1
  8
0
 10
5.2499996294871929
 20
4.0166741807634683
 30
0.0
 40
10.44245679893058
 41
7.8813805131999892
 68
     2
 69
     2
1001
ACAD
1000
MVIEW
1002
{
1070
    16
1010
0.0
1020
0.0
1030
0.0
1010
0.0
1020
0.0
1030
1.0
1040
0.0
1040
7.8813805544891791
1040
-385.17088784066158
1040
840.82404269182439
1040
50.0
1040
0.0
1040
0.0
1070
     0
1070
   100
1070
     1
1070
     2
1070
     0
1070
     0
1070
     0
1070
     0
1040
0.0
1040
0.0
1040
0.0
1040
0.5
1040
0.5
1040
0.5
1040
0.5
1070
     0
1002
{
1002
}
1002
}
  0
ENDSEC
  0
EOF
