  0
SECTION
  2
HEADER
  9
$ACADVER
  1
AC1009
  9
$INSBASE
 10
0.0
 20
0.0
 30
0.0
  9
$EXTMIN
 10
-382.53419390346619
 20
843.22550599210876
 30
0.0
  9
$EXTMAX
 10
-355.03780811453782
 20
866.09975835727096
 30
0.0
  9
$LIMMIN
 10
0.0
 20
0.0
  9
$LIMMAX
 10
1500.0
 20
1500.0
  9
$ORTHOMODE
 70
     0
  9
$REGENMODE
 70
     1
  9
$FILLMODE
 70
     1
  9
$QTEXTMODE
 70
     0
  9
$MIRRTEXT
 70
     1
  9
$DRAGMODE
 70
     2
  9
$LTSCALE
 40
1.0
  9
$OSMODE
 70
    37
  9
$ATTMODE
 70
     1
  9
$TEXTSIZE
 40
1.5
  9
$TRACEWID
 40
0.05
  9
$TEXTSTYLE
  7
STANDARD
  9
$CLAYER
  8
0
  9
$CELTYPE
  6
BYLAYER
  9
$CECOLOR
 62
   256
  9
$DIMSCALE
 40
1.0
  9
$DIMASZ
 40
0.75
  9
$DIMEXO
 40
1.5
  9
$DIMDLI
 40
2.0
  9
$DIMRND
 40
0.0
  9
$DIMDLE
 40
0.0
  9
$DIMEXE
 40
1.0
  9
$DIMTP
 40
0.0
  9
$DIMTM
 40
0.0
  9
$DIMTXT
 40
1.5
  9
$DIMCEN
 40
2.0
  9
$DIMTSZ
 40
0.0
  9
$DIMTOL
 70
     0
  9
$DIMLIM
 70
     0
  9
$DIMTIH
 70
     0
  9
$DIMTOH
 70
     0
  9
$DIMSE1
 70
     0
  9
$DIMSE2
 70
     0
  9
$DIMTAD
 70
     1
  9
$DIMZIN
 70
     0
  9
$DIMBLK
  1
ARCHTICK
  9
$DIMASO
 70
     1
  9
$DIMSHO
 70
     1
  9
$DIMPOST
  1
"
  9
$DIMAPOST
  1

  9
$DIMALT
 70
     0
  9
$DIMALTD
 70
     2
  9
$DIMALTF
 40
25.399999999999999
  9
$DIMLFAC
 40
1.0
  9
$DIMTOFL
 70
     0
  9
$DIMTVP
 40
0.0
  9
$DIMTIX
 70
     1
  9
$DIMSOXD
 70
     0
  9
$DIMSAH
 70
     0
  9
$DIMBLK1
  1

  9
$DIMBLK2
  1

  9
$DIMSTYLE
  2
THREE_QUARTER_INCH_SCALE
  9
$DIMCLRD
 70
     0
  9
$DIMCLRE
 70
     0
  9
$DIMCLRT
 70
     0
  9
$DIMTFAC
 40
1.0
  9
$DIMGAP
 40
1.0
  9
$LUNITS
 70
     2
  9
$LUPREC
 70
     4
  9
$SKETCHINC
 40
0.1
  9
$FILLETRAD
 40
0.0
  9
$AUNITS
 70
     0
  9
$AUPREC
 70
     0
  9
$MENU
  1
.
  9
$ELEVATION
 40
0.0
  9
$PELEVATION
 40
0.0
  9
$THICKNESS
 40
0.0
  9
$LIMCHECK
 70
     0
  9
$BLIPMODE
 70
     0
  9
$CHAMFERA
 40
0.5
  9
$CHAMFERB
 40
0.5
  9
$SKPOLY
 70
     0
  9
$TDCREATE
 40
2452089.395738773
  9
$TDUPDATE
 40
2453608.569803114
  9
$TDINDWG
 40
1.597224456
  9
$TDUSRTIMER
 40
1.597224456
  9
$USRTIMER
 70
     1
  9
$ANGBASE
 50
0.0
  9
$ANGDIR
 70
     0
  9
$PDMODE
 70
     0
  9
$PDSIZE
 40
10.0
  9
$PLINEWID
 40
0.0
  9
$COORDS
 70
     1
  9
$SPLFRAME
 70
     0
  9
$SPLINETYPE
 70
     6
  9
$SPLINESEGS
 70
     8
  9
$ATTDIA
 70
     0
  9
$ATTREQ
 70
     1
  9
$HANDLING
 70
     1
  9
$HANDSEED
  5
364AC
  9
$SURFTAB1
 70
     6
  9
$SURFTAB2
 70
     6
  9
$SURFTYPE
 70
     6
  9
$SURFU
 70
     6
  9
$SURFV
 70
     6
  9
$UCSNAME
  2

  9
$UCSORG
 10
0.0
 20
0.0
 30
0.0
  9
$UCSXDIR
 10
1.0
 20
0.0
 30
0.0
  9
$UCSYDIR
 10
0.0
 20
1.0
 30
0.0
  9
$PUCSNAME
  2

  9
$PUCSORG
 10
0.0
 20
0.0
 30
0.0
  9
$PUCSXDIR
 10
1.0
 20
0.0
 30
0.0
  9
$PUCSYDIR
 10
0.0
 20
1.0
 30
0.0
  9
$USERI1
 70
     0
  9
$USERI2
 70
     0
  9
$USERI3
 70
     0
  9
$USERI4
 70
     0
  9
$USERI5
 70
     0
  9
$USERR1
 40
0.0
  9
$USERR2
 40
0.0
  9
$USERR3
 40
0.0
  9
$USERR4
 40
0.0
  9
$USERR5
 40
0.0
  9
$WORLDVIEW
 70
     1
  9
$SHADEDGE
 70
     3
  9
$SHADEDIF
 70
    70
  9
$TILEMODE
 70
     0
  9
$MAXACTVP
 70
    64
  9
$PLIMCHECK
 70
     0
  9
$PEXTMIN
 10
0.0282895744820664
 20
0.0759353784799721
 30
-0.0015258207003583
  9
$PEXTMAX
 10
10.471709755853
 20
7.9577863512286546
 30
0.0000000349246037
  9
$PLIMMIN
 10
-0.2500002402958907
 20
-0.2499999962453767
  9
$PLIMMAX
 10
10.74999951940821
 20
8.2499997634587316
  9
$UNITMODE
 70
     0
  9
$VISRETAIN
 70
     1
  9
$PLINEGEN
 70
     0
  9
$PSLTSCALE
 70
     1
  0
ENDSEC
  0
SECTION
  2
TABLES
  0
TABLE
  2
VPORT
 70
     3
  0
VPORT
  2
*ACTIVE
 70
     0
 10
0.0
 20
0.0
 11
1.0
 21
1.0
 12
-380.70010693656201
 22
845.16779400026962
 13
0.0
 23
0.0
 14
0.5
 24
0.5
 15
0.5
 25
0.5
 16
0.0
 26
0.0
 36
1.0
 17
0.0
 27
0.0
 37
0.0
 40
8.8173627230431642
 41
2.0
 42
50.0
 43
0.0
 44
0.0
 50
0.0
 51
0.0
 71
     0
 72
   100
 73
     1
 74
     2
 75
     0
 76
     0
 77
     0
 78
     0
  0
ENDTAB
  0
TABLE
  2
LTYPE
 70
     1
  0
LTYPE
  2
CONTINUOUS
 70
     0
  3
Solid line
 72
    65
 73
     0
 40
0.0
  0
ENDTAB
  0
TABLE
  2
LAYER
 70
    10
  0
LAYER
  2
0
 70
     0
 62
     7
  6
CONTINUOUS
  0
LAYER
  2
DEFPOINTS
 70
     0
 62
     7
  6
CONTINUOUS
  0
LAYER
  2
FRAME_200
 70
     0
 62
     8
  6
CONTINUOUS
  0
LAYER
  2
FRAME_070
 70
     0
 62
     5
  6
CONTINUOUS
  0
LAYER
  2
FRAME_050
 70
     0
 62
     6
  6
CONTINUOUS
  0
LAYER
  2
TITLE_BLOCK
 70
     0
 62
     7
  6
CONTINUOUS
  0
LAYER
  2
FRAME_025
 70
     0
 62
     7
  6
CONTINUOUS
  0
LAYER
  2
VIEWPORT
 70
     0
 62
     7
  6
CONTINUOUS
  0
LAYER
  2
PROF
 70
     0
 62
     7
  6
CONTINUOUS
  0
LAYER
  2
PROFILE
 70
     0
 62
     7
  6
CONTINUOUS
  0
ENDTAB
  0
TABLE
  2
STYLE
 70
     2
  0
STYLE
  2
STANDARD
 70
     0
 40
0.0
 41
1.0
 50
0.0
 71
     0
 42
1.5
  3
txt
  4

  0
STYLE
  2
ISO_PROPORTIONAL
 70
     0
 40
0.0
 41
1.0
 50
0.0
 71
     0
 42
2.5
  3
isocp.shx
  4

  0
ENDTAB
  0
TABLE
  2
VIEW
 70
     7
  0
ENDTAB
  0
TABLE
  2
UCS
 70
     0
  0
ENDTAB
  0
TABLE
  2
APPID
 70
     6
  0
APPID
  2
ACAD
 70
     0
  0
APPID
  2
DCO15
 70
     0
  0
APPID
  2
ACAD_EXEMPT_FROM_CAD_STANDARDS
 70
     0
  0
APPID
  2
ACAD_PSEXT
 70
     0
  0
APPID
  2
CONTENTBLOCKDESCRIPTION
 70
     0
  0
APPID
  2
CONTENTBLOCKICON
 70
     0
  0
ENDTAB
  0
TABLE
  2
DIMSTYLE
 70
     5
  0
DIMSTYLE
  2
FULL_SCALE
 70
     0
  3
"
  4

  5
ARCHTICK
  6

  7

 40
1.0
 41
0.046875
 42
0.09375
 43
0.125
 44
0.0625
 45
0.0
 46
0.0
 47
0.0
 48
0.0
140
0.125
141
0.125
142
0.0
143
25.399999999999999
144
1.0
145
0.0
146
1.0
147
0.0625
 71
     0
 72
     0
 73
     0
 74
     0
 75
     0
 76
     0
 77
     1
 78
     0
170
     0
171
     2
172
     0
173
     0
174
     1
175
     0
176
     0
177
     0
178
     0
  0
DIMSTYLE
  2
HALF_SCALE
 70
     0
  3
"
  4

  5
ARCHTICK
  6

  7

 40
1.0
 41
0.09375
 42
0.1875
 43
0.25
 44
0.125
 45
0.0
 46
0.0
 47
0.0
 48
0.0
140
0.25
141
0.25
142
0.0
143
25.399999999999999
144
1.0
145
0.0
146
1.0
147
0.125
 71
     0
 72
     0
 73
     0
 74
     0
 75
     0
 76
     0
 77
     1
 78
     0
170
     0
171
     2
172
     0
173
     0
174
     1
175
     0
176
     0
177
     0
178
     0
  0
DIMSTYLE
  2
INCH_SCALE
 70
     0
  3
"
  4

  5
ARCHTICK
  6

  7

 40
1.0
 41
0.5625
 42
1.125
 43
1.5
 44
0.75
 45
0.0
 46
0.0
 47
0.0
 48
0.0
140
1.125
141
1.5
142
0.0
143
25.399999999999999
144
1.0
145
0.0
146
1.0
147
0.75
 71
     0
 72
     0
 73
     0
 74
     0
 75
     0
 76
     0
 77
     1
 78
     0
170
     0
171
     2
172
     0
173
     0
174
     1
175
     0
176
     0
177
     0
178
     0
  0
DIMSTYLE
  2
THREE_QUARTER_INCH_SCALE
 70
     0
  3
"
  4

  5
ARCHTICK
  6

  7

 40
1.0
 41
0.75
 42
1.5
 43
2.0
 44
1.0
 45
0.0
 46
0.0
 47
0.0
 48
0.0
140
1.5
141
2.0
142
0.0
143
25.399999999999999
144
1.0
145
0.0
146
1.0
147
1.0
 71
     0
 72
     0
 73
     0
 74
     0
 75
     0
 76
     0
 77
     1
 78
     0
170
     0
171
     2
172
     0
173
     0
174
     1
175
     0
176
     0
177
     0
178
     0
  0
DIMSTYLE
  2
ZHALF_INCH_SCALE
 70
     0
  3
"
  4

  5
ARCHTICK
  6

  7

 40
1.0
 41
1.125
 42
2.25
 43
3.0
 44
1.5
 45
0.0
 46
0.0
 47
0.0
 48
0.0
140
2.25
141
3.0
142
0.0
143
25.399999999999999
144
1.0
145
0.0
146
1.0
147
1.5
 71
     0
 72
     0
 73
     0
 74
     0
 75
     0
 76
     0
 77
     1
 78
     0
170
     0
171
     2
172
     0
173
     0
174
     1
175
     0
176
     0
177
     0
178
     0
  0
ENDTAB
  0
ENDSEC
  0
SECTION
  2
BLOCKS
  0
BLOCK
  8
0
  2
$MODEL_SPACE
 70
     0
 10
0.0
 20
0.0
 30
0.0
  3
$MODEL_SPACE
  1

  0
ENDBLK
  5
21
  8
0
  0
BLOCK
 67
     1
  8
0
  2
$PAPER_SPACE
 70
     0
 10
0.0
 20
0.0
 30
0.0
  3
$PAPER_SPACE
  1

  0
ENDBLK
  5
BAD5
 67
     1
  8
0
  0
BLOCK
  8
0
  2
_ARCHTICK
 70
     0
 10
0.0
 20
0.0
 30
0.0
  3
_ARCHTICK
  1

  0
POLYLINE
  5
158
  8
0
  6
BYBLOCK
 62
     0
 66
     1
 10
0.0
 20
0.0
 30
0.0
 40
0.15
 41
0.15
  0
VERTEX
  5
35FC6
  8
0
  6
BYBLOCK
 62
     0
 10
-0.5
 20
-0.5
 30
0.0
  0
VERTEX
  5
35FC7
  8
0
  6
BYBLOCK
 62
     0
 10
0.5
 20
0.5
 30
0.0
  0
SEQEND
  5
35FC8
  8
0
  6
BYBLOCK
 62
     0
  0
ENDBLK
  5
15A
  8
0
  0
BLOCK
  8
0
  2
_OPEN30
 70
     0
 10
0.0
 20
0.0
 30
0.0
  3
_OPEN30
  1

  0
LINE
  5
15C
  8
0
  6
BYBLOCK
 62
     0
 10
-1.0
 20
0.26794919
 30
0.0
 11
0.0
 21
0.0
 31
0.0
  0
LINE
  5
15D
  8
0
  6
BYBLOCK
 62
     0
 10
0.0
 20
0.0
 30
0.0
 11
-1.0
 21
-0.26794919
 31
0.0
  0
LINE
  5
15E
  8
0
  6
BYBLOCK
 62
     0
 10
0.0
 20
0.0
 30
0.0
 11
-1.0
 21
0.0
 31
0.0
  0
ENDBLK
  5
160
  8
0
  0
BLOCK
  8
0
  2
ISO_A2_TITLE_BLOCK
 70
     2
 10
0.0
 20
0.0
 30
0.0
  3
ISO_A2_TITLE_BLOCK
  1

  0
LINE
  5
BDD
  8
FRAME_050
 10
299.5
 20
12.5
 30
0.0
 11
297.0
 21
7.5
 31
0.0
  0
LINE
  5
BDE
  8
FRAME_050
 10
294.5
 20
12.5
 30
0.0
 11
299.5
 21
12.5
 31
0.0
  0
LINE
  5
BDF
  8
FRAME_050
 10
247.0
 20
5.0
 30
0.0
 11
347.0
 21
5.0
 31
0.0
  0
LINE
  5
BE0
  8
FRAME_070
 10
584.0
 20
410.0
 30
0.0
 11
10.0
 21
410.0
 31
0.0
  0
LINE
  5
BE1
  8
FRAME_070
 10
10.0
 20
10.0
 30
0.0
 11
584.0
 21
10.0
 31
0.0
  0
LINE
  5
BE2
  8
FRAME_050
 10
12.5
 20
207.5
 30
0.0
 11
7.5
 21
210.0
 31
0.0
  0
LINE
  5
BE3
  8
FRAME_050
 10
12.5
 20
212.5
 30
0.0
 11
12.5
 21
207.5
 31
0.0
  0
LINE
  5
BE4
  8
FRAME_070
 10
10.0
 20
410.0
 30
0.0
 11
10.0
 21
10.0
 31
0.0
  0
LINE
  5
BE5
  8
FRAME_200
 10
0.0
 20
0.0
 30
0.0
 11
0.0
 21
10.0
 31
0.0
  0
LINE
  5
BE6
  8
FRAME_200
 10
0.0
 20
0.0
 30
0.0
 11
10.0
 21
0.0
 31
0.0
  0
TEXT
  5
BE7
  8
FRAME_050
 10
5.9000000000000004
 20
35.0
 30
0.0
 40
4.0
  1
H
  7
ISO_PROPORTIONAL
 72
     4
 11
7.5
 21
37.0
 31
0.0
  0
LINE
  5
BE8
  8
FRAME_050
 10
10.0
 20
60.0
 30
0.0
 11
5.0
 21
60.0
 31
0.0
  0
LINE
  5
BE9
  8
FRAME_050
 10
81.75
 20
5.0
 30
0.0
 11
81.75
 21
10.0
 31
0.0
  0
TEXT
  5
BEA
  8
FRAME_050
 10
44.874999999999993
 20
5.5
 30
0.0
 40
4.0
  1
1
  7
ISO_PROPORTIONAL
 72
     4
 11
45.875
 21
7.5
 31
0.0
  0
TEXT
  5
BEB
  8
FRAME_050
 10
6.0035533905932743
 20
85.0
 30
0.0
 40
4.0
  1
G
  7
ISO_PROPORTIONAL
 72
     4
 11
7.5
 21
87.0
 31
0.0
  0
LINE
  5
BEC
  8
FRAME_050
 10
10.0
 20
110.0
 30
0.0
 11
5.0
 21
110.0
 31
0.0
  0
TEXT
  5
BED
  8
FRAME_050
 10
6.0999999999999988
 20
135.0
 30
0.0
 40
4.0
  1
F
  7
ISO_PROPORTIONAL
 72
     4
 11
7.5
 21
137.0
 31
0.0
  0
LINE
  5
BEE
  8
FRAME_050
 10
10.0
 20
160.0
 30
0.0
 11
5.0
 21
160.0
 31
0.0
  0
TEXT
  5
BEF
  8
FRAME_050
 10
6.0999999999999988
 20
185.0
 30
0.0
 40
4.0
  1
E
  7
ISO_PROPORTIONAL
 72
     4
 11
7.5
 21
187.0
 31
0.0
  0
LINE
  5
BF0
  8
FRAME_050
 10
153.5
 20
5.0
 30
0.0
 11
153.5
 21
10.0
 31
0.0
  0
TEXT
  5
BF1
  8
FRAME_050
 10
116.1556692913386
 20
5.3996062992125982
 30
0.0
 40
4.0
  1
2
  7
ISO_PROPORTIONAL
 72
     4
 11
117.625
 21
7.5
 31
0.0
  0
TEXT
  5
BF2
  8
FRAME_050
 10
187.89215728752529
 20
5.5828427124746138
 30
0.0
 40
4.0
  1
3
  7
ISO_PROPORTIONAL
 72
     4
 11
189.375
 21
7.5
 31
0.0
  0
LINE
  5
BF3
  8
FRAME_050
 10
225.25
 20
5.0
 30
0.0
 11
225.25
 21
10.0
 31
0.0
  0
LINE
  5
BF4
  8
FRAME_050
 10
297.0
 20
7.5
 30
0.0
 11
294.5
 21
12.5
 31
0.0
  0
LINE
  5
BF5
  8
FRAME_050
 10
287.0
 20
5.0
 30
0.0
 11
287.0
 21
10.0
 31
0.0
  0
LINE
  5
BF6
  8
FRAME_050
 10
277.0
 20
5.0
 30
0.0
 11
277.0
 21
10.0
 31
0.0
  0
LINE
  5
BF7
  8
FRAME_050
 10
267.0
 20
5.0
 30
0.0
 11
267.0
 21
10.0
 31
0.0
  0
LINE
  5
BF8
  8
FRAME_050
 10
257.0
 20
5.0
 30
0.0
 11
257.0
 21
10.0
 31
0.0
  0
LINE
  5
BF9
  8
FRAME_050
 10
247.0
 20
5.0
 30
0.0
 11
247.0
 21
10.0
 31
0.0
  0
LINE
  5
BFA
  8
FRAME_050
 10
297.0
 20
10.0
 30
0.0
 11
297.0
 21
5.0
 31
0.0
  0
LINE
  5
BFB
  8
FRAME_050
 10
297.0
 20
10.0
 30
0.0
 11
297.0
 21
15.0
 31
0.0
  0
LINE
  5
BFC
  8
FRAME_050
 10
5.0
 20
210.0
 30
0.0
 11
15.0
 21
210.0
 31
0.0
  0
LINE
  5
BFD
  8
FRAME_050
 10
7.5
 20
210.0
 30
0.0
 11
12.5
 21
212.5
 31
0.0
  0
TEXT
  5
BFE
  8
FRAME_050
 10
5.7860912703473977
 20
235.0
 30
0.0
 40
4.0
  1
D
  7
ISO_PROPORTIONAL
 72
     4
 11
7.5
 21
237.0
 31
0.0
  0
LINE
  5
BFF
  8
FRAME_050
 10
10.0
 20
260.0
 30
0.0
 11
5.0
 21
260.0
 31
0.0
  0
TEXT
  5
C00
  8
FRAME_050
 10
6.1931980515339466
 20
285.0
 30
0.0
 40
4.0
  1
C
  7
ISO_PROPORTIONAL
 72
     4
 11
7.5
 21
287.0
 31
0.0
  0
LINE
  5
C01
  8
FRAME_050
 10
10.0
 20
310.0
 30
0.0
 11
5.0
 21
310.0
 31
0.0
  0
TEXT
  5
C02
  8
FRAME_050
 10
5.8999999999999959
 20
335.0
 30
0.0
 40
4.0
  1
B
  7
ISO_PROPORTIONAL
 72
     4
 11
7.5
 21
337.0
 31
0.0
  0
LINE
  5
C03
  8
FRAME_050
 10
10.0
 20
360.0
 30
0.0
 11
5.0
 21
360.0
 31
0.0
  0
TEXT
  5
C04
  8
FRAME_050
 10
5.6999999999999993
 20
385.0
 30
0.0
 40
4.0
  1
A
  7
ISO_PROPORTIONAL
 72
     4
 11
7.5
 21
387.0
 31
0.0
  0
LINE
  5
C05
  8
FRAME_200
 10
10.0
 20
420.0
 30
0.0
 11
0.0
 21
420.0
 31
0.0
  0
LINE
  5
C06
  8
FRAME_200
 10
0.0
 20
420.0
 30
0.0
 11
0.0
 21
410.0
 31
0.0
  0
TEXT
  5
C07
  8
FRAME_050
 10
44.874999999999993
 20
410.5
 30
0.0
 40
4.0
  1
1
  7
ISO_PROPORTIONAL
 72
     4
 11
45.875
 21
412.5
 31
0.0
  0
LINE
  5
C08
  8
FRAME_050
 10
81.75
 20
410.0
 30
0.0
 11
81.75
 21
415.0
 31
0.0
  0
TEXT
  5
C09
  8
FRAME_050
 10
116.1556692913386
 20
410.39960629921262
 30
0.0
 40
4.0
  1
2
  7
ISO_PROPORTIONAL
 72
     4
 11
117.625
 21
412.5
 31
0.0
  0
LINE
  5
C0A
  8
FRAME_050
 10
153.5
 20
410.0
 30
0.0
 11
153.5
 21
415.0
 31
0.0
  0
TEXT
  5
C0B
  8
FRAME_050
 10
187.89215728752529
 20
410.58284271247459
 30
0.0
 40
4.0
  1
3
  7
ISO_PROPORTIONAL
 72
     4
 11
189.375
 21
412.5
 31
0.0
  0
LINE
  5
C0C
  8
FRAME_050
 10
297.0
 20
405.0
 30
0.0
 11
297.0
 21
415.0
 31
0.0
  0
LINE
  5
C0D
  8
FRAME_050
 10
225.25
 20
410.0
 30
0.0
 11
225.25
 21
415.0
 31
0.0
  0
TEXT
  5
C0E
  8
FRAME_050
 10
259.52499999999998
 20
410.5
 30
0.0
 40
4.0
  1
4
  7
ISO_PROPORTIONAL
 72
     4
 11
261.125
 21
412.5
 31
0.0
  0
LINE
  5
C0F
  8
FRAME_070
 10
584.0
 20
10.0
 30
0.0
 11
584.0
 21
410.0
 31
0.0
  0
ATTDEF
  5
C10
  8
FRAME_025
 10
473.0
 20
31.75
 30
0.0
 40
2.5
  1
XXX - 00/00/00
  7
ISO_PROPORTIONAL
 11
473.0
 21
33.0
 31
0.0
  3
Approved by - Date
  2
APPROVED_BY_DATE
 70
     8
 74
     2
  0
TEXT
  5
C11
  8
FRAME_025
 10
448.0
 20
41.749999999999993
 30
0.0
 40
2.5
  1
Title/Name, designation, material, dimension etc
  7
ISO_PROPORTIONAL
 11
448.0
 21
43.0
 31
0.0
 73
     2
  0
TEXT
  5
C12
  8
FRAME_025
 10
473.0
 20
35.75
 30
0.0
 40
2.5
  1
Approved by - date
  7
ISO_PROPORTIONAL
 11
473.0
 21
37.0
 31
0.0
 73
     2
  0
LINE
  5
C13
  8
FRAME_070
 10
414.0
 20
46.0
 30
0.0
 11
584.0
 21
46.0
 31
0.0
  0
LINE
  5
C14
  8
FRAME_070
 10
414.0
 20
40.0
 30
0.0
 11
584.0
 21
40.0
 31
0.0
  0
LINE
  5
C15
  8
FRAME_070
 10
414.0
 20
30.0
 30
0.0
 11
584.0
 21
30.0
 31
0.0
  0
LINE
  5
C16
  8
FRAME_050
 10
368.75
 20
5.0
 30
0.0
 11
368.75
 21
10.0
 31
0.0
  0
LINE
  5
C17
  8
FRAME_050
 10
337.0
 20
5.0
 30
0.0
 11
337.0
 21
10.0
 31
0.0
  0
LINE
  5
C18
  8
FRAME_050
 10
327.0
 20
5.0
 30
0.0
 11
327.0
 21
10.0
 31
0.0
  0
LINE
  5
C19
  8
FRAME_050
 10
317.0
 20
5.0
 30
0.0
 11
317.0
 21
10.0
 31
0.0
  0
LINE
  5
C1A
  8
FRAME_050
 10
307.0
 20
5.0
 30
0.0
 11
307.0
 21
10.0
 31
0.0
  0
LINE
  5
C1B
  8
FRAME_050
 10
347.0
 20
5.0
 30
0.0
 11
347.0
 21
10.0
 31
0.0
  0
LINE
  5
C1C
  8
FRAME_050
 10
440.5
 20
5.0
 30
0.0
 11
440.5
 21
10.0
 31
0.0
  0
TEXT
  5
C1D
  8
FRAME_050
 10
403.24547244094481
 20
5.4102362204724406
 30
0.0
 40
4.0
  1
6
  7
ISO_PROPORTIONAL
 72
     4
 11
404.62499999999989
 21
7.5
 31
0.0
  0
TEXT
  5
C1E
  8
FRAME_050
 10
474.97500000000002
 20
5.5
 30
0.0
 40
4.0
  1
7
  7
ISO_PROPORTIONAL
 72
     4
 11
476.37499999999989
 21
7.5
 31
0.0
  0
TEXT
  5
C1F
  8
FRAME_025
 10
431.0
 20
41.749999999999993
 30
0.0
 40
2.5
  1
Quantity
  7
ISO_PROPORTIONAL
 11
431.0
 21
43.0
 31
0.0
 73
     2
  0
TEXT
  5
C20
  8
FRAME_025
 10
416.0
 20
41.749999999999993
 30
0.0
 40
2.5
  1
Itemref
  7
ISO_PROPORTIONAL
 11
416.0
 21
43.0
 31
0.0
 73
     2
  0
LINE
  5
C21
  8
FRAME_070
 10
414.0
 20
40.0
 30
0.0
 11
414.0
 21
46.0
 31
0.0
  0
LINE
  5
C22
  8
FRAME_070
 10
429.0
 20
40.0
 30
0.0
 11
429.0
 21
46.0
 31
0.0
  0
LINE
  5
C23
  8
FRAME_070
 10
414.0
 20
10.0
 30
0.0
 11
414.0
 21
40.0
 31
0.0
  0
ATTDEF
  5
C24
  8
FRAME_025
 10
416.0
 20
31.75
 30
0.0
 40
2.5
  1
XXX
  7
ISO_PROPORTIONAL
 11
416.0
 21
33.0
 31
0.0
  3
Designed by
  2
DESIGNED_BY
 70
     8
 74
     2
  0
TEXT
  5
C25
  8
FRAME_025
 10
416.0
 20
35.75
 30
0.0
 40
2.5
  1
Designed by
  7
ISO_PROPORTIONAL
 11
416.0
 21
37.0
 31
0.0
 73
     2
  0
LINE
  5
C26
  8
FRAME_070
 10
446.0
 20
40.0
 30
0.0
 11
446.0
 21
46.0
 31
0.0
  0
ATTDEF
  5
C27
  8
FRAME_025
 10
448.0
 20
31.75
 30
0.0
 40
2.5
  1
XXX
  7
ISO_PROPORTIONAL
 11
448.0
 21
33.0
 31
0.0
  3
Checked by
  2
CHECKED_BY
 70
     8
 74
     2
  0
TEXT
  5
C28
  8
FRAME_025
 10
448.0
 20
35.75
 30
0.0
 40
2.5
  1
Checked by
  7
ISO_PROPORTIONAL
 11
448.0
 21
37.0
 31
0.0
 73
     2
  0
ATTDEF
  5
C29
  8
FRAME_050
 10
444.74999999999989
 20
17.5
 30
0.0
 40
5.0
  1
XXX
  7
ISO_PROPORTIONAL
 72
     4
 11
451.49999999999989
 21
20.0
 31
0.0
  3
Owner
  2
OWNER
 70
     8
  0
LINE
  5
C2A
  8
FRAME_070
 10
446.0
 20
30.0
 30
0.0
 11
446.0
 21
40.0
 31
0.0
  0
LINE
  5
C2B
  8
FRAME_070
 10
471.0
 20
30.0
 30
0.0
 11
471.0
 21
40.0
 31
0.0
  0
LINE
  5
C2C
  8
FRAME_070
 10
489.0
 20
20.0
 30
0.0
 11
584.0
 21
20.0
 31
0.0
  0
LINE
  5
C2D
  8
FRAME_050
 10
512.25
 20
5.0
 30
0.0
 11
512.25
 21
10.0
 31
0.0
  0
TEXT
  5
C2E
  8
FRAME_050
 10
546.72499999999991
 20
5.5
 30
0.0
 40
4.0
  1
8
  7
ISO_PROPORTIONAL
 72
     4
 11
548.125
 21
7.5
 31
0.0
  0
ATTDEF
  5
C2F
  8
FRAME_050
 10
517.64999999999986
 20
13.5
 30
0.0
 40
3.0
  1
X
  7
ISO_PROPORTIONAL
 72
     4
 11
519.0
 21
15.0
 31
0.0
  3
Drawing number
  2
DRAWING_NUMBER
 70
     8
  0
ATTDEF
  5
C30
  8
FRAME_050
 10
529.75
 20
22.5
 30
0.0
 40
5.0
  1
XXX
  7
ISO_PROPORTIONAL
 72
     4
 11
536.5
 21
25.0
 31
0.0
  3
Title / Name
  2
TITLE
 70
     8
  0
LINE
  5
C31
  8
FRAME_070
 10
489.0
 20
10.0
 30
0.0
 11
489.0
 21
30.0
 31
0.0
  0
ATTDEF
  5
C32
  8
FRAME_025
 10
511.0
 20
31.75
 30
0.0
 40
2.5
  1
XXX
  7
ISO_PROPORTIONAL
 11
511.0
 21
33.0
 31
0.0
  3
Filename
  2
FILENAME
 70
     8
 74
     2
  0
TEXT
  5
C33
  8
FRAME_025
 10
511.0
 20
35.75
 30
0.0
 40
2.5
  1
Filename
  7
ISO_PROPORTIONAL
 11
511.0
 21
37.0
 31
0.0
 73
     2
  0
LINE
  5
C34
  8
FRAME_070
 10
509.0
 20
30.0
 30
0.0
 11
509.0
 21
40.0
 31
0.0
  0
TEXT
  5
C35
  8
FRAME_025
 10
536.0
 20
41.749999999999993
 30
0.0
 40
2.5
  1
Article No./Reference
  7
ISO_PROPORTIONAL
 11
536.0
 21
43.0
 31
0.0
 73
     2
  0
LINE
  5
C36
  8
FRAME_070
 10
534.0
 20
40.0
 30
0.0
 11
534.0
 21
46.0
 31
0.0
  0
ATTDEF
  5
C37
  8
FRAME_025
 10
551.0
 20
11.75
 30
0.0
 40
2.5
  1
0
  7
ISO_PROPORTIONAL
 11
551.0
 21
13.0
 31
0.0
  3
Edition
  2
EDITION
 70
     8
 74
     2
  0
TEXT
  5
C38
  8
FRAME_025
 10
551.0
 20
15.75
 30
0.0
 40
2.5
  1
Edition
  7
ISO_PROPORTIONAL
 11
551.0
 21
17.0
 31
0.0
 73
     2
  0
LINE
  5
C39
  8
FRAME_070
 10
549.0
 20
10.0
 30
0.0
 11
549.0
 21
20.0
 31
0.0
  0
ATTDEF
  5
C3A
  8
FRAME_025
 10
536.0
 20
31.75
 30
0.0
 40
2.5
  1
00/00/00
  7
ISO_PROPORTIONAL
 11
536.0
 21
33.0
 31
0.0
  3
Date
  2
DATE
 70
     8
 74
     2
  0
TEXT
  5
C3B
  8
FRAME_025
 10
536.0
 20
35.75
 30
0.0
 40
2.5
  1
Date
  7
ISO_PROPORTIONAL
 11
536.0
 21
37.0
 31
0.0
 73
     2
  0
LINE
  5
C3C
  8
FRAME_070
 10
534.0
 20
30.0
 30
0.0
 11
534.0
 21
40.0
 31
0.0
  0
ATTDEF
  5
C3D
  8
FRAME_025
 10
566.0
 20
11.75
 30
0.0
 40
2.5
  1
1/1
  7
ISO_PROPORTIONAL
 11
566.0
 21
13.0
 31
0.0
  3
Sheet
  2
SHEET
 70
     8
 74
     2
  0
TEXT
  5
C3E
  8
FRAME_025
 10
566.0
 20
15.75
 30
0.0
 40
2.5
  1
Sheet
  7
ISO_PROPORTIONAL
 11
566.0
 21
17.0
 31
0.0
 73
     2
  0
LINE
  5
C3F
  8
FRAME_070
 10
564.0
 20
10.0
 30
0.0
 11
564.0
 21
20.0
 31
0.0
  0
ATTDEF
  5
C40
  8
FRAME_025
 10
566.0
 20
31.75
 30
0.0
 40
2.5
  1
1:1
  7
ISO_PROPORTIONAL
 11
566.0
 21
33.0
 31
0.0
  3
Scale
  2
SCALE
 70
     8
 74
     2
  0
TEXT
  5
C41
  8
FRAME_025
 10
566.0
 20
35.75
 30
0.0
 40
2.5
  1
Scale
  7
ISO_PROPORTIONAL
 11
566.0
 21
37.0
 31
0.0
 73
     2
  0
LINE
  5
C42
  8
FRAME_070
 10
564.0
 20
30.0
 30
0.0
 11
564.0
 21
40.0
 31
0.0
  0
LINE
  5
C43
  8
FRAME_200
 10
594.0
 20
0.0
 30
0.0
 11
594.0
 21
10.0
 31
0.0
  0
LINE
  5
C44
  8
FRAME_200
 10
594.0
 20
0.0
 30
0.0
 11
584.0
 21
0.0
 31
0.0
  0
TEXT
  5
C45
  8
FRAME_050
 10
584.89999999999998
 20
35.0
 30
0.0
 40
4.0
  1
H
  7
ISO_PROPORTIONAL
 72
     4
 11
586.5
 21
37.0
 31
0.0
  0
LINE
  5
C46
  8
FRAME_050
 10
589.0
 20
60.0
 30
0.0
 11
584.0
 21
60.0
 31
0.0
  0
TEXT
  5
C47
  8
FRAME_050
 10
585.0035533905932
 20
85.0
 30
0.0
 40
4.0
  1
G
  7
ISO_PROPORTIONAL
 72
     4
 11
586.5
 21
87.0
 31
0.0
  0
LINE
  5
C48
  8
FRAME_050
 10
589.0
 20
110.0
 30
0.0
 11
584.0
 21
110.0
 31
0.0
  0
TEXT
  5
C49
  8
FRAME_050
 10
585.09999999999991
 20
135.0
 30
0.0
 40
4.0
  1
F
  7
ISO_PROPORTIONAL
 72
     4
 11
586.5
 21
137.0
 31
0.0
  0
LINE
  5
C4A
  8
FRAME_050
 10
589.0
 20
160.0
 30
0.0
 11
584.0
 21
160.0
 31
0.0
  0
TEXT
  5
C4B
  8
FRAME_050
 10
585.09999999999991
 20
185.0
 30
0.0
 40
4.0
  1
E
  7
ISO_PROPORTIONAL
 72
     4
 11
586.5
 21
187.0
 31
0.0
  0
LINE
  5
C4C
  8
FRAME_070
 10
414.0
 20
404.0
 30
0.0
 11
584.0
 21
404.0
 31
0.0
  0
TEXT
  5
C4D
  8
FRAME_050
 10
331.39215728752538
 20
410.58284271247459
 30
0.0
 40
4.0
  1
5
  7
ISO_PROPORTIONAL
 72
     4
 11
332.875
 21
412.5
 31
0.0
  0
LINE
  5
C4E
  8
FRAME_050
 10
368.75
 20
410.0
 30
0.0
 11
368.75
 21
415.0
 31
0.0
  0
TEXT
  5
C4F
  8
FRAME_025
 10
428.0
 20
405.75
 30
0.0
 40
2.5
  1
Revision note
  7
ISO_PROPORTIONAL
 11
428.0
 21
407.0
 31
0.0
 73
     2
  0
TEXT
  5
C50
  8
FRAME_025
 10
416.0
 20
405.75
 30
0.0
 40
2.5
  1
RevNo
  7
ISO_PROPORTIONAL
 11
416.0
 21
407.0
 31
0.0
 73
     2
  0
LINE
  5
C51
  8
FRAME_070
 10
426.0
 20
404.0
 30
0.0
 11
426.0
 21
410.0
 31
0.0
  0
LINE
  5
C52
  8
FRAME_070
 10
414.0
 20
404.0
 30
0.0
 11
414.0
 21
410.0
 31
0.0
  0
TEXT
  5
C53
  8
FRAME_050
 10
403.24547244094481
 20
410.41023622047243
 30
0.0
 40
4.0
  1
6
  7
ISO_PROPORTIONAL
 72
     4
 11
404.62499999999989
 21
412.5
 31
0.0
  0
LINE
  5
C54
  8
FRAME_050
 10
440.5
 20
410.0
 30
0.0
 11
440.5
 21
415.0
 31
0.0
  0
TEXT
  5
C55
  8
FRAME_050
 10
474.97500000000002
 20
410.5
 30
0.0
 40
4.0
  1
7
  7
ISO_PROPORTIONAL
 72
     4
 11
476.37499999999989
 21
412.5
 31
0.0
  0
LINE
  5
C56
  8
FRAME_050
 10
579.0
 20
210.0
 30
0.0
 11
589.0
 21
210.0
 31
0.0
  0
TEXT
  5
C57
  8
FRAME_050
 10
584.78609127034736
 20
235.0
 30
0.0
 40
4.0
  1
D
  7
ISO_PROPORTIONAL
 72
     4
 11
586.5
 21
237.0
 31
0.0
  0
LINE
  5
C58
  8
FRAME_050
 10
589.0
 20
260.0
 30
0.0
 11
584.0
 21
260.0
 31
0.0
  0
TEXT
  5
C59
  8
FRAME_050
 10
585.19319805153395
 20
285.0
 30
0.0
 40
4.0
  1
C
  7
ISO_PROPORTIONAL
 72
     4
 11
586.5
 21
287.0
 31
0.0
  0
LINE
  5
C5A
  8
FRAME_050
 10
589.0
 20
310.0
 30
0.0
 11
584.0
 21
310.0
 31
0.0
  0
TEXT
  5
C5B
  8
FRAME_050
 10
584.89999999999998
 20
335.0
 30
0.0
 40
4.0
  1
B
  7
ISO_PROPORTIONAL
 72
     4
 11
586.5
 21
337.0
 31
0.0
  0
TEXT
  5
C5C
  8
FRAME_025
 10
571.08299391850551
 20
405.75
 30
0.0
 40
2.5
  1
Checked
  7
ISO_PROPORTIONAL
 11
571.08299391850551
 21
407.0
 31
0.0
 73
     2
  0
TEXT
  5
C5D
  8
FRAME_025
 10
555.36099797283532
 20
405.75
 30
0.0
 40
2.5
  1
Signature
  7
ISO_PROPORTIONAL
 11
555.36099797283532
 21
407.0
 31
0.0
 73
     2
  0
TEXT
  5
C5E
  8
FRAME_025
 10
537.0
 20
405.75
 30
0.0
 40
2.5
  1
Date
  7
ISO_PROPORTIONAL
 11
537.0
 21
407.0
 31
0.0
 73
     2
  0
LINE
  5
C5F
  8
FRAME_070
 10
570.0
 20
404.0
 30
0.0
 11
570.0
 21
410.0
 31
0.0
  0
LINE
  5
C60
  8
FRAME_070
 10
555.0
 20
404.0
 30
0.0
 11
555.0
 21
410.0
 31
0.0
  0
LINE
  5
C61
  8
FRAME_070
 10
535.0
 20
404.0
 30
0.0
 11
535.0
 21
410.0
 31
0.0
  0
LINE
  5
C62
  8
FRAME_050
 10
512.25
 20
410.0
 30
0.0
 11
512.25
 21
415.0
 31
0.0
  0
TEXT
  5
C63
  8
FRAME_050
 10
546.72499999999991
 20
410.5
 30
0.0
 40
4.0
  1
8
  7
ISO_PROPORTIONAL
 72
     4
 11
548.125
 21
412.5
 31
0.0
  0
LINE
  5
C64
  8
FRAME_050
 10
589.0
 20
360.0
 30
0.0
 11
584.0
 21
360.0
 31
0.0
  0
TEXT
  5
C65
  8
FRAME_050
 10
584.70000000000005
 20
385.0
 30
0.0
 40
4.0
  1
A
  7
ISO_PROPORTIONAL
 72
     4
 11
586.5
 21
387.0
 31
0.0
  0
LINE
  5
C66
  8
FRAME_200
 10
594.0
 20
420.0
 30
0.0
 11
584.0
 21
420.0
 31
0.0
  0
LINE
  5
C67
  8
FRAME_200
 10
594.0
 20
410.0
 30
0.0
 11
594.0
 21
420.0
 31
0.0
  0
ENDBLK
  5
C69
  8
0
  0
BLOCK
  8
0
  2
WOBB001END
 70
     0
 10
0.0
 20
0.0
 30
0.0
  3
WOBB001END
  1

  0
LINE
  5
4D66
  8
0
  6
CONTINUOUS
 10
0.0
 20
0.0
 30
0.0
 11
0.8749999999999998
 21
0.0
 31
0.0
  0
ARC
  5
4D67
  8
0
  6
CONTINUOUS
 10
0.0331648379439287
 20
-0.5087238935900232
 30
0.0
 40
0.8790130605592325
 50
284.06490243660443
 51
312.19222981924361
  0
ARC
  5
4D68
  8
0
  6
CONTINUOUS
 10
0.2841534338796767
 20
-1.510548310625538
 30
0.0
 40
0.1537731892806598
 50
104.0649024366044
 51
179.4721730735024
  0
LINE
  5
4D69
  8
0
  6
CONTINUOUS
 10
0.0
 20
0.0
 30
0.0
 11
-0.0000000000000003
 21
-1.7501564476661919
 31
0.0
  0
ARC
  5
4D6A
  8
0
  6
CONTINUOUS
 10
0.1404622019506122
 20
-1.6303137183546199
 30
0.0
 40
0.1198427293115722
 50
275.0
 51
85.000000000000057
  0
LINE
  5
4D6B
  8
0
  6
CONTINUOUS
 10
-0.0000000000000003
 20
-1.7501564476661919
 30
0.0
 11
0.1456946485130855
 21
-1.7501564476661919
 31
0.0
  0
LINE
  5
4D6C
  8
0
  6
CONTINUOUS
 10
0.1377603739254348
 20
-1.7508506067459131
 30
0.0
 11
0.150907184036669
 21
-1.749700409899652
 31
0.0
  0
LINE
  5
4D6D
  8
0
  6
CONTINUOUS
 10
0.1303867696719884
 20
-1.5091317231818231
 30
0.0
 11
0.1509071840366689
 21
-1.5109270268095869
 31
0.0
  0
LINE
  5
4D6E
  8
0
  6
CONTINUOUS
 10
0.8749999999999998
 20
0.0
 30
0.0
 11
0.8749999999999996
 21
-0.8649327026588228
 31
0.0
  0
LINE
  5
4D6F
  8
0
  6
CONTINUOUS
 10
0.727014513830997
 20
-0.8726882933550612
 30
0.0
 11
0.727014513830997
 21
-0.9264923397184784
 31
0.0
  0
ARC
  5
4D70
  8
0
  6
CONTINUOUS
 10
0.41187090827646
 20
-0.9264923397184784
 30
0.0
 40
0.315143605554537
 50
312.19222981924361
 51
0.0
  0
LINE
  5
4D71
  8
0
  6
CONTINUOUS
 10
0.727014513830997
 20
-0.8726882933550612
 30
0.0
 11
0.8749999999999996
 21
-0.8649327026588228
 31
0.0
  0
ENDBLK
  5
4D72
  8
0
  0
BLOCK
  8
0
  2
A$C0A61123B
 70
     0
 10
0.0
 20
0.0
 30
0.0
  3
A$C0A61123B
  1

  0
LINE
  5
C0AD
  8
PROF
  6
CONTINUOUS
 10
4.9012016798694162
 20
13.325025853350891
 30
0.0000000000000002
 11
4.9012016798694162
 21
12.88585218805485
 31
0.0000000000000003
  0
INSERT
  5
C0AE
  8
0
  2
*U69
 10
0.0
 20
0.0
 30
0.0
  0
LINE
  5
C0AF
  8
PROF
 10
4.5198575031869259
 20
12.72227734589444
 30
0.0000000000000001
 11
4.5198575031869259
 21
12.88585218805485
 31
0.0000000000000001
  0
LINE
  5
C0B0
  8
PROF
  6
CONTINUOUS
 10
3.6306271195888371
 20
13.325025853350891
 30
0.0000000000000002
 11
4.9012016798694162
 21
13.325025853350891
 31
0.0000000000000002
  0
LINE
  5
C0B1
  8
PROF
 10
1.9750295148747341
 20
10.37671325491794
 30
0.0000000000000002
 11
1.9750295148747341
 21
10.11391186758919
 31
0.0000000000000002
  0
LINE
  5
C0B2
  8
PROF
 10
1.607967335755631
 20
10.11391186758919
 30
0.0000000000000001
 11
1.9750295148747341
 21
10.11391186758919
 31
0.0000000000000001
  0
LINE
  5
C0B3
  8
PROF
 10
1.9750295148747341
 20
10.11391186758919
 30
0.0000000000000001
 11
1.944958486898144
 21
10.11391186758919
 31
0.0000000000000001
  0
LINE
  5
C0B4
  8
PROF
 10
1.9750295148747341
 20
10.11391186758919
 30
0.0000000000000001
 11
1.944958486898144
 21
10.11391186758919
 31
0.0000000000000001
  0
LINE
  5
C0B5
  8
PROF
 10
0.3222605517169654
 20
7.5247473351056442
 30
-0.0000000000000002
 11
-0.0000008570117416
 21
7.5247473351056442
 31
0.0
  0
LINE
  5
C0B6
  8
PROF
 10
-0.0000008570117416
 20
7.5247473351056442
 30
0.0
 11
-0.0000008570117416
 21
9.1943336957369866
 31
0.0
  0
POLYLINE
  5
C0B7
  8
PROF
 66
     1
 10
0.0
 20
0.0
 30
0.0000000000000001
 70
     4
 75
     6
  0
VERTEX
  5
C0B8
  8
PROF
 10
1.607967335755631
 20
10.11391186758919
 30
0.0000000000000001
 70
    16
  0
VERTEX
  5
C0B9
  8
PROF
 10
1.607967335755631
 20
10.11391186758919
 30
0.0000000000000001
 70
     8
  0
VERTEX
  5
C0BA
  8
PROF
 10
1.646813232648582
 20
10.02198069336111
 30
0.0000000000000001
 70
     8
  0
VERTEX
  5
C0BB
  8
PROF
 10
1.67335966680929
 20
9.9344134163010267
 30
0.0000000000000001
 70
     8
  0
VERTEX
  5
C0BC
  8
PROF
 10
1.689008640046324
 20
9.8512576644480987
 30
0.0000000000000001
 70
     8
  0
VERTEX
  5
C0BD
  8
PROF
 10
1.695162154168258
 20
9.7725610658417281
 30
0.0000000000000001
 70
     8
  0
VERTEX
  5
C0BE
  8
PROF
 10
1.6932222109836059
 20
9.6983712485214255
 30
0.0000000000000001
 70
     8
  0
VERTEX
  5
C0BF
  8
PROF
 10
1.6845908123009961
 20
9.6287358405263603
 30
0.0000000000000001
 70
     8
  0
VERTEX
  5
C0C0
  8
PROF
 10
1.6706699599288859
 20
9.5637024698960431
 30
0.0000000000000001
 70
     8
  0
VERTEX
  5
C0C1
  8
PROF
 10
1.6528616556759621
 20
9.503318764669757
 30
0.0000000000000001
 70
     8
  0
VERTEX
  5
C0C2
  8
PROF
 10
1.6323562992730549
 20
9.4475843259650674
 30
0.0000000000000001
 70
     8
  0
VERTEX
  5
C0C3
  8
PROF
 10
1.609497882140658
 20
9.3963066472123273
 30
0.0000000000000001
 70
     8
  0
VERTEX
  5
C0C4
  8
PROF
 10
1.584418793621637
 20
9.3492451949202842
 30
0.0000000000000001
 70
     8
  0
VERTEX
  5
C0C5
  8
PROF
 10
1.557251423058744
 20
9.3061594355972375
 30
0.0000000000000001
 70
     8
  0
VERTEX
  5
C0C6
  8
PROF
 10
1.5281281597949601
 20
9.2668088357519292
 30
0.0000000000000001
 70
     8
  0
VERTEX
  5
C0C7
  8
PROF
 10
1.4971813931729789
 20
9.2309528618930017
 30
0.0000000000000001
 70
     8
  0
VERTEX
  5
C0C8
  8
PROF
 10
1.464543512535726
 20
9.1983509805288577
 30
0.0000000000000001
 70
     8
  0
VERTEX
  5
C0C9
  8
PROF
 10
1.4303469072260091
 20
9.1687626581682462
 30
0.0000000000000001
 70
     8
  0
VERTEX
  5
C0CA
  8
PROF
 10
1.3947360332574019
 20
9.1419547918675335
 30
0.0000000000000001
 70
     8
  0
VERTEX
  5
C0CB
  8
PROF
 10
1.3579036133264131
 20
9.1177240008747731
 30
0.0000000000000001
 70
     8
  0
VERTEX
  5
C0CC
  8
PROF
 10
1.3200544368004321
 20
9.0958743349860924
 30
0.0000000000000001
 70
     8
  0
VERTEX
  5
C0CD
  8
PROF
 10
1.281393293046676
 20
9.0762098439975034
 30
0.0000000000000001
 70
     8
  0
VERTEX
  5
C0CE
  8
PROF
 10
1.242124971432417
 20
9.0585345777049042
 30
0.0000000000000001
 70
     8
  0
VERTEX
  5
C0CF
  8
PROF
 10
1.2024542613249869
 20
9.0426525859044204
 30
0.0000000000000001
 70
     8
  0
VERTEX
  5
C0D0
  8
PROF
 10
1.1625859520916599
 20
9.0283679183919503
 30
0.0000000000000001
 70
     8
  0
VERTEX
  5
C0D1
  8
PROF
 10
1.1227248330997091
 20
9.0154846249635057
 30
0.0000000000000001
 70
     8
  0
VERTEX
  5
C0D2
  8
PROF
 10
1.0829726247361
 20
9.0034643862466055
 30
0.0000000000000001
 70
     8
  0
VERTEX
  5
C0D3
  8
PROF
 10
1.043018771466222
 20
8.9903994061946833
 30
0.0000000000000001
 70
     8
  0
VERTEX
  5
C0D4
  8
PROF
 10
1.002449648775211
 20
8.9740395195925657
 30
0.0000000000000001
 70
     8
  0
VERTEX
  5
C0D5
  8
PROF
 10
0.9608516321480919
 20
8.9521345612251935
 30
0.0000000000000001
 70
     8
  0
VERTEX
  5
C0D6
  8
PROF
 10
0.9178110970699435
 20
8.9224343658775052
 30
0.0000000000000001
 70
     8
  0
VERTEX
  5
C0D7
  8
PROF
 10
0.8729144190259034
 20
8.8826887683343312
 30
0.0000000000000001
 70
     8
  0
VERTEX
  5
C0D8
  8
PROF
 10
0.8257479735009951
 20
8.8306476033806121
 30
0.0000000000000001
 70
     8
  0
VERTEX
  5
C0D9
  8
PROF
 10
0.7758981359802988
 20
8.764060705801171
 30
0.0000000000000001
 70
     8
  0
VERTEX
  5
C0DA
  8
PROF
 10
1.729201901609656
 20
9.8629858761255491
 30
0.0000000000000001
 70
    16
  0
VERTEX
  5
C0DB
  8
PROF
 10
1.6793731231140889
 20
9.4532143012734196
 30
0.0000000000000001
 70
    16
  0
VERTEX
  5
C0DC
  8
PROF
 10
1.4455611507419801
 20
9.1391837193732481
 30
0.0000000000000001
 70
    16
  0
VERTEX
  5
C0DD
  8
PROF
 10
1.120463717273821
 20
9.0026267702428413
 30
0.0000000000000001
 70
    16
  0
VERTEX
  5
C0DE
  8
PROF
 10
0.9127765582653638
 20
8.9630202230383702
 30
0.0000000000000001
 70
    16
  0
VERTEX
  5
C0DF
  8
PROF
 10
0.7758981359802988
 20
8.764060705801171
 30
0.0000000000000001
 70
    16
  0
SEQEND
  5
C0E0
  8
PROF
  0
ARC
  5
C0E1
  8
PROF
 10
0.733429816733235
 20
8.4849506952165257
 30
0.0000000000000001
 40
0.2823224329524727
 50
269.73652020831901
 51
81.348449993176914
  0
LINE
  5
C0E2
  8
PROF
  6
CONTINUOUS
 10
-0.0000008570117416
 20
9.1943336957369866
 30
-0.0000000000000001
 11
3.6306271195888371
 21
13.325025853350891
 31
0.0000000000000002
  0
POLYLINE
  5
C0E3
  8
PROF
 66
     1
 10
0.0
 20
0.0
 30
0.0000000000000001
 70
     4
 75
     6
  0
VERTEX
  5
C0E4
  8
PROF
 10
4.5198575031869259
 20
12.72227734589444
 30
0.0000000000000001
 70
    16
  0
VERTEX
  5
C0E5
  8
PROF
 10
4.5198575031869259
 20
12.72227734589444
 30
0.0000000000000001
 70
     8
  0
VERTEX
  5
C0E6
  8
PROF
 10
4.4467035366886298
 20
12.741128108778071
 30
0.0000000000000001
 70
     8
  0
VERTEX
  5
C0E7
  8
PROF
 10
4.3786645761268801
 20
12.754675269913941
 30
0.0000000000000001
 70
     8
  0
VERTEX
  5
C0E8
  8
PROF
 10
4.3154364111440477
 20
12.76334314092332
 30
0.0000000000000001
 70
     8
  0
VERTEX
  5
C0E9
  8
PROF
 10
4.256714831382566
 20
12.76755603342724
 30
0.0000000000000001
 70
     8
  0
VERTEX
  5
C0EA
  8
PROF
 10
4.2021956264849791
 20
12.76773825904672
 30
0.0000000000000001
 70
     8
  0
VERTEX
  5
C0EB
  8
PROF
 10
4.1515745860935453
 20
12.764314129403139
 30
0.0000000000000001
 70
     8
  0
VERTEX
  5
C0EC
  8
PROF
 10
4.1045474998508658
 20
12.75770795611743
 30
0.0000000000000001
 70
     8
  0
VERTEX
  5
C0ED
  8
PROF
 10
4.0608101573993158
 20
12.748344050810831
 30
0.0000000000000001
 70
     8
  0
VERTEX
  5
C0EE
  8
PROF
 10
4.0200583483813261
 20
12.736646725104491
 30
0.0000000000000001
 70
     8
  0
VERTEX
  5
C0EF
  8
PROF
 10
3.9819878624393819
 20
12.72304029061945
 30
0.0000000000000001
 70
     8
  0
VERTEX
  5
C0F0
  8
PROF
 10
3.946294489215858
 20
12.707949058976959
 30
0.0000000000000001
 70
     8
  0
VERTEX
  5
C0F1
  8
PROF
 10
3.9126740183532429
 20
12.691797341798059
 30
0.0000000000000001
 70
     8
  0
VERTEX
  5
C0F2
  8
PROF
 10
3.8808638350742508
 20
12.67494295718654
 30
0.0000000000000001
 70
     8
  0
VERTEX
  5
C0F3
  8
PROF
 10
3.850767706922738
 20
12.65747774917668
 30
0.0000000000000001
 70
     8
  0
VERTEX
  5
C0F4
  8
PROF
 10
3.8223309970228452
 20
12.639427068285499
 30
0.0000000000000001
 70
     8
  0
VERTEX
  5
C0F5
  8
PROF
 10
3.7954990684987129
 20
12.62081626503004
 30
0.0000000000000001
 70
     8
  0
VERTEX
  5
C0F6
  8
PROF
 10
3.7702172844744828
 20
12.601670689926999
 30
0.0000000000000001
 70
     8
  0
VERTEX
  5
C0F7
  8
PROF
 10
3.746431008074353
 20
12.58201569349364
 30
0.0000000000000001
 70
     8
  0
VERTEX
  5
C0F8
  8
PROF
 10
3.7240856024224618
 20
12.56187662624666
 30
0.0000000000000001
 70
     8
  0
VERTEX
  5
C0F9
  8
PROF
 10
3.7031264306428961
 20
12.541278838703191
 30
0.0000000000000001
 70
     8
  0
VERTEX
  5
C0FA
  8
PROF
 10
3.6834988558599089
 20
12.520247681380051
 30
0.0000000000000001
 70
     8
  0
VERTEX
  5
C0FB
  8
PROF
 10
3.665148241197528
 20
12.49880850479428
 30
0.0000000000000001
 70
     8
  0
VERTEX
  5
C0FC
  8
PROF
 10
3.6480199497799499
 20
12.47698665946279
 30
0.0000000000000001
 70
     8
  0
VERTEX
  5
C0FD
  8
PROF
 10
3.6320593447313172
 20
12.45480749590263
 30
0.0000000000000001
 70
     8
  0
VERTEX
  5
C0FE
  8
PROF
 10
3.6171895848866589
 20
12.43223790353807
 30
0.0000000000000001
 70
     8
  0
VERTEX
  5
C0FF
  8
PROF
 10
3.6032450119242858
 20
12.40901092742285
 30
0.0000000000000001
 70
     8
  0
VERTEX
  5
C100
  8
PROF
 10
3.590037763233453
 20
12.38480115151844
 30
0.0000000000000001
 70
     8
  0
VERTEX
  5
C101
  8
PROF
 10
3.5773799762033032
 20
12.35928315978594
 30
0.0000000000000001
 70
     8
  0
VERTEX
  5
C102
  8
PROF
 10
3.5650837882230908
 20
12.33213153618658
 30
0.0000000000000001
 70
     8
  0
VERTEX
  5
C103
  8
PROF
 10
3.5529613366819599
 20
12.303020864681571
 30
0.0000000000000001
 70
     8
  0
VERTEX
  5
C104
  8
PROF
 10
3.540824758969165
 20
12.271625729232371
 30
0.0000000000000001
 70
     8
  0
VERTEX
  5
C105
  8
PROF
 10
3.5284861924738489
 20
12.23762071379997
 30
0.0000000000000001
 70
     8
  0
VERTEX
  5
C106
  8
PROF
 10
3.5157577745852668
 20
12.200680402345711
 30
0.0000000000000001
 70
     8
  0
VERTEX
  5
C107
  8
PROF
 10
3.5024516426926189
 20
12.16047937883093
 30
0.0000000000000001
 70
     8
  0
VERTEX
  5
C108
  8
PROF
 10
3.4883799341851041
 20
12.116692227216619
 30
0.0000000000000001
 70
     8
  0
VERTEX
  5
C109
  8
PROF
 10
3.4733547864519201
 20
12.06899353146423
 30
0.0000000000000001
 70
     8
  0
VERTEX
  5
C10A
  8
PROF
 10
3.45723654619428
 20
12.0172095445447
 30
0.0000000000000001
 70
     8
  0
VERTEX
  5
C10B
  8
PROF
 10
3.4400783973613889
 20
11.961773195467799
 30
0.0000000000000001
 70
     8
  0
VERTEX
  5
C10C
  8
PROF
 10
3.421981733214579
 20
11.90326908225302
 30
0.0000000000000001
 70
     8
  0
VERTEX
  5
C10D
  8
PROF
 10
3.4030479470150108
 20
11.842281802919951
 30
0.0000000000000001
 70
     8
  0
VERTEX
  5
C10E
  8
PROF
 10
3.383378432024017
 20
11.779395955487979
 30
0.0000000000000001
 70
     8
  0
VERTEX
  5
C10F
  8
PROF
 10
3.3630745815028709
 20
11.715196137976809
 30
0.0000000000000001
 70
     8
  0
VERTEX
  5
C110
  8
PROF
 10
3.3422377887127359
 20
11.650266948405831
 30
0.0000000000000001
 70
     8
  0
VERTEX
  5
C111
  8
PROF
 10
3.320969446915
 20
11.58519298479461
 30
0.0000000000000001
 70
     8
  0
VERTEX
  5
C112
  8
PROF
 10
3.2993709493707679
 20
11.520558845162549
 30
0.0000000000000001
 70
     8
  0
VERTEX
  5
C113
  8
PROF
 10
3.277543689341428
 20
11.456949127529469
 30
0.0000000000000001
 70
     8
  0
VERTEX
  5
C114
  8
PROF
 10
3.2555890600881412
 20
11.3949484299145
 30
0.0000000000000001
 70
     8
  0
VERTEX
  5
C115
  8
PROF
 10
3.233608454872182
 20
11.335141350337491
 30
0.0000000000000001
 70
     8
  0
VERTEX
  5
C116
  8
PROF
 10
3.2116715641212181
 20
11.27799544797778
 30
0.0000000000000001
 70
     8
  0
VERTEX
  5
C117
  8
PROF
 10
3.189721266927847
 20
11.22351012665467
 30
0.0000000000000001
 70
     8
  0
VERTEX
  5
C118
  8
PROF
 10
3.1676687395512881
 20
11.17156775134765
 30
0.0000000000000001
 70
     8
  0
VERTEX
  5
C119
  8
PROF
 10
3.1454251582505321
 20
11.12205068703588
 30
0.0000000000000001
 70
     8
  0
VERTEX
  5
C11A
  8
PROF
 10
3.122901699284625
 20
11.07484129869874
 30
0.0000000000000001
 70
     8
  0
VERTEX
  5
C11B
  8
PROF
 10
3.1000095389127291
 20
11.02982195131551
 30
0.0000000000000001
 70
     8
  0
VERTEX
  5
C11C
  8
PROF
 10
3.0766598533938909
 20
10.986875009865679
 30
0.0000000000000001
 70
     8
  0
VERTEX
  5
C11D
  8
PROF
 10
3.0527638189871591
 20
10.9458828393283
 30
0.0000000000000001
 70
     8
  0
VERTEX
  5
C11E
  8
PROF
 10
3.0282326119516361
 20
10.90672780468298
 30
0.0000000000000001
 70
     8
  0
VERTEX
  5
C11F
  8
PROF
 10
3.002977408546371
 20
10.869292270908771
 30
0.0000000000000001
 70
     8
  0
VERTEX
  5
C120
  8
PROF
 10
2.9769093850304098
 20
10.833458602985161
 30
0.0000000000000001
 70
     8
  0
VERTEX
  5
C121
  8
PROF
 10
2.9499397176628568
 20
10.799109165891419
 30
0.0000000000000001
 70
     8
  0
VERTEX
  5
C122
  8
PROF
 10
2.9220006098404379
 20
10.76614363969508
 30
0.0000000000000001
 70
     8
  0
VERTEX
  5
C123
  8
PROF
 10
2.8931083735103011
 20
10.7345309648158
 30
0.0000000000000001
 70
     8
  0
VERTEX
  5
C124
  8
PROF
 10
2.8633003477572738
 20
10.70425739676193
 30
0.0000000000000001
 70
     8
  0
VERTEX
  5
C125
  8
PROF
 10
2.8326138716660689
 20
10.67530919104115
 30
0.0000000000000001
 70
     8
  0
VERTEX
  5
C126
  8
PROF
 10
2.8010862843216269
 20
10.647672603161711
 30
0.0000000000000001
 70
     8
  0
VERTEX
  5
C127
  8
PROF
 10
2.7687549248087171
 20
10.62133388863162
 30
0.0000000000000001
 70
     8
  0
VERTEX
  5
C128
  8
PROF
 10
2.735657132212054
 20
10.5962793029588
 30
0.0000000000000001
 70
     8
  0
VERTEX
  5
C129
  8
PROF
 10
2.7018302456165202
 20
10.572495101651381
 30
0.0000000000000001
 70
     8
  0
VERTEX
  5
C12A
  8
PROF
 10
2.6673116041068852
 20
10.54996754021726
 30
0.0000000000000001
 70
     8
  0
VERTEX
  5
C12B
  8
PROF
 10
2.6321385467680321
 20
10.528682874164581
 30
0.0000000000000001
 70
     8
  0
VERTEX
  5
C12C
  8
PROF
 10
2.5963484126846188
 20
10.508627359001251
 30
0.0000000000000001
 70
     8
  0
VERTEX
  5
C12D
  8
PROF
 10
2.5599785409415849
 20
10.489787250235279
 30
0.0000000000000001
 70
     8
  0
VERTEX
  5
C12E
  8
PROF
 10
2.522998630314361
 20
10.472162234281081
 30
0.0000000000000001
 70
     8
  0
VERTEX
  5
C12F
  8
PROF
 10
2.4851078183409072
 20
10.455805721177621
 30
0.0000000000000001
 70
     8
  0
VERTEX
  5
C130
  8
PROF
 10
2.4459376022498982
 20
10.44078455187036
 30
0.0000000000000001
 70
     8
  0
VERTEX
  5
C131
  8
PROF
 10
2.4051194792701258
 20
10.42716556730465
 30
0.0000000000000001
 70
     8
  0
VERTEX
  5
C132
  8
PROF
 10
2.3622849466301541
 20
10.415015608425851
 30
0.0000000000000001
 70
     8
  0
VERTEX
  5
C133
  8
PROF
 10
2.3170655015587149
 20
10.40440151617929
 30
0.0000000000000001
 70
     8
  0
VERTEX
  5
C134
  8
PROF
 10
2.2690926412844301
 20
10.395390131510339
 30
0.0000000000000001
 70
     8
  0
VERTEX
  5
C135
  8
PROF
 10
2.2179978630360888
 20
10.388048295364451
 30
0.0000000000000001
 70
     8
  0
VERTEX
  5
C136
  8
PROF
 10
2.1634126640422551
 20
10.38244284868688
 30
0.0000000000000001
 70
     8
  0
VERTEX
  5
C137
  8
PROF
 10
2.104968541531604
 20
10.37864063242295
 30
0.0000000000000001
 70
     8
  0
VERTEX
  5
C138
  8
PROF
 10
2.0422969927328718
 20
10.37670848751816
 30
0.0000000000000001
 70
     8
  0
VERTEX
  5
C139
  8
PROF
 10
1.9750295148747341
 20
10.37671325491794
 30
0.0000000000000001
 70
     8
  0
VERTEX
  5
C13A
  8
PROF
 10
4.2166060115107484
 20
12.80885334975255
 30
0.0000000000000001
 70
    16
  0
VERTEX
  5
C13B
  8
PROF
 10
3.8702254102732918
 20
12.707065515763929
 30
0.0000000000000001
 70
    16
  0
VERTEX
  5
C13C
  8
PROF
 10
3.605346156896871
 20
12.46277472098552
 30
0.0000000000000001
 70
    16
  0
VERTEX
  5
C13D
  8
PROF
 10
3.500746030527238
 20
12.170680575709749
 30
0.0000000000000001
 70
    16
  0
VERTEX
  5
C13E
  8
PROF
 10
3.231798439705698
 20
11.26846416496107
 30
0.0000000000000001
 70
    16
  0
VERTEX
  5
C13F
  8
PROF
 10
2.9737109398832891
 20
10.76631086647069
 30
0.0000000000000001
 70
    16
  0
VERTEX
  5
C140
  8
PROF
 10
2.5729961067384011
 20
10.460947364504699
 30
0.0000000000000001
 70
    16
  0
VERTEX
  5
C141
  8
PROF
 10
2.253782621454604
 20
10.372731239449759
 30
0.0000000000000001
 70
    16
  0
VERTEX
  5
C142
  8
PROF
 10
1.9750295148747341
 20
10.37671325491794
 30
0.0000000000000001
 70
    16
  0
SEQEND
  5
C143
  8
PROF
  0
LINE
  5
C144
  8
PROF
 10
4.9012016798694162
 20
12.88585218805485
 30
0.0000000000000003
 11
4.5198575031869259
 21
12.88585218805485
 31
0.0000000000000003
  0
LINE
  5
C145
  8
PROF
 10
0.7321315362267457
 20
8.2026312473991538
 30
0.0000000000000006
 11
0.7321315362267457
 21
8.0511853963434987
 31
0.0000000000000006
  0
ARC
  5
C146
  8
PROF
 10
0.7977322214551919
 20
7.5773339332026799
 30
0.0000000000000006
 40
0.4783708383912012
 50
97.882010168942529
 51
186.31119505698649
  0
LINE
  5
C147
  8
FRAME_050
 10
7.8016377197432121
 20
17.99371054969447
 30
0.0
 11
7.8016377197432121
 21
0.0000000000002274
 31
0.0
  0
ENDBLK
  5
C149
  8
0
  0
BLOCK
  8
0
  2
A$C3A7C6791
 70
     0
 10
0.0
 20
0.0
 30
0.0
  3
A$C3A7C6791
  1

  0
ARC
  5
1A561
  8
0
 10
1.0342682520551421
 20
11.169869575314801
 30
0.0
 40
0.3900479059662017
 50
183.5871702804647
 51
250.12003892297869
  0
ARC
  5
1A562
  8
0
 10
0.3331235273064408
 20
14.96835148878222
 30
0.0
 40
0.279776987736341
 50
290.26301102890392
 51
72.509116341854423
  0
ARC
  5
1A563
  8
0
 10
0.7948887850711232
 20
10.60700392177659
 30
0.0
 40
0.2232361910347119
 50
300.2914142988875
 51
61.434469032044603
  0
LINE
  5
1A564
  8
0
 10
-0.0000015027120526
 20
9.7351929270671462
 30
0.0
 11
1.0332573394856579
 21
9.7351929270671462
 31
0.0
  0
LINE
  5
1A565
  8
0
 10
1.0332573394856579
 20
10.377304601683591
 30
0.0
 11
0.9074887268004658
 21
10.377304601683591
 31
0.0
  0
LINE
  5
1A566
  8
0
 10
0.6449845421777241
 20
11.145465432783791
 30
0.0
 11
0.5554296092705046
 21
11.181249222917581
 31
0.0
  0
LINE
  5
1A567
  8
0
 10
0.5554296092705046
 20
14.67010534946894
 30
0.0
 11
0.430018718777319
 21
14.67010534946894
 31
0.0
  0
LINE
  5
1A568
  8
0
 10
0.4172116339615855
 20
15.235192927067139
 30
0.0
 11
-0.0000015027120526
 21
15.235192927067139
 31
0.0
  0
LINE
  5
1A569
  8
0
 10
-0.0000015027120526
 20
15.235192927067139
 30
0.0
 11
-0.0000015027120526
 21
9.7351929270671462
 31
0.0
  0
LINE
  5
1A56A
  8
0
 10
1.0332573394856579
 20
9.7351929270671462
 30
0.0
 11
1.0332573394856579
 21
10.377304601683591
 31
0.0
  0
LINE
  5
1A56B
  8
0
 10
0.9074887268004658
 20
10.377304601683591
 30
0.0
 11
0.9074887268003521
 21
10.414245912577821
 31
0.0
  0
LINE
  5
1A56C
  8
0
 10
0.5554296092705046
 20
11.181249222917581
 30
0.0
 11
0.5554296092705046
 21
14.67010534946894
 31
0.0
  0
LINE
  5
1A56D
  8
0
 10
0.430018718777319
 20
14.67010534946894
 30
0.0
 11
0.4300187187771485
 21
14.705889139602959
 31
0.0
  0
INSERT
  5
1A56E
  8
0
  2
*U70
 10
0.0
 20
0.0
 30
0.0
  0
LINE
  5
1A56F
  8
FRAME_050
 10
5.1382720395286006
 20
17.993710579095019
 30
0.0
 11
5.1382720395286006
 21
0.0000000294007805
 31
0.0
  0
ENDBLK
  5
1A571
  8
0
  0
BLOCK
  8
0
  2
A$C212248C0
 70
     0
 10
0.0
 20
0.0
 30
0.0
  3
A$C212248C0
  1

  0
LINE
  5
2846E
  8
0
 10
-0.0000002092490945
 20
10.41741894345523
 30
0.0
 11
-0.000000218823061
 21
12.91741894345523
 31
0.0
  0
LINE
  5
2846F
  8
0
 10
0.8061752779508424
 20
10.41741894654251
 30
0.0
 11
0.80617527442746
 21
11.337459194522349
 31
0.0
  0
LINE
  5
28470
  8
0
 10
-0.0000002092490945
 20
10.41741894345523
 30
0.0
 11
0.8061752779508424
 21
10.41741894654251
 31
0.0
  0
LINE
  5
28471
  8
0
 10
-0.000000218823061
 20
12.91741894345523
 30
0.0
 11
0.1835338022692099
 21
12.91741894415804
 31
0.0
  0
LINE
  5
28472
  8
0
 10
0.5432593756756888
 20
11.33745919351543
 30
0.0
 11
0.8061752744275167
 21
11.337459194522349
 31
0.0
  0
LINE
  5
28473
  8
0
 10
0.5432593756756888
 20
11.33745919351543
 30
0.0
 11
0.54325937522907
 21
11.454074799268589
 31
0.0
  0
ARC
  5
28474
  8
0
 10
0.5406585726453841
 20
11.69407225899795
 30
0.0
 40
0.2400115514942006
 50
270.62087814899439
 51
10.065567101317541
  0
ARC
  5
28475
  8
0
 10
0.3766221072655185
 20
12.57830290724473
 30
0.0
 40
0.1204493443528103
 50
92.075522465847911
 51
186.90606997904499
  0
ARC
  5
28476
  8
0
 10
0.3522648873053527
 20
11.66572609276443
 30
0.0
 40
0.4304889887359197
 50
9.3978639632316945
 51
32.979139282634932
  0
ARC
  5
28477
  8
0
 10
-3.1652042745943159
 20
9.0577862235478506
 30
0.0
 40
4.8085319198703189
 50
36.234313076985558
 51
42.402692063571678
  0
LINE
  5
28478
  8
0
 10
0.1835338022692099
 20
12.91741894415804
 30
0.0
 11
0.3722598200128004
 21
12.698673231681139
 31
0.0
  0
ARC
  5
28479
  8
0
 10
0.9319226152692294
 20
12.72987725098619
 30
0.0
 40
0.6950054723870779
 50
193.8233761419454
 51
218.1708864341492
  0
LINE
  5
2847A
  8
0
 10
-0.0000002092490945
 20
10.41741894345523
 30
0.0
 11
-0.0000002092490945
 21
12.91741894345523
 31
0.0
  0
INSERT
  5
2847B
  8
0
  2
*U71
 10
0.0
 20
0.0
 30
0.0
  0
LINE
  5
2847C
  8
FRAME_050
 10
6.2588202718825414
 20
17.993710579095019
 30
0.0
 11
6.2588202718825414
 21
0.0000000294007805
 31
0.0
  0
ENDBLK
  5
2847E
  8
0
  0
BLOCK
  8
0
  2
A$C52DE5D80
 70
     0
 10
0.0
 20
0.0
 30
0.0
  3
A$C52DE5D80
  1

  0
INSERT
  5
2B89A
  8
0
  2
*U72
 10
0.0
 20
0.0
 30
0.0
  0
LINE
  5
2B89B
  8
0
 10
0.0000014767382481
 20
7.878552666495465
 30
0.0
 11
1.5240062297528421
 21
7.8785526664953522
 31
0.0
  0
LINE
  5
2B89C
  8
0
 10
1.5240062297528421
 20
8.3261365866769665
 30
0.0
 11
1.5240062297528421
 21
7.8785526664953522
 31
0.0
  0
LINE
  5
2B89D
  8
0
 10
1.394539806559862
 20
8.3261365866769665
 30
0.0
 11
1.5240062297528421
 21
8.3261365866769665
 31
0.0
  0
LINE
  5
2B89E
  8
0
 10
0.7472076905950758
 20
9.2582948336663549
 30
0.0
 11
0.8951693171012493
 21
9.2582948336665822
 31
0.0
  0
POLYLINE
  8
0
  5
362A8
  62
7
  66
     1
 10
0.000000
 20
0.000000
 30
0.000000
  70
     8
  0
VERTEX
  8
0
  5
362A9
 10
1.39454
 20
8.32614
 30
0.000000
  70
    32
  0
VERTEX
  8
0
  5
362AA
 10
1.39468
 20
8.33131
 30
0.000000
  70
    32
  0
VERTEX
  8
0
  5
362AB
 10
1.39482
 20
8.33649
 30
0.000000
  70
    32
  0
VERTEX
  8
0
  5
362AC
 10
1.39495
 20
8.34167
 30
0.000000
  70
    32
  0
VERTEX
  8
0
  5
362AD
 10
1.39508
 20
8.34684
 30
0.000000
  70
    32
  0
VERTEX
  8
0
  5
362AE
 10
1.39521
 20
8.35201
 30
0.000000
  70
    32
  0
VERTEX
  8
0
  5
362AF
 10
1.39532
 20
8.35718
 30
0.000000
  70
    32
  0
VERTEX
  8
0
  5
362B0
 10
1.39542
 20
8.36234
 30
0.000000
  70
    32
  0
VERTEX
  8
0
  5
362B1
 10
1.39552
 20
8.36749
 30
0.000000
  70
    32
  0
VERTEX
  8
0
  5
362B2
 10
1.39559
 20
8.37264
 30
0.000000
  70
    32
  0
VERTEX
  8
0
  5
362B3
 10
1.39566
 20
8.37779
 30
0.000000
  70
    32
  0
VERTEX
  8
0
  5
362B4
 10
1.39570
 20
8.38292
 30
0.000000
  70
    32
  0
VERTEX
  8
0
  5
362B5
 10
1.39573
 20
8.38805
 30
0.000000
  70
    32
  0
VERTEX
  8
0
  5
362B6
 10
1.39574
 20
8.39316
 30
0.000000
  70
    32
  0
VERTEX
  8
0
  5
362B7
 10
1.39572
 20
8.39827
 30
0.000000
  70
    32
  0
VERTEX
  8
0
  5
362B8
 10
1.39569
 20
8.40337
 30
0.000000
  70
    32
  0
VERTEX
  8
0
  5
362B9
 10
1.39562
 20
8.40845
 30
0.000000
  70
    32
  0
VERTEX
  8
0
  5
362BA
 10
1.39553
 20
8.41352
 30
0.000000
  70
    32
  0
VERTEX
  8
0
  5
362BB
 10
1.39541
 20
8.41858
 30
0.000000
  70
    32
  0
VERTEX
  8
0
  5
362BC
 10
1.39526
 20
8.42363
 30
0.000000
  70
    32
  0
VERTEX
  8
0
  5
362BD
 10
1.39507
 20
8.42866
 30
0.000000
  70
    32
  0
VERTEX
  8
0
  5
362BE
 10
1.39486
 20
8.43367
 30
0.000000
  70
    32
  0
VERTEX
  8
0
  5
362BF
 10
1.39460
 20
8.43867
 30
0.000000
  70
    32
  0
VERTEX
  8
0
  5
362C0
 10
1.39431
 20
8.44365
 30
0.000000
  70
    32
  0
VERTEX
  8
0
  5
362C1
 10
1.39398
 20
8.44862
 30
0.000000
  70
    32
  0
VERTEX
  8
0
  5
362C2
 10
1.39361
 20
8.45356
 30
0.000000
  70
    32
  0
VERTEX
  8
0
  5
362C3
 10
1.39320
 20
8.45849
 30
0.000000
  70
    32
  0
VERTEX
  8
0
  5
362C4
 10
1.39274
 20
8.46339
 30
0.000000
  70
    32
  0
VERTEX
  8
0
  5
362C5
 10
1.39224
 20
8.46828
 30
0.000000
  70
    32
  0
VERTEX
  8
0
  5
362C6
 10
1.39168
 20
8.47314
 30
0.000000
  70
    32
  0
VERTEX
  8
0
  5
362C7
 10
1.39108
 20
8.47798
 30
0.000000
  70
    32
  0
VERTEX
  8
0
  5
362C8
 10
1.39043
 20
8.48280
 30
0.000000
  70
    32
  0
VERTEX
  8
0
  5
362C9
 10
1.38973
 20
8.48759
 30
0.000000
  70
    32
  0
VERTEX
  8
0
  5
362CA
 10
1.38897
 20
8.49236
 30
0.000000
  70
    32
  0
VERTEX
  8
0
  5
362CB
 10
1.38815
 20
8.49711
 30
0.000000
  70
    32
  0
VERTEX
  8
0
  5
362CC
 10
1.38728
 20
8.50182
 30
0.000000
  70
    32
  0
VERTEX
  8
0
  5
362CD
 10
1.38635
 20
8.50651
 30
0.000000
  70
    32
  0
VERTEX
  8
0
  5
362CE
 10
1.38535
 20
8.51117
 30
0.000000
  70
    32
  0
VERTEX
  8
0
  5
362CF
 10
1.38429
 20
8.51581
 30
0.000000
  70
    32
  0
VERTEX
  8
0
  5
362D0
 10
1.38317
 20
8.52041
 30
0.000000
  70
    32
  0
VERTEX
  8
0
  5
362D1
 10
1.38198
 20
8.52498
 30
0.000000
  70
    32
  0
VERTEX
  8
0
  5
362D2
 10
1.38073
 20
8.52953
 30
0.000000
  70
    32
  0
VERTEX
  8
0
  5
362D3
 10
1.37940
 20
8.53404
 30
0.000000
  70
    32
  0
VERTEX
  8
0
  5
362D4
 10
1.37800
 20
8.53851
 30
0.000000
  70
    32
  0
VERTEX
  8
0
  5
362D5
 10
1.37653
 20
8.54296
 30
0.000000
  70
    32
  0
VERTEX
  8
0
  5
362D6
 10
1.37499
 20
8.54737
 30
0.000000
  70
    32
  0
VERTEX
  8
0
  5
362D7
 10
1.37337
 20
8.55175
 30
0.000000
  70
    32
  0
VERTEX
  8
0
  5
362D8
 10
1.37167
 20
8.55609
 30
0.000000
  70
    32
  0
VERTEX
  8
0
  5
362D9
 10
1.36991
 20
8.56040
 30
0.000000
  70
    32
  0
VERTEX
  8
0
  5
362DA
 10
1.36807
 20
8.56468
 30
0.000000
  70
    32
  0
VERTEX
  8
0
  5
362DB
 10
1.36616
 20
8.56893
 30
0.000000
  70
    32
  0
VERTEX
  8
0
  5
362DC
 10
1.36418
 20
8.57314
 30
0.000000
  70
    32
  0
VERTEX
  8
0
  5
362DD
 10
1.36214
 20
8.57733
 30
0.000000
  70
    32
  0
VERTEX
  8
0
  5
362DE
 10
1.36003
 20
8.58148
 30
0.000000
  70
    32
  0
VERTEX
  8
0
  5
362DF
 10
1.35785
 20
8.58560
 30
0.000000
  70
    32
  0
VERTEX
  8
0
  5
362E0
 10
1.35561
 20
8.58970
 30
0.000000
  70
    32
  0
VERTEX
  8
0
  5
362E1
 10
1.35330
 20
8.59377
 30
0.000000
  70
    32
  0
VERTEX
  8
0
  5
362E2
 10
1.35093
 20
8.59781
 30
0.000000
  70
    32
  0
VERTEX
  8
0
  5
362E3
 10
1.34851
 20
8.60182
 30
0.000000
  70
    32
  0
VERTEX
  8
0
  5
362E4
 10
1.34602
 20
8.60581
 30
0.000000
  70
    32
  0
VERTEX
  8
0
  5
362E5
 10
1.34347
 20
8.60976
 30
0.000000
  70
    32
  0
VERTEX
  8
0
  5
362E6
 10
1.34086
 20
8.61370
 30
0.000000
  70
    32
  0
VERTEX
  8
0
  5
362E7
 10
1.33820
 20
8.61761
 30
0.000000
  70
    32
  0
VERTEX
  8
0
  5
362E8
 10
1.33549
 20
8.62149
 30
0.000000
  70
    32
  0
VERTEX
  8
0
  5
362E9
 10
1.33271
 20
8.62535
 30
0.000000
  70
    32
  0
VERTEX
  8
0
  5
362EA
 10
1.32989
 20
8.62919
 30
0.000000
  70
    32
  0
VERTEX
  8
0
  5
362EB
 10
1.32701
 20
8.63300
 30
0.000000
  70
    32
  0
VERTEX
  8
0
  5
362EC
 10
1.32408
 20
8.63679
 30
0.000000
  70
    32
  0
VERTEX
  8
0
  5
362ED
 10
1.32111
 20
8.64056
 30
0.000000
  70
    32
  0
VERTEX
  8
0
  5
362EE
 10
1.31808
 20
8.64431
 30
0.000000
  70
    32
  0
VERTEX
  8
0
  5
362EF
 10
1.31501
 20
8.64803
 30
0.000000
  70
    32
  0
VERTEX
  8
0
  5
362F0
 10
1.31189
 20
8.65174
 30
0.000000
  70
    32
  0
VERTEX
  8
0
  5
362F1
 10
1.30872
 20
8.65543
 30
0.000000
  70
    32
  0
VERTEX
  8
0
  5
362F2
 10
1.30551
 20
8.65910
 30
0.000000
  70
    32
  0
VERTEX
  8
0
  5
362F3
 10
1.30226
 20
8.66275
 30
0.000000
  70
    32
  0
VERTEX
  8
0
  5
362F4
 10
1.29896
 20
8.66638
 30
0.000000
  70
    32
  0
VERTEX
  8
0
  5
362F5
 10
1.29563
 20
8.66999
 30
0.000000
  70
    32
  0
VERTEX
  8
0
  5
362F6
 10
1.29225
 20
8.67359
 30
0.000000
  70
    32
  0
VERTEX
  8
0
  5
362F7
 10
1.28884
 20
8.67717
 30
0.000000
  70
    32
  0
VERTEX
  8
0
  5
362F8
 10
1.28539
 20
8.68074
 30
0.000000
  70
    32
  0
VERTEX
  8
0
  5
362F9
 10
1.28190
 20
8.68429
 30
0.000000
  70
    32
  0
VERTEX
  8
0
  5
362FA
 10
1.27838
 20
8.68782
 30
0.000000
  70
    32
  0
VERTEX
  8
0
  5
362FB
 10
1.27482
 20
8.69134
 30
0.000000
  70
    32
  0
VERTEX
  8
0
  5
362FC
 10
1.27123
 20
8.69485
 30
0.000000
  70
    32
  0
VERTEX
  8
0
  5
362FD
 10
1.26761
 20
8.69835
 30
0.000000
  70
    32
  0
VERTEX
  8
0
  5
362FE
 10
1.26396
 20
8.70183
 30
0.000000
  70
    32
  0
VERTEX
  8
0
  5
362FF
 10
1.26028
 20
8.70530
 30
0.000000
  70
    32
  0
VERTEX
  8
0
  5
36300
 10
1.25657
 20
8.70876
 30
0.000000
  70
    32
  0
VERTEX
  8
0
  5
36301
 10
1.25283
 20
8.71220
 30
0.000000
  70
    32
  0
VERTEX
  8
0
  5
36302
 10
1.24907
 20
8.71564
 30
0.000000
  70
    32
  0
VERTEX
  8
0
  5
36303
 10
1.24528
 20
8.71907
 30
0.000000
  70
    32
  0
VERTEX
  8
0
  5
36304
 10
1.24147
 20
8.72249
 30
0.000000
  70
    32
  0
VERTEX
  8
0
  5
36305
 10
1.23764
 20
8.72590
 30
0.000000
  70
    32
  0
VERTEX
  8
0
  5
36306
 10
1.23379
 20
8.72930
 30
0.000000
  70
    32
  0
VERTEX
  8
0
  5
36307
 10
1.22991
 20
8.73270
 30
0.000000
  70
    32
  0
VERTEX
  8
0
  5
36308
 10
1.22601
 20
8.73609
 30
0.000000
  70
    32
  0
VERTEX
  8
0
  5
36309
 10
1.22210
 20
8.73947
 30
0.000000
  70
    32
  0
VERTEX
  8
0
  5
3630A
 10
1.21817
 20
8.74284
 30
0.000000
  70
    32
  0
VERTEX
  8
0
  5
3630B
 10
1.21423
 20
8.74621
 30
0.000000
  70
    32
  0
VERTEX
  8
0
  5
3630C
 10
1.21027
 20
8.74958
 30
0.000000
  70
    32
  0
VERTEX
  8
0
  5
3630D
 10
1.20629
 20
8.75294
 30
0.000000
  70
    32
  0
VERTEX
  8
0
  5
3630E
 10
1.20230
 20
8.75630
 30
0.000000
  70
    32
  0
VERTEX
  8
0
  5
3630F
 10
1.19831
 20
8.75965
 30
0.000000
  70
    32
  0
VERTEX
  8
0
  5
36310
 10
1.19430
 20
8.76300
 30
0.000000
  70
    32
  0
VERTEX
  8
0
  5
36311
 10
1.19028
 20
8.76636
 30
0.000000
  70
    32
  0
VERTEX
  8
0
  5
36312
 10
1.18626
 20
8.76970
 30
0.000000
  70
    32
  0
VERTEX
  8
0
  5
36313
 10
1.18222
 20
8.77305
 30
0.000000
  70
    32
  0
VERTEX
  8
0
  5
36314
 10
1.17819
 20
8.77640
 30
0.000000
  70
    32
  0
VERTEX
  8
0
  5
36315
 10
1.17414
 20
8.77975
 30
0.000000
  70
    32
  0
VERTEX
  8
0
  5
36316
 10
1.17010
 20
8.78310
 30
0.000000
  70
    32
  0
VERTEX
  8
0
  5
36317
 10
1.16605
 20
8.78645
 30
0.000000
  70
    32
  0
VERTEX
  8
0
  5
36318
 10
1.16200
 20
8.78980
 30
0.000000
  70
    32
  0
VERTEX
  8
0
  5
36319
 10
1.15795
 20
8.79315
 30
0.000000
  70
    32
  0
VERTEX
  8
0
  5
3631A
 10
1.15390
 20
8.79651
 30
0.000000
  70
    32
  0
VERTEX
  8
0
  5
3631B
 10
1.14986
 20
8.79987
 30
0.000000
  70
    32
  0
VERTEX
  8
0
  5
3631C
 10
1.14582
 20
8.80323
 30
0.000000
  70
    32
  0
VERTEX
  8
0
  5
3631D
 10
1.14178
 20
8.80660
 30
0.000000
  70
    32
  0
VERTEX
  8
0
  5
3631E
 10
1.13775
 20
8.80998
 30
0.000000
  70
    32
  0
VERTEX
  8
0
  5
3631F
 10
1.13372
 20
8.81336
 30
0.000000
  70
    32
  0
VERTEX
  8
0
  5
36320
 10
1.12970
 20
8.81674
 30
0.000000
  70
    32
  0
VERTEX
  8
0
  5
36321
 10
1.12569
 20
8.82014
 30
0.000000
  70
    32
  0
VERTEX
  8
0
  5
36322
 10
1.12170
 20
8.82354
 30
0.000000
  70
    32
  0
VERTEX
  8
0
  5
36323
 10
1.11771
 20
8.82695
 30
0.000000
  70
    32
  0
VERTEX
  8
0
  5
36324
 10
1.11373
 20
8.83036
 30
0.000000
  70
    32
  0
VERTEX
  8
0
  5
36325
 10
1.10977
 20
8.83379
 30
0.000000
  70
    32
  0
VERTEX
  8
0
  5
36326
 10
1.10583
 20
8.83723
 30
0.000000
  70
    32
  0
VERTEX
  8
0
  5
36327
 10
1.10190
 20
8.84067
 30
0.000000
  70
    32
  0
VERTEX
  8
0
  5
36328
 10
1.09798
 20
8.84413
 30
0.000000
  70
    32
  0
VERTEX
  8
0
  5
36329
 10
1.09409
 20
8.84760
 30
0.000000
  70
    32
  0
VERTEX
  8
0
  5
3632A
 10
1.09021
 20
8.85107
 30
0.000000
  70
    32
  0
VERTEX
  8
0
  5
3632B
 10
1.08635
 20
8.85457
 30
0.000000
  70
    32
  0
VERTEX
  8
0
  5
3632C
 10
1.08251
 20
8.85807
 30
0.000000
  70
    32
  0
VERTEX
  8
0
  5
3632D
 10
1.07870
 20
8.86158
 30
0.000000
  70
    32
  0
VERTEX
  8
0
  5
3632E
 10
1.07490
 20
8.86511
 30
0.000000
  70
    32
  0
VERTEX
  8
0
  5
3632F
 10
1.07113
 20
8.86865
 30
0.000000
  70
    32
  0
VERTEX
  8
0
  5
36330
 10
1.06738
 20
8.87220
 30
0.000000
  70
    32
  0
VERTEX
  8
0
  5
36331
 10
1.06365
 20
8.87576
 30
0.000000
  70
    32
  0
VERTEX
  8
0
  5
36332
 10
1.05995
 20
8.87934
 30
0.000000
  70
    32
  0
VERTEX
  8
0
  5
36333
 10
1.05628
 20
8.88294
 30
0.000000
  70
    32
  0
VERTEX
  8
0
  5
36334
 10
1.05263
 20
8.88654
 30
0.000000
  70
    32
  0
VERTEX
  8
0
  5
36335
 10
1.04900
 20
8.89016
 30
0.000000
  70
    32
  0
VERTEX
  8
0
  5
36336
 10
1.04541
 20
8.89380
 30
0.000000
  70
    32
  0
VERTEX
  8
0
  5
36337
 10
1.04185
 20
8.89745
 30
0.000000
  70
    32
  0
VERTEX
  8
0
  5
36338
 10
1.03831
 20
8.90112
 30
0.000000
  70
    32
  0
VERTEX
  8
0
  5
36339
 10
1.03481
 20
8.90480
 30
0.000000
  70
    32
  0
VERTEX
  8
0
  5
3633A
 10
1.03133
 20
8.90850
 30
0.000000
  70
    32
  0
VERTEX
  8
0
  5
3633B
 10
1.02789
 20
8.91221
 30
0.000000
  70
    32
  0
VERTEX
  8
0
  5
3633C
 10
1.02448
 20
8.91594
 30
0.000000
  70
    32
  0
VERTEX
  8
0
  5
3633D
 10
1.02111
 20
8.91969
 30
0.000000
  70
    32
  0
VERTEX
  8
0
  5
3633E
 10
1.01777
 20
8.92345
 30
0.000000
  70
    32
  0
VERTEX
  8
0
  5
3633F
 10
1.01446
 20
8.92723
 30
0.000000
  70
    32
  0
VERTEX
  8
0
  5
36340
 10
1.01119
 20
8.93103
 30
0.000000
  70
    32
  0
VERTEX
  8
0
  5
36341
 10
1.00796
 20
8.93484
 30
0.000000
  70
    32
  0
VERTEX
  8
0
  5
36342
 10
1.00476
 20
8.93868
 30
0.000000
  70
    32
  0
VERTEX
  8
0
  5
36343
 10
1.00160
 20
8.94253
 30
0.000000
  70
    32
  0
VERTEX
  8
0
  5
36344
 10
0.998485
 20
8.94640
 30
0.000000
  70
    32
  0
VERTEX
  8
0
  5
36345
 10
0.995407
 20
8.95029
 30
0.000000
  70
    32
  0
VERTEX
  8
0
  5
36346
 10
0.992369
 20
8.95420
 30
0.000000
  70
    32
  0
VERTEX
  8
0
  5
36347
 10
0.989373
 20
8.95813
 30
0.000000
  70
    32
  0
VERTEX
  8
0
  5
36348
 10
0.986419
 20
8.96208
 30
0.000000
  70
    32
  0
VERTEX
  8
0
  5
36349
 10
0.983508
 20
8.96605
 30
0.000000
  70
    32
  0
VERTEX
  8
0
  5
3634A
 10
0.980642
 20
8.97004
 30
0.000000
  70
    32
  0
VERTEX
  8
0
  5
3634B
 10
0.977819
 20
8.97405
 30
0.000000
  70
    32
  0
VERTEX
  8
0
  5
3634C
 10
0.975042
 20
8.97808
 30
0.000000
  70
    32
  0
VERTEX
  8
0
  5
3634D
 10
0.972312
 20
8.98213
 30
0.000000
  70
    32
  0
VERTEX
  8
0
  5
3634E
 10
0.969628
 20
8.98621
 30
0.000000
  70
    32
  0
VERTEX
  8
0
  5
3634F
 10
0.966993
 20
8.99030
 30
0.000000
  70
    32
  0
VERTEX
  8
0
  5
36350
 10
0.964406
 20
8.99442
 30
0.000000
  70
    32
  0
VERTEX
  8
0
  5
36351
 10
0.961868
 20
8.99856
 30
0.000000
  70
    32
  0
VERTEX
  8
0
  5
36352
 10
0.959381
 20
9.00272
 30
0.000000
  70
    32
  0
VERTEX
  8
0
  5
36353
 10
0.956944
 20
9.00691
 30
0.000000
  70
    32
  0
VERTEX
  8
0
  5
36354
 10
0.954559
 20
9.01112
 30
0.000000
  70
    32
  0
VERTEX
  8
0
  5
36355
 10
0.952227
 20
9.01535
 30
0.000000
  70
    32
  0
VERTEX
  8
0
  5
36356
 10
0.949949
 20
9.01960
 30
0.000000
  70
    32
  0
VERTEX
  8
0
  5
36357
 10
0.947724
 20
9.02388
 30
0.000000
  70
    32
  0
VERTEX
  8
0
  5
36358
 10
0.945555
 20
9.02819
 30
0.000000
  70
    32
  0
VERTEX
  8
0
  5
36359
 10
0.943441
 20
9.03252
 30
0.000000
  70
    32
  0
VERTEX
  8
0
  5
3635A
 10
0.941383
 20
9.03687
 30
0.000000
  70
    32
  0
VERTEX
  8
0
  5
3635B
 10
0.939384
 20
9.04125
 30
0.000000
  70
    32
  0
VERTEX
  8
0
  5
3635C
 10
0.937442
 20
9.04566
 30
0.000000
  70
    32
  0
VERTEX
  8
0
  5
3635D
 10
0.935559
 20
9.05009
 30
0.000000
  70
    32
  0
VERTEX
  8
0
  5
3635E
 10
0.933736
 20
9.05455
 30
0.000000
  70
    32
  0
VERTEX
  8
0
  5
3635F
 10
0.931973
 20
9.05903
 30
0.000000
  70
    32
  0
VERTEX
  8
0
  5
36360
 10
0.930271
 20
9.06354
 30
0.000000
  70
    32
  0
VERTEX
  8
0
  5
36361
 10
0.928629
 20
9.06808
 30
0.000000
  70
    32
  0
VERTEX
  8
0
  5
36362
 10
0.927045
 20
9.07264
 30
0.000000
  70
    32
  0
VERTEX
  8
0
  5
36363
 10
0.925517
 20
9.07722
 30
0.000000
  70
    32
  0
VERTEX
  8
0
  5
36364
 10
0.924045
 20
9.08183
 30
0.000000
  70
    32
  0
VERTEX
  8
0
  5
36365
 10
0.922626
 20
9.08647
 30
0.000000
  70
    32
  0
VERTEX
  8
0
  5
36366
 10
0.921259
 20
9.09112
 30
0.000000
  70
    32
  0
VERTEX
  8
0
  5
36367
 10
0.919943
 20
9.09580
 30
0.000000
  70
    32
  0
VERTEX
  8
0
  5
36368
 10
0.918676
 20
9.10050
 30
0.000000
  70
    32
  0
VERTEX
  8
0
  5
36369
 10
0.917457
 20
9.10522
 30
0.000000
  70
    32
  0
VERTEX
  8
0
  5
3636A
 10
0.916283
 20
9.10996
 30
0.000000
  70
    32
  0
VERTEX
  8
0
  5
3636B
 10
0.915155
 20
9.11472
 30
0.000000
  70
    32
  0
VERTEX
  8
0
  5
3636C
 10
0.914070
 20
9.11950
 30
0.000000
  70
    32
  0
VERTEX
  8
0
  5
3636D
 10
0.913026
 20
9.12429
 30
0.000000
  70
    32
  0
VERTEX
  8
0
  5
3636E
 10
0.912023
 20
9.12911
 30
0.000000
  70
    32
  0
VERTEX
  8
0
  5
3636F
 10
0.911058
 20
9.13394
 30
0.000000
  70
    32
  0
VERTEX
  8
0
  5
36370
 10
0.910131
 20
9.13879
 30
0.000000
  70
    32
  0
VERTEX
  8
0
  5
36371
 10
0.909239
 20
9.14365
 30
0.000000
  70
    32
  0
VERTEX
  8
0
  5
36372
 10
0.908381
 20
9.14853
 30
0.000000
  70
    32
  0
VERTEX
  8
0
  5
36373
 10
0.907557
 20
9.15342
 30
0.000000
  70
    32
  0
VERTEX
  8
0
  5
36374
 10
0.906763
 20
9.15832
 30
0.000000
  70
    32
  0
VERTEX
  8
0
  5
36375
 10
0.906000
 20
9.16324
 30
0.000000
  70
    32
  0
VERTEX
  8
0
  5
36376
 10
0.905264
 20
9.16817
 30
0.000000
  70
    32
  0
VERTEX
  8
0
  5
36377
 10
0.904556
 20
9.17312
 30
0.000000
  70
    32
  0
VERTEX
  8
0
  5
36378
 10
0.903873
 20
9.17807
 30
0.000000
  70
    32
  0
VERTEX
  8
0
  5
36379
 10
0.903213
 20
9.18303
 30
0.000000
  70
    32
  0
VERTEX
  8
0
  5
3637A
 10
0.902576
 20
9.18801
 30
0.000000
  70
    32
  0
VERTEX
  8
0
  5
3637B
 10
0.901960
 20
9.19299
 30
0.000000
  70
    32
  0
VERTEX
  8
0
  5
3637C
 10
0.901363
 20
9.19798
 30
0.000000
  70
    32
  0
VERTEX
  8
0
  5
3637D
 10
0.900784
 20
9.20298
 30
0.000000
  70
    32
  0
VERTEX
  8
0
  5
3637E
 10
0.900222
 20
9.20799
 30
0.000000
  70
    32
  0
VERTEX
  8
0
  5
3637F
 10
0.899674
 20
9.21300
 30
0.000000
  70
    32
  0
VERTEX
  8
0
  5
36380
 10
0.899140
 20
9.21802
 30
0.000000
  70
    32
  0
VERTEX
  8
0
  5
36381
 10
0.898617
 20
9.22304
 30
0.000000
  70
    32
  0
VERTEX
  8
0
  5
36382
 10
0.898105
 20
9.22807
 30
0.000000
  70
    32
  0
VERTEX
  8
0
  5
36383
 10
0.897602
 20
9.23310
 30
0.000000
  70
    32
  0
VERTEX
  8
0
  5
36384
 10
0.897107
 20
9.23813
 30
0.000000
  70
    32
  0
VERTEX
  8
0
  5
36385
 10
0.896617
 20
9.24317
 30
0.000000
  70
    32
  0
VERTEX
  8
0
  5
36386
 10
0.896132
 20
9.24821
 30
0.000000
  70
    32
  0
VERTEX
  8
0
  5
36387
 10
0.895650
 20
9.25325
 30
0.000000
  70
    32
  0
VERTEX
  8
0
  5
36388
 10
0.895169
 20
9.25829
 30
0.000000
  70
    32
  0
SEQEND
  8
0
  5
36389
  0
LINE
  5
2B8A0
  8
0
  6
CONTINUOUS
 62
     7
 10
0.7472076905950758
 20
9.2582948336663549
 30
0.0
 11
0.7472076905949621
 21
11.826520277942111
 31
0.0
  0
LINE
  5
2B8A1
  8
0
  6
CONTINUOUS
 62
     7
 10
0.4997076905949598
 20
12.389020277942111
 30
0.0
 11
0.000001476738305
 21
12.389020277942111
 31
0.0
  0
ARC
  5
2B8A2
  8
0
 10
0.4997076905949598
 20
12.139020277942111
 30
0.0
 40
0.2500000000000009
 50
269.42703265506509
 51
90.0
  0
LINE
  5
2B8A3
  8
0
  6
CONTINUOUS
 62
     7
 10
0.7472076905949621
 20
11.826520277942111
 30
0.0
 11
0.5597076905949621
 21
11.826520277942111
 31
0.0
  0
LINE
  5
2B8A4
  8
0
  6
CONTINUOUS
 62
     7
 10
0.4972076905949621
 20
11.826520277942111
 30
0.0
 11
0.4972076905949621
 21
11.88903277828603
 31
0.0
  0
LINE
  5
2B8A5
  8
0
 10
0.0000014767382481
 20
7.878552666495465
 30
0.0
 11
0.000001476738305
 21
12.389020277942111
 31
0.0
  0
LINE
  5
2B8A6
  8
0
 10
0.7472076905949621
 20
11.826520277942111
 30
0.0
 11
0.4972076905949621
 21
11.826520277942111
 31
0.0
  0
LINE
  5
2B8A7
  8
FRAME_050
 10
6.5744546621590407
 20
17.993710579095019
 30
0.0
 11
6.5744546621590407
 21
0.0000000294007805
 31
0.0
  0
ENDBLK
  5
2B8A9
  8
0
  0
BLOCK
  8
0
  2
A$C06786640
 70
     0
 10
0.0
 20
0.0
 30
0.0
  3
A$C06786640
  1

  0
LINE
  5
30DBD
  8
0
  6
CONTINUOUS
 10
6.9421460747584538
 20
5.3373952998996401
 30
0.0
 11
7.6921460747585684
 21
5.3373952998996401
 31
0.0
  0
INSERT
  5
30DBE
  8
0
  2
*U101
 10
0.0
 20
0.0
 30
0.0
  0
ARC
  5
30DBF
  8
0
 10
7.6921460747584538
 20
1.3373952998996399
 30
0.0
 40
0.4375
 50
90.0
 51
180.0
  0
LINE
  5
30DC0
  8
0
  6
CONTINUOUS
 10
6.9421460747584538
 20
1.3373952998996399
 30
0.0
 11
7.2546460747584538
 21
1.3373952998996399
 31
0.0
  0
LINE
  5
30DC1
  8
0
  6
CONTINUOUS
 10
6.9421460747584538
 20
5.3373952998996401
 30
0.0
 11
6.9421460747584538
 21
1.3373952998996399
 31
0.0
  0
LINE
  5
30DC2
  8
0
  6
CONTINUOUS
 10
7.6921460747585684
 20
5.3373952998996401
 30
0.0
 11
7.6921460747584538
 21
1.7748952998996399
 31
0.0
  0
LINE
  5
30DC3
  8
FRAME_050
 10
13.38021391661823
 20
10.43596704186257
 30
0.0
 11
13.38021391661823
 21
-7.557743507831673
 31
0.0
  0
ENDBLK
  5
30DC5
  8
0
  0
BLOCK
  8
0
  2
A$C006841A6
 70
     0
 10
0.0
 20
0.0
 30
0.0
  3
A$C006841A6
  1

  0
INSERT
  5
34022
  8
0
  2
*U162
 10
0.0
 20
0.0
 30
0.0
  0
LINE
  5
34023
  8
0
 10
-0.0000012266760336
 20
0.7057871426268321
 30
0.0
 11
2.5393763673180838
 21
3.3106501187010049
 31
0.0
  0
LINE
  5
34024
  8
0
 10
3.4634478700036189
 20
3.012327822558404
 30
0.0
 11
3.478000177132571
 21
3.3106501187010049
 31
0.0
  0
LINE
  5
34025
  8
0
 10
1.701702382336975
 20
1.129493727227213
 30
0.0
 11
1.7292664227074961
 21
1.297540905015353
 31
0.0
  0
LINE
  5
34026
  8
0
 10
0.6694049012536425
 20
0.3638079250974897
 30
0.0
 11
0.6894674062073705
 21
0.4758716487958737
 31
0.0
  0
LINE
  5
34027
  8
0
 10
-0.0000012266760336
 20
0.7057871426268321
 30
0.0
 11
-0.0000012266760336
 21
0.0000002468748335
 31
0.0
  0
LINE
  5
34028
  8
0
 10
3.478000177132571
 20
3.3106501187010049
 30
0.0
 11
2.5393763673180838
 21
3.3106501187010049
 31
0.0
  0
LINE
  5
34029
  8
0
 10
3.354305566536822
 20
3.0123278225585182
 30
0.0
 11
3.4634478700036189
 21
3.012327822558404
 31
0.0
  0
LINE
  5
3402A
  8
0
 10
2.7940417420739432
 20
2.5321016873045892
 30
0.0
 11
2.859527124153999
 21
2.6121393765134822
 31
0.0
  0
LINE
  5
3402B
  8
0
 10
1.7292664227074961
 20
1.297540905015353
 30
0.0
 11
1.7845876698514751
 21
1.297540905015353
 31
0.0
  0
LINE
  5
3402C
  8
0
 10
1.5789240968102829
 20
1.1496325100583811
 30
0.0
 11
1.701702382336975
 21
1.129493727227213
 31
0.0
  0
LINE
  5
3402D
  8
0
 10
-0.0000012266760336
 20
0.0000002468748335
 30
0.0
 11
0.2910449159020913
 21
0.0000002468748335
 31
0.0
  0
POLYLINE
  8
0
  5
3638A
  66
     1
 10
0.000000
 20
0.000000
 30
0.000000
  70
     8
  0
VERTEX
  8
0
  5
3638B
 10
1.78459
 20
1.29754
 30
0.000000
  70
    32
  0
VERTEX
  8
0
  5
3638C
 10
1.78417
 20
1.30428
 30
0.000000
  70
    32
  0
VERTEX
  8
0
  5
3638D
 10
1.78375
 20
1.31103
 30
0.000000
  70
    32
  0
VERTEX
  8
0
  5
3638E
 10
1.78333
 20
1.31777
 30
0.000000
  70
    32
  0
VERTEX
  8
0
  5
3638F
 10
1.78291
 20
1.32451
 30
0.000000
  70
    32
  0
VERTEX
  8
0
  5
36390
 10
1.78250
 20
1.33126
 30
0.000000
  70
    32
  0
VERTEX
  8
0
  5
36391
 10
1.78209
 20
1.33800
 30
0.000000
  70
    32
  0
VERTEX
  8
0
  5
36392
 10
1.78168
 20
1.34474
 30
0.000000
  70
    32
  0
VERTEX
  8
0
  5
36393
 10
1.78128
 20
1.35149
 30
0.000000
  70
    32
  0
VERTEX
  8
0
  5
36394
 10
1.78088
 20
1.35823
 30
0.000000
  70
    32
  0
VERTEX
  8
0
  5
36395
 10
1.78049
 20
1.36497
 30
0.000000
  70
    32
  0
VERTEX
  8
0
  5
36396
 10
1.78011
 20
1.37171
 30
0.000000
  70
    32
  0
VERTEX
  8
0
  5
36397
 10
1.77973
 20
1.37846
 30
0.000000
  70
    32
  0
VERTEX
  8
0
  5
36398
 10
1.77936
 20
1.38520
 30
0.000000
  70
    32
  0
VERTEX
  8
0
  5
36399
 10
1.77900
 20
1.39194
 30
0.000000
  70
    32
  0
VERTEX
  8
0
  5
3639A
 10
1.77865
 20
1.39868
 30
0.000000
  70
    32
  0
VERTEX
  8
0
  5
3639B
 10
1.77831
 20
1.40542
 30
0.000000
  70
    32
  0
VERTEX
  8
0
  5
3639C
 10
1.77798
 20
1.41217
 30
0.000000
  70
    32
  0
VERTEX
  8
0
  5
3639D
 10
1.77766
 20
1.41891
 30
0.000000
  70
    32
  0
VERTEX
  8
0
  5
3639E
 10
1.77736
 20
1.42565
 30
0.000000
  70
    32
  0
VERTEX
  8
0
  5
3639F
 10
1.77706
 20
1.43239
 30
0.000000
  70
    32
  0
VERTEX
  8
0
  5
363A0
 10
1.77679
 20
1.43913
 30
0.000000
  70
    32
  0
VERTEX
  8
0
  5
363A1
 10
1.77652
 20
1.44587
 30
0.000000
  70
    32
  0
VERTEX
  8
0
  5
363A2
 10
1.77627
 20
1.45261
 30
0.000000
  70
    32
  0
VERTEX
  8
0
  5
363A3
 10
1.77603
 20
1.45935
 30
0.000000
  70
    32
  0
VERTEX
  8
0
  5
363A4
 10
1.77582
 20
1.46609
 30
0.000000
  70
    32
  0
VERTEX
  8
0
  5
363A5
 10
1.77561
 20
1.47282
 30
0.000000
  70
    32
  0
VERTEX
  8
0
  5
363A6
 10
1.77543
 20
1.47956
 30
0.000000
  70
    32
  0
VERTEX
  8
0
  5
363A7
 10
1.77526
 20
1.48630
 30
0.000000
  70
    32
  0
VERTEX
  8
0
  5
363A8
 10
1.77512
 20
1.49304
 30
0.000000
  70
    32
  0
VERTEX
  8
0
  5
363A9
 10
1.77499
 20
1.49977
 30
0.000000
  70
    32
  0
VERTEX
  8
0
  5
363AA
 10
1.77488
 20
1.50651
 30
0.000000
  70
    32
  0
VERTEX
  8
0
  5
363AB
 10
1.77479
 20
1.51325
 30
0.000000
  70
    32
  0
VERTEX
  8
0
  5
363AC
 10
1.77473
 20
1.51998
 30
0.000000
  70
    32
  0
VERTEX
  8
0
  5
363AD
 10
1.77469
 20
1.52672
 30
0.000000
  70
    32
  0
VERTEX
  8
0
  5
363AE
 10
1.77467
 20
1.53345
 30
0.000000
  70
    32
  0
VERTEX
  8
0
  5
363AF
 10
1.77467
 20
1.54019
 30
0.000000
  70
    32
  0
VERTEX
  8
0
  5
363B0
 10
1.77470
 20
1.54692
 30
0.000000
  70
    32
  0
VERTEX
  8
0
  5
363B1
 10
1.77475
 20
1.55365
 30
0.000000
  70
    32
  0
VERTEX
  8
0
  5
363B2
 10
1.77483
 20
1.56039
 30
0.000000
  70
    32
  0
VERTEX
  8
0
  5
363B3
 10
1.77493
 20
1.56712
 30
0.000000
  70
    32
  0
VERTEX
  8
0
  5
363B4
 10
1.77506
 20
1.57385
 30
0.000000
  70
    32
  0
VERTEX
  8
0
  5
363B5
 10
1.77522
 20
1.58058
 30
0.000000
  70
    32
  0
VERTEX
  8
0
  5
363B6
 10
1.77541
 20
1.58731
 30
0.000000
  70
    32
  0
VERTEX
  8
0
  5
363B7
 10
1.77563
 20
1.59404
 30
0.000000
  70
    32
  0
VERTEX
  8
0
  5
363B8
 10
1.77587
 20
1.60077
 30
0.000000
  70
    32
  0
VERTEX
  8
0
  5
363B9
 10
1.77615
 20
1.60749
 30
0.000000
  70
    32
  0
VERTEX
  8
0
  5
363BA
 10
1.77646
 20
1.61422
 30
0.000000
  70
    32
  0
VERTEX
  8
0
  5
363BB
 10
1.77680
 20
1.62095
 30
0.000000
  70
    32
  0
VERTEX
  8
0
  5
363BC
 10
1.77717
 20
1.62767
 30
0.000000
  70
    32
  0
VERTEX
  8
0
  5
363BD
 10
1.77757
 20
1.63440
 30
0.000000
  70
    32
  0
VERTEX
  8
0
  5
363BE
 10
1.77801
 20
1.64112
 30
0.000000
  70
    32
  0
VERTEX
  8
0
  5
363BF
 10
1.77848
 20
1.64785
 30
0.000000
  70
    32
  0
VERTEX
  8
0
  5
363C0
 10
1.77899
 20
1.65457
 30
0.000000
  70
    32
  0
VERTEX
  8
0
  5
363C1
 10
1.77953
 20
1.66129
 30
0.000000
  70
    32
  0
VERTEX
  8
0
  5
363C2
 10
1.78011
 20
1.66801
 30
0.000000
  70
    32
  0
VERTEX
  8
0
  5
363C3
 10
1.78073
 20
1.67473
 30
0.000000
  70
    32
  0
VERTEX
  8
0
  5
363C4
 10
1.78138
 20
1.68145
 30
0.000000
  70
    32
  0
VERTEX
  8
0
  5
363C5
 10
1.78208
 20
1.68817
 30
0.000000
  70
    32
  0
VERTEX
  8
0
  5
363C6
 10
1.78281
 20
1.69489
 30
0.000000
  70
    32
  0
VERTEX
  8
0
  5
363C7
 10
1.78358
 20
1.70161
 30
0.000000
  70
    32
  0
VERTEX
  8
0
  5
363C8
 10
1.78439
 20
1.70832
 30
0.000000
  70
    32
  0
VERTEX
  8
0
  5
363C9
 10
1.78524
 20
1.71504
 30
0.000000
  70
    32
  0
VERTEX
  8
0
  5
363CA
 10
1.78614
 20
1.72175
 30
0.000000
  70
    32
  0
VERTEX
  8
0
  5
363CB
 10
1.78707
 20
1.72847
 30
0.000000
  70
    32
  0
VERTEX
  8
0
  5
363CC
 10
1.78805
 20
1.73518
 30
0.000000
  70
    32
  0
VERTEX
  8
0
  5
363CD
 10
1.78907
 20
1.74189
 30
0.000000
  70
    32
  0
VERTEX
  8
0
  5
363CE
 10
1.79013
 20
1.74859
 30
0.000000
  70
    32
  0
VERTEX
  8
0
  5
363CF
 10
1.79122
 20
1.75530
 30
0.000000
  70
    32
  0
VERTEX
  8
0
  5
363D0
 10
1.79236
 20
1.76200
 30
0.000000
  70
    32
  0
VERTEX
  8
0
  5
363D1
 10
1.79354
 20
1.76869
 30
0.000000
  70
    32
  0
VERTEX
  8
0
  5
363D2
 10
1.79476
 20
1.77539
 30
0.000000
  70
    32
  0
VERTEX
  8
0
  5
363D3
 10
1.79603
 20
1.78208
 30
0.000000
  70
    32
  0
VERTEX
  8
0
  5
363D4
 10
1.79733
 20
1.78876
 30
0.000000
  70
    32
  0
VERTEX
  8
0
  5
363D5
 10
1.79867
 20
1.79544
 30
0.000000
  70
    32
  0
VERTEX
  8
0
  5
363D6
 10
1.80005
 20
1.80212
 30
0.000000
  70
    32
  0
VERTEX
  8
0
  5
363D7
 10
1.80147
 20
1.80879
 30
0.000000
  70
    32
  0
VERTEX
  8
0
  5
363D8
 10
1.80293
 20
1.81545
 30
0.000000
  70
    32
  0
VERTEX
  8
0
  5
363D9
 10
1.80443
 20
1.82211
 30
0.000000
  70
    32
  0
VERTEX
  8
0
  5
363DA
 10
1.80597
 20
1.82876
 30
0.000000
  70
    32
  0
VERTEX
  8
0
  5
363DB
 10
1.80755
 20
1.83541
 30
0.000000
  70
    32
  0
VERTEX
  8
0
  5
363DC
 10
1.80917
 20
1.84204
 30
0.000000
  70
    32
  0
VERTEX
  8
0
  5
363DD
 10
1.81083
 20
1.84868
 30
0.000000
  70
    32
  0
VERTEX
  8
0
  5
363DE
 10
1.81253
 20
1.85530
 30
0.000000
  70
    32
  0
VERTEX
  8
0
  5
363DF
 10
1.81427
 20
1.86192
 30
0.000000
  70
    32
  0
VERTEX
  8
0
  5
363E0
 10
1.81604
 20
1.86852
 30
0.000000
  70
    32
  0
VERTEX
  8
0
  5
363E1
 10
1.81786
 20
1.87512
 30
0.000000
  70
    32
  0
VERTEX
  8
0
  5
363E2
 10
1.81971
 20
1.88171
 30
0.000000
  70
    32
  0
VERTEX
  8
0
  5
363E3
 10
1.82161
 20
1.88829
 30
0.000000
  70
    32
  0
VERTEX
  8
0
  5
363E4
 10
1.82354
 20
1.89487
 30
0.000000
  70
    32
  0
VERTEX
  8
0
  5
363E5
 10
1.82551
 20
1.90143
 30
0.000000
  70
    32
  0
VERTEX
  8
0
  5
363E6
 10
1.82752
 20
1.90798
 30
0.000000
  70
    32
  0
VERTEX
  8
0
  5
363E7
 10
1.82957
 20
1.91452
 30
0.000000
  70
    32
  0
VERTEX
  8
0
  5
363E8
 10
1.83165
 20
1.92105
 30
0.000000
  70
    32
  0
VERTEX
  8
0
  5
363E9
 10
1.83378
 20
1.92757
 30
0.000000
  70
    32
  0
VERTEX
  8
0
  5
363EA
 10
1.83594
 20
1.93408
 30
0.000000
  70
    32
  0
VERTEX
  8
0
  5
363EB
 10
1.83814
 20
1.94058
 30
0.000000
  70
    32
  0
VERTEX
  8
0
  5
363EC
 10
1.84038
 20
1.94706
 30
0.000000
  70
    32
  0
VERTEX
  8
0
  5
363ED
 10
1.84266
 20
1.95353
 30
0.000000
  70
    32
  0
VERTEX
  8
0
  5
363EE
 10
1.84497
 20
1.95999
 30
0.000000
  70
    32
  0
VERTEX
  8
0
  5
363EF
 10
1.84733
 20
1.96644
 30
0.000000
  70
    32
  0
VERTEX
  8
0
  5
363F0
 10
1.84972
 20
1.97287
 30
0.000000
  70
    32
  0
VERTEX
  8
0
  5
363F1
 10
1.85214
 20
1.97929
 30
0.000000
  70
    32
  0
VERTEX
  8
0
  5
363F2
 10
1.85461
 20
1.98570
 30
0.000000
  70
    32
  0
VERTEX
  8
0
  5
363F3
 10
1.85711
 20
1.99209
 30
0.000000
  70
    32
  0
VERTEX
  8
0
  5
363F4
 10
1.85965
 20
1.99846
 30
0.000000
  70
    32
  0
VERTEX
  8
0
  5
363F5
 10
1.86223
 20
2.00483
 30
0.000000
  70
    32
  0
VERTEX
  8
0
  5
363F6
 10
1.86484
 20
2.01117
 30
0.000000
  70
    32
  0
VERTEX
  8
0
  5
363F7
 10
1.86749
 20
2.01750
 30
0.000000
  70
    32
  0
VERTEX
  8
0
  5
363F8
 10
1.87018
 20
2.02382
 30
0.000000
  70
    32
  0
VERTEX
  8
0
  5
363F9
 10
1.87290
 20
2.03012
 30
0.000000
  70
    32
  0
VERTEX
  8
0
  5
363FA
 10
1.87566
 20
2.03640
 30
0.000000
  70
    32
  0
VERTEX
  8
0
  5
363FB
 10
1.87846
 20
2.04266
 30
0.000000
  70
    32
  0
VERTEX
  8
0
  5
363FC
 10
1.88130
 20
2.04891
 30
0.000000
  70
    32
  0
VERTEX
  8
0
  5
363FD
 10
1.88417
 20
2.05514
 30
0.000000
  70
    32
  0
VERTEX
  8
0
  5
363FE
 10
1.88707
 20
2.06136
 30
0.000000
  70
    32
  0
VERTEX
  8
0
  5
363FF
 10
1.89002
 20
2.06755
 30
0.000000
  70
    32
  0
VERTEX
  8
0
  5
36400
 10
1.89300
 20
2.07373
 30
0.000000
  70
    32
  0
VERTEX
  8
0
  5
36401
 10
1.89601
 20
2.07989
 30
0.000000
  70
    32
  0
VERTEX
  8
0
  5
36402
 10
1.89906
 20
2.08602
 30
0.000000
  70
    32
  0
VERTEX
  8
0
  5
36403
 10
1.90215
 20
2.09214
 30
0.000000
  70
    32
  0
VERTEX
  8
0
  5
36404
 10
1.90527
 20
2.09824
 30
0.000000
  70
    32
  0
VERTEX
  8
0
  5
36405
 10
1.90843
 20
2.10432
 30
0.000000
  70
    32
  0
VERTEX
  8
0
  5
36406
 10
1.91163
 20
2.11038
 30
0.000000
  70
    32
  0
VERTEX
  8
0
  5
36407
 10
1.91486
 20
2.11642
 30
0.000000
  70
    32
  0
VERTEX
  8
0
  5
36408
 10
1.91812
 20
2.12244
 30
0.000000
  70
    32
  0
VERTEX
  8
0
  5
36409
 10
1.92142
 20
2.12843
 30
0.000000
  70
    32
  0
VERTEX
  8
0
  5
3640A
 10
1.92476
 20
2.13441
 30
0.000000
  70
    32
  0
VERTEX
  8
0
  5
3640B
 10
1.92813
 20
2.14036
 30
0.000000
  70
    32
  0
VERTEX
  8
0
  5
3640C
 10
1.93154
 20
2.14629
 30
0.000000
  70
    32
  0
VERTEX
  8
0
  5
3640D
 10
1.93498
 20
2.15220
 30
0.000000
  70
    32
  0
VERTEX
  8
0
  5
3640E
 10
1.93845
 20
2.15808
 30
0.000000
  70
    32
  0
VERTEX
  8
0
  5
3640F
 10
1.94196
 20
2.16395
 30
0.000000
  70
    32
  0
VERTEX
  8
0
  5
36410
 10
1.94551
 20
2.16978
 30
0.000000
  70
    32
  0
VERTEX
  8
0
  5
36411
 10
1.94909
 20
2.17560
 30
0.000000
  70
    32
  0
VERTEX
  8
0
  5
36412
 10
1.95270
 20
2.18139
 30
0.000000
  70
    32
  0
VERTEX
  8
0
  5
36413
 10
1.95635
 20
2.18715
 30
0.000000
  70
    32
  0
VERTEX
  8
0
  5
36414
 10
1.96003
 20
2.19289
 30
0.000000
  70
    32
  0
VERTEX
  8
0
  5
36415
 10
1.96375
 20
2.19861
 30
0.000000
  70
    32
  0
VERTEX
  8
0
  5
36416
 10
1.96750
 20
2.20430
 30
0.000000
  70
    32
  0
VERTEX
  8
0
  5
36417
 10
1.97128
 20
2.20996
 30
0.000000
  70
    32
  0
VERTEX
  8
0
  5
36418
 10
1.97510
 20
2.21560
 30
0.000000
  70
    32
  0
VERTEX
  8
0
  5
36419
 10
1.97895
 20
2.22121
 30
0.000000
  70
    32
  0
VERTEX
  8
0
  5
3641A
 10
1.98284
 20
2.22680
 30
0.000000
  70
    32
  0
VERTEX
  8
0
  5
3641B
 10
1.98676
 20
2.23236
 30
0.000000
  70
    32
  0
VERTEX
  8
0
  5
3641C
 10
1.99071
 20
2.23789
 30
0.000000
  70
    32
  0
VERTEX
  8
0
  5
3641D
 10
1.99470
 20
2.24339
 30
0.000000
  70
    32
  0
VERTEX
  8
0
  5
3641E
 10
1.99872
 20
2.24886
 30
0.000000
  70
    32
  0
VERTEX
  8
0
  5
3641F
 10
2.00277
 20
2.25431
 30
0.000000
  70
    32
  0
VERTEX
  8
0
  5
36420
 10
2.00686
 20
2.25973
 30
0.000000
  70
    32
  0
VERTEX
  8
0
  5
36421
 10
2.01098
 20
2.26512
 30
0.000000
  70
    32
  0
VERTEX
  8
0
  5
36422
 10
2.01513
 20
2.27048
 30
0.000000
  70
    32
  0
VERTEX
  8
0
  5
36423
 10
2.01932
 20
2.27581
 30
0.000000
  70
    32
  0
VERTEX
  8
0
  5
36424
 10
2.02354
 20
2.28111
 30
0.000000
  70
    32
  0
VERTEX
  8
0
  5
36425
 10
2.02779
 20
2.28637
 30
0.000000
  70
    32
  0
VERTEX
  8
0
  5
36426
 10
2.03207
 20
2.29161
 30
0.000000
  70
    32
  0
VERTEX
  8
0
  5
36427
 10
2.03639
 20
2.29682
 30
0.000000
  70
    32
  0
VERTEX
  8
0
  5
36428
 10
2.04073
 20
2.30200
 30
0.000000
  70
    32
  0
VERTEX
  8
0
  5
36429
 10
2.04511
 20
2.30714
 30
0.000000
  70
    32
  0
VERTEX
  8
0
  5
3642A
 10
2.04953
 20
2.31226
 30
0.000000
  70
    32
  0
VERTEX
  8
0
  5
3642B
 10
2.05397
 20
2.31734
 30
0.000000
  70
    32
  0
VERTEX
  8
0
  5
3642C
 10
2.05845
 20
2.32239
 30
0.000000
  70
    32
  0
VERTEX
  8
0
  5
3642D
 10
2.06296
 20
2.32741
 30
0.000000
  70
    32
  0
VERTEX
  8
0
  5
3642E
 10
2.06749
 20
2.33240
 30
0.000000
  70
    32
  0
VERTEX
  8
0
  5
3642F
 10
2.07206
 20
2.33735
 30
0.000000
  70
    32
  0
VERTEX
  8
0
  5
36430
 10
2.07666
 20
2.34228
 30
0.000000
  70
    32
  0
VERTEX
  8
0
  5
36431
 10
2.08129
 20
2.34717
 30
0.000000
  70
    32
  0
VERTEX
  8
0
  5
36432
 10
2.08595
 20
2.35204
 30
0.000000
  70
    32
  0
VERTEX
  8
0
  5
36433
 10
2.09065
 20
2.35688
 30
0.000000
  70
    32
  0
VERTEX
  8
0
  5
36434
 10
2.09537
 20
2.36168
 30
0.000000
  70
    32
  0
VERTEX
  8
0
  5
36435
 10
2.10011
 20
2.36646
 30
0.000000
  70
    32
  0
VERTEX
  8
0
  5
36436
 10
2.10489
 20
2.37120
 30
0.000000
  70
    32
  0
VERTEX
  8
0
  5
36437
 10
2.10970
 20
2.37592
 30
0.000000
  70
    32
  0
VERTEX
  8
0
  5
36438
 10
2.11454
 20
2.38060
 30
0.000000
  70
    32
  0
VERTEX
  8
0
  5
36439
 10
2.11940
 20
2.38526
 30
0.000000
  70
    32
  0
VERTEX
  8
0
  5
3643A
 10
2.12429
 20
2.38989
 30
0.000000
  70
    32
  0
VERTEX
  8
0
  5
3643B
 10
2.12921
 20
2.39449
 30
0.000000
  70
    32
  0
VERTEX
  8
0
  5
3643C
 10
2.13416
 20
2.39906
 30
0.000000
  70
    32
  0
VERTEX
  8
0
  5
3643D
 10
2.13913
 20
2.40360
 30
0.000000
  70
    32
  0
VERTEX
  8
0
  5
3643E
 10
2.14413
 20
2.40812
 30
0.000000
  70
    32
  0
VERTEX
  8
0
  5
3643F
 10
2.14916
 20
2.41260
 30
0.000000
  70
    32
  0
VERTEX
  8
0
  5
36440
 10
2.15421
 20
2.41706
 30
0.000000
  70
    32
  0
VERTEX
  8
0
  5
36441
 10
2.15929
 20
2.42149
 30
0.000000
  70
    32
  0
VERTEX
  8
0
  5
36442
 10
2.16440
 20
2.42590
 30
0.000000
  70
    32
  0
VERTEX
  8
0
  5
36443
 10
2.16953
 20
2.43027
 30
0.000000
  70
    32
  0
VERTEX
  8
0
  5
36444
 10
2.17468
 20
2.43462
 30
0.000000
  70
    32
  0
VERTEX
  8
0
  5
36445
 10
2.17986
 20
2.43894
 30
0.000000
  70
    32
  0
VERTEX
  8
0
  5
36446
 10
2.18507
 20
2.44324
 30
0.000000
  70
    32
  0
VERTEX
  8
0
  5
36447
 10
2.19030
 20
2.44751
 30
0.000000
  70
    32
  0
VERTEX
  8
0
  5
36448
 10
2.19555
 20
2.45175
 30
0.000000
  70
    32
  0
VERTEX
  8
0
  5
36449
 10
2.20083
 20
2.45596
 30
0.000000
  70
    32
  0
VERTEX
  8
0
  5
3644A
 10
2.20613
 20
2.46015
 30
0.000000
  70
    32
  0
VERTEX
  8
0
  5
3644B
 10
2.21146
 20
2.46432
 30
0.000000
  70
    32
  0
VERTEX
  8
0
  5
3644C
 10
2.21681
 20
2.46845
 30
0.000000
  70
    32
  0
VERTEX
  8
0
  5
3644D
 10
2.22218
 20
2.47257
 30
0.000000
  70
    32
  0
VERTEX
  8
0
  5
3644E
 10
2.22757
 20
2.47665
 30
0.000000
  70
    32
  0
VERTEX
  8
0
  5
3644F
 10
2.23299
 20
2.48071
 30
0.000000
  70
    32
  0
VERTEX
  8
0
  5
36450
 10
2.23843
 20
2.48475
 30
0.000000
  70
    32
  0
VERTEX
  8
0
  5
36451
 10
2.24389
 20
2.48876
 30
0.000000
  70
    32
  0
VERTEX
  8
0
  5
36452
 10
2.24937
 20
2.49275
 30
0.000000
  70
    32
  0
VERTEX
  8
0
  5
36453
 10
2.25488
 20
2.49671
 30
0.000000
  70
    32
  0
VERTEX
  8
0
  5
36454
 10
2.26040
 20
2.50065
 30
0.000000
  70
    32
  0
VERTEX
  8
0
  5
36455
 10
2.26594
 20
2.50456
 30
0.000000
  70
    32
  0
VERTEX
  8
0
  5
36456
 10
2.27151
 20
2.50845
 30
0.000000
  70
    32
  0
VERTEX
  8
0
  5
36457
 10
2.27710
 20
2.51232
 30
0.000000
  70
    32
  0
VERTEX
  8
0
  5
36458
 10
2.28270
 20
2.51616
 30
0.000000
  70
    32
  0
VERTEX
  8
0
  5
36459
 10
2.28833
 20
2.51998
 30
0.000000
  70
    32
  0
VERTEX
  8
0
  5
3645A
 10
2.29397
 20
2.52378
 30
0.000000
  70
    32
  0
VERTEX
  8
0
  5
3645B
 10
2.29963
 20
2.52755
 30
0.000000
  70
    32
  0
VERTEX
  8
0
  5
3645C
 10
2.30532
 20
2.53130
 30
0.000000
  70
    32
  0
VERTEX
  8
0
  5
3645D
 10
2.31102
 20
2.53503
 30
0.000000
  70
    32
  0
VERTEX
  8
0
  5
3645E
 10
2.31674
 20
2.53873
 30
0.000000
  70
    32
  0
VERTEX
  8
0
  5
3645F
 10
2.32248
 20
2.54240
 30
0.000000
  70
    32
  0
VERTEX
  8
0
  5
36460
 10
2.32824
 20
2.54603
 30
0.000000
  70
    32
  0
VERTEX
  8
0
  5
36461
 10
2.33403
 20
2.54963
 30
0.000000
  70
    32
  0
VERTEX
  8
0
  5
36462
 10
2.33983
 20
2.55319
 30
0.000000
  70
    32
  0
VERTEX
  8
0
  5
36463
 10
2.34567
 20
2.55670
 30
0.000000
  70
    32
  0
VERTEX
  8
0
  5
36464
 10
2.35152
 20
2.56016
 30
0.000000
  70
    32
  0
VERTEX
  8
0
  5
36465
 10
2.35741
 20
2.56357
 30
0.000000
  70
    32
  0
VERTEX
  8
0
  5
36466
 10
2.36332
 20
2.56691
 30
0.000000
  70
    32
  0
VERTEX
  8
0
  5
36467
 10
2.36925
 20
2.57020
 30
0.000000
  70
    32
  0
VERTEX
  8
0
  5
36468
 10
2.37522
 20
2.57341
 30
0.000000
  70
    32
  0
VERTEX
  8
0
  5
36469
 10
2.38122
 20
2.57656
 30
0.000000
  70
    32
  0
VERTEX
  8
0
  5
3646A
 10
2.38725
 20
2.57963
 30
0.000000
  70
    32
  0
VERTEX
  8
0
  5
3646B
 10
2.39331
 20
2.58263
 30
0.000000
  70
    32
  0
VERTEX
  8
0
  5
3646C
 10
2.39940
 20
2.58554
 30
0.000000
  70
    32
  0
VERTEX
  8
0
  5
3646D
 10
2.40553
 20
2.58836
 30
0.000000
  70
    32
  0
VERTEX
  8
0
  5
3646E
 10
2.41169
 20
2.59109
 30
0.000000
  70
    32
  0
VERTEX
  8
0
  5
3646F
 10
2.41789
 20
2.59373
 30
0.000000
  70
    32
  0
VERTEX
  8
0
  5
36470
 10
2.42413
 20
2.59627
 30
0.000000
  70
    32
  0
VERTEX
  8
0
  5
36471
 10
2.43040
 20
2.59870
 30
0.000000
  70
    32
  0
VERTEX
  8
0
  5
36472
 10
2.43671
 20
2.60103
 30
0.000000
  70
    32
  0
VERTEX
  8
0
  5
36473
 10
2.44306
 20
2.60324
 30
0.000000
  70
    32
  0
VERTEX
  8
0
  5
36474
 10
2.44946
 20
2.60534
 30
0.000000
  70
    32
  0
VERTEX
  8
0
  5
36475
 10
2.45589
 20
2.60732
 30
0.000000
  70
    32
  0
VERTEX
  8
0
  5
36476
 10
2.46237
 20
2.60918
 30
0.000000
  70
    32
  0
VERTEX
  8
0
  5
36477
 10
2.46889
 20
2.61091
 30
0.000000
  70
    32
  0
VERTEX
  8
0
  5
36478
 10
2.47546
 20
2.61251
 30
0.000000
  70
    32
  0
VERTEX
  8
0
  5
36479
 10
2.48207
 20
2.61397
 30
0.000000
  70
    32
  0
VERTEX
  8
0
  5
3647A
 10
2.48872
 20
2.61530
 30
0.000000
  70
    32
  0
VERTEX
  8
0
  5
3647B
 10
2.49540
 20
2.61649
 30
0.000000
  70
    32
  0
VERTEX
  8
0
  5
3647C
 10
2.50212
 20
2.61754
 30
0.000000
  70
    32
  0
VERTEX
  8
0
  5
3647D
 10
2.50887
 20
2.61846
 30
0.000000
  70
    32
  0
VERTEX
  8
0
  5
3647E
 10
2.51564
 20
2.61924
 30
0.000000
  70
    32
  0
VERTEX
  8
0
  5
3647F
 10
2.52243
 20
2.61989
 30
0.000000
  70
    32
  0
VERTEX
  8
0
  5
36480
 10
2.52923
 20
2.62039
 30
0.000000
  70
    32
  0
VERTEX
  8
0
  5
36481
 10
2.53605
 20
2.62076
 30
0.000000
  70
    32
  0
VERTEX
  8
0
  5
36482
 10
2.54287
 20
2.62099
 30
0.000000
  70
    32
  0
VERTEX
  8
0
  5
36483
 10
2.54969
 20
2.62108
 30
0.000000
  70
    32
  0
VERTEX
  8
0
  5
36484
 10
2.55651
 20
2.62104
 30
0.000000
  70
    32
  0
VERTEX
  8
0
  5
36485
 10
2.56333
 20
2.62085
 30
0.000000
  70
    32
  0
VERTEX
  8
0
  5
36486
 10
2.57014
 20
2.62052
 30
0.000000
  70
    32
  0
VERTEX
  8
0
  5
36487
 10
2.57693
 20
2.62006
 30
0.000000
  70
    32
  0
VERTEX
  8
0
  5
36488
 10
2.58370
 20
2.61945
 30
0.000000
  70
    32
  0
VERTEX
  8
0
  5
36489
 10
2.59046
 20
2.61870
 30
0.000000
  70
    32
  0
VERTEX
  8
0
  5
3648A
 10
2.59718
 20
2.61782
 30
0.000000
  70
    32
  0
VERTEX
  8
0
  5
3648B
 10
2.60388
 20
2.61679
 30
0.000000
  70
    32
  0
VERTEX
  8
0
  5
3648C
 10
2.61053
 20
2.61562
 30
0.000000
  70
    32
  0
VERTEX
  8
0
  5
3648D
 10
2.61715
 20
2.61430
 30
0.000000
  70
    32
  0
VERTEX
  8
0
  5
3648E
 10
2.62373
 20
2.61285
 30
0.000000
  70
    32
  0
VERTEX
  8
0
  5
3648F
 10
2.63026
 20
2.61125
 30
0.000000
  70
    32
  0
VERTEX
  8
0
  5
36490
 10
2.63674
 20
2.60951
 30
0.000000
  70
    32
  0
VERTEX
  8
0
  5
36491
 10
2.64317
 20
2.60763
 30
0.000000
  70
    32
  0
VERTEX
  8
0
  5
36492
 10
2.64956
 20
2.60563
 30
0.000000
  70
    32
  0
VERTEX
  8
0
  5
36493
 10
2.65590
 20
2.60350
 30
0.000000
  70
    32
  0
VERTEX
  8
0
  5
36494
 10
2.66221
 20
2.60125
 30
0.000000
  70
    32
  0
VERTEX
  8
0
  5
36495
 10
2.66847
 20
2.59889
 30
0.000000
  70
    32
  0
VERTEX
  8
0
  5
36496
 10
2.67470
 20
2.59642
 30
0.000000
  70
    32
  0
VERTEX
  8
0
  5
36497
 10
2.68089
 20
2.59385
 30
0.000000
  70
    32
  0
VERTEX
  8
0
  5
36498
 10
2.68704
 20
2.59117
 30
0.000000
  70
    32
  0
VERTEX
  8
0
  5
36499
 10
2.69316
 20
2.58841
 30
0.000000
  70
    32
  0
VERTEX
  8
0
  5
3649A
 10
2.69926
 20
2.58555
 30
0.000000
  70
    32
  0
VERTEX
  8
0
  5
3649B
 10
2.70532
 20
2.58261
 30
0.000000
  70
    32
  0
VERTEX
  8
0
  5
3649C
 10
2.71136
 20
2.57960
 30
0.000000
  70
    32
  0
VERTEX
  8
0
  5
3649D
 10
2.71737
 20
2.57651
 30
0.000000
  70
    32
  0
VERTEX
  8
0
  5
3649E
 10
2.72336
 20
2.57335
 30
0.000000
  70
    32
  0
VERTEX
  8
0
  5
3649F
 10
2.72932
 20
2.57013
 30
0.000000
  70
    32
  0
VERTEX
  8
0
  5
364A0
 10
2.73527
 20
2.56686
 30
0.000000
  70
    32
  0
VERTEX
  8
0
  5
364A1
 10
2.74120
 20
2.56353
 30
0.000000
  70
    32
  0
VERTEX
  8
0
  5
364A2
 10
2.74711
 20
2.56016
 30
0.000000
  70
    32
  0
VERTEX
  8
0
  5
364A3
 10
2.75301
 20
2.55674
 30
0.000000
  70
    32
  0
VERTEX
  8
0
  5
364A4
 10
2.75889
 20
2.55329
 30
0.000000
  70
    32
  0
VERTEX
  8
0
  5
364A5
 10
2.76477
 20
2.54980
 30
0.000000
  70
    32
  0
VERTEX
  8
0
  5
364A6
 10
2.77063
 20
2.54629
 30
0.000000
  70
    32
  0
VERTEX
  8
0
  5
364A7
 10
2.77649
 20
2.54276
 30
0.000000
  70
    32
  0
VERTEX
  8
0
  5
364A8
 10
2.78234
 20
2.53922
 30
0.000000
  70
    32
  0
VERTEX
  8
0
  5
364A9
 10
2.78819
 20
2.53566
 30
0.000000
  70
    32
  0
VERTEX
  8
0
  5
364AA
 10
2.79404
 20
2.53210
 30
0.000000
  70
    32
  0
SEQEND
  8
0
  5
364AB
  0
ARC
  5
3402F
  8
0
 10
3.0617125534294578
 20
2.868121924086608
 30
0.0
 40
0.3261993446855973
 50
231.69688545872461
 51
26.236608528874651
  0
ARC
  5
34030
  8
0
 10
0.6122563205008192
 20
0.0445914175862754
 30
0.0
 40
0.3242917497404281
 50
79.849998631994751
 51
187.90339593985709
  0
ARC
  5
34031
  8
0
 10
0.9549503586443962
 20
1.049380567529397
 30
0.0
 40
0.631976010542801
 50
245.1601149185781
 51
9.1275312838388327
  0
ENDBLK
  5
34033
  8
0
  0
BLOCK
  8
0
  2
*U69
 70
     1
 10
0.0
 20
0.0
 30
0.0
  3
*U69
  1

  0
TEXT
  5
35FD4
  8
0
 10
3.5177832928899071
 20
10.38601584255777
 30
0.0
 40
0.125
  1
Crown Moulding
  0
TEXT
  5
35FD5
  8
0
 10
3.5223876585106431
 20
10.17717091304435
 30
0.0
 40
0.125
  1
TL-AB509
  0
TEXT
  5
35FD6
  8
0
 10
3.5074661032582561
 20
9.9667059289606801
 30
0.0
 40
0.125
  1
1-5/16" x 7-9/16"
  0
TEXT
  5
35FD7
  8
0
 10
3.519403347460166
 20
9.7562409448770051
 30
0.0
 40
0.125
  1
800.66.TAGUE
  0
ENDBLK
  5
35FD9
  8
0
  0
BLOCK
  8
0
  2
*U70
 70
     1
 10
0.0
 20
0.0
 30
0.0
  3
*U70
  1

  0
TEXT
  5
35FDB
  8
0
 10
1.4086740032724709
 20
13.04264108713495
 30
0.0
 40
0.125
  1
Casing
  0
TEXT
  5
35FDC
  8
0
 10
1.4132783688932069
 20
12.83379615762154
 30
0.0
 40
0.125
  1
TL-2019
  0
TEXT
  5
35FDD
  8
0
 10
1.39835681364082
 20
12.62333117353786
 30
0.0
 40
0.125
  1
1-1/16" x 5-1/2"
  0
TEXT
  5
35FDE
  8
0
 10
1.4102940578427301
 20
12.41286618945419
 30
0.0
 40
0.125
  1
800.66.TAGUE
  0
ENDBLK
  5
35FE0
  8
0
  0
BLOCK
  8
0
  2
*U71
 70
     1
 10
0.0
 20
0.0
 30
0.0
  3
*U71
  1

  0
TEXT
  5
35FE2
  8
0
 10
1.9061884295105971
 20
11.78127341408482
 30
0.0
 40
0.125
  1
Casing
  0
TEXT
  5
35FE3
  8
0
 10
1.9107927951313339
 20
11.572428484571409
 30
0.0
 40
0.125
  1
TL-2318
  0
TEXT
  5
35FE4
  8
0
 10
1.8958712398789459
 20
11.361963500487731
 30
0.0
 40
0.125
  1
13/16" x 2-1/2"
  0
TEXT
  5
35FE5
  8
0
 10
1.907808484080856
 20
11.151498516404059
 30
0.0
 40
0.125
  1
800.66.TAGUE
  0
ENDBLK
  5
35FE7
  8
0
  0
BLOCK
  8
0
  2
*U72
 70
     1
 10
0.0
 20
0.0
 30
0.0
  3
*U72
  1

  0
TEXT
  5
35FE9
  8
0
 10
2.2380648505203782
 20
10.70752122569969
 30
0.0
 40
0.125
  1
Casing Assembly
  0
TEXT
  5
35FEA
  8
0
 10
2.242669216141115
 20
10.498676296186281
 30
0.0
 40
0.125
  1
TL-2225
  0
TEXT
  5
35FEB
  8
0
 10
2.2277476608887281
 20
10.2882113121026
 30
0.0
 40
0.125
  1
1-9/16" x 4-1/2"
  0
TEXT
  5
35FEC
  8
0
 10
2.239684905090638
 20
10.077746328018931
 30
0.0
 40
0.125
  1
800.66.TAGUE
  0
ENDBLK
  5
35FEE
  8
0
  0
BLOCK
  8
0
  2
*U73
 70
     1
 10
0.0
 20
0.0
 30
0.0
  3
*U73
  1

  0
TEXT
  5
35FF0
  8
0
 10
2.45740474597793
 20
2.5787099920155621
 30
0.0
 40
0.125
  1
Chair Rail
  0
TEXT
  5
35FF1
  8
0
 10
2.462009111598666
 20
2.3698650625021469
 30
0.0
 40
0.125
  1
TL-300
  0
TEXT
  5
35FF2
  8
0
 10
2.4470875563462791
 20
2.1594000784184728
 30
0.0
 40
0.125
  1
1-1/16" x 2-15/16"
  0
TEXT
  5
35FF3
  8
0
 10
2.4590248005481889
 20
1.9489350943347981
 30
0.0
 40
0.125
  1
800.66.TAGUE
  0
ENDBLK
  5
35FF5
  8
0
  0
BLOCK
  8
0
  2
*U74
 70
     1
 10
0.0
 20
0.0
 30
0.0
  3
*U74
  1

  0
TEXT
  5
35FF7
  8
0
 10
2.296373382618786
 20
2.154638056947094
 30
0.0
 40
0.125
  1
Chair Rail
  0
TEXT
  5
35FF8
  8
0
 10
2.3009777482395228
 20
1.945793127433679
 30
0.0
 40
0.125
  1
TL-384
  0
TEXT
  5
35FF9
  8
0
 10
2.2860561929871359
 20
1.7353281433500041
 30
0.0
 40
0.125
  1
1-1/8" x 2-3/4"
  0
TEXT
  5
35FFA
  8
0
 10
2.2979934371890458
 20
1.52486315926633
 30
0.0
 40
0.125
  1
800.66.TAGUE
  0
ENDBLK
  5
35FFC
  8
0
  0
BLOCK
  8
0
  2
*U75
 70
     1
 10
0.0
 20
0.0
 30
0.0
  3
*U75
  1

  0
TEXT
  5
35FFE
  8
0
 10
1.7903030854828661
 20
1.879104976913611
 30
0.0
 40
0.125
  1
Chair Rail
  0
TEXT
  5
35FFF
  8
0
 10
1.7949074511036021
 20
1.6702600474001961
 30
0.0
 40
0.125
  1
TL-390
  0
TEXT
  5
36000
  8
0
 10
1.7799858958512149
 20
1.4597950633165211
 30
0.0
 40
0.125
  1
11/16" x 2-9/16"
  0
TEXT
  5
36001
  8
0
 10
1.791923140053125
 20
1.249330079232847
 30
0.0
 40
0.125
  1
800.66.TAGUE
  0
ENDBLK
  5
36003
  8
0
  0
BLOCK
  8
0
  2
*U76
 70
     1
 10
0.0
 20
0.0
 30
0.0
  3
*U76
  1

  0
TEXT
  5
36005
  8
0
 10
1.7790082072096181
 20
2.7163812729427419
 30
0.0
 40
0.125
  1
Chair Rail
  0
TEXT
  5
36006
  8
0
 10
1.7836125728303549
 20
2.5075363434293272
 30
0.0
 40
0.125
  1
TL-391
  0
TEXT
  5
36007
  8
0
 10
1.780372463689837
 20
2.2970713593456522
 30
0.0
 40
0.125
  1
3/4" x 3-1/2"
  0
TEXT
  5
36008
  8
0
 10
1.7806282617798781
 20
2.0866063752619781
 30
0.0
 40
0.125
  1
800.66.TAGUE
  0
ENDBLK
  5
3600A
  8
0
  0
BLOCK
  8
0
  2
*U77
 70
     1
 10
0.0
 20
0.0
 30
0.0
  3
*U77
  1

  0
TEXT
  5
3600C
  8
0
 10
1.979493109854592
 20
1.3931549873730249
 30
0.0
 40
0.125
  1
Chair Rail
  0
TEXT
  5
3600D
  8
0
 10
1.984097475475328
 20
1.1843100578596091
 30
0.0
 40
0.125
  1
TL-393
  0
TEXT
  5
3600E
  8
0
 10
1.9691759202229411
 20
0.9738450737759357
 30
0.0
 40
0.125
  1
1-1/4" x 2-1/2"
  0
TEXT
  5
3600F
  8
0
 10
1.981113164424851
 20
0.7633800896922612
 30
0.0
 40
0.125
  1
800.66.TAGUE
  0
ENDBLK
  5
36011
  8
0
  0
BLOCK
  8
0
  2
*U78
 70
     1
 10
0.0
 20
0.0
 30
0.0
  3
*U78
  1

  0
TEXT
  5
36013
  8
0
 10
2.213601074382983
 20
2.6517246081325689
 30
0.0
 40
0.125
  1
Chair Rail
  0
TEXT
  5
36014
  8
0
 10
2.2182054400037199
 20
2.4428796786191538
 30
0.0
 40
0.125
  1
TL-538
  0
TEXT
  5
36015
  8
0
 10
2.2171822476435561
 20
2.2324146945354801
 30
0.0
 40
0.125
  1
27/32" x 3-1/4"
  0
TEXT
  5
36016
  8
0
 10
2.215221128953242
 20
2.021949710451806
 30
0.0
 40
0.125
  1
800.66.TAGUE
  0
ENDBLK
  5
36018
  8
0
  0
BLOCK
  8
0
  2
*U79
 70
     1
 10
0.0
 20
0.0
 30
0.0
  3
*U79
  1

  0
TEXT
  5
3601A
  8
0
 10
2.143641095436839
 20
2.3625917493022981
 30
0.0
 40
0.125
  1
Chair Rail
  0
TEXT
  5
3601B
  8
0
 10
2.148245461057575
 20
2.1537468197888829
 30
0.0
 40
0.125
  1
TL-2002
  0
TEXT
  5
3601C
  8
0
 10
2.1450053519170571
 20
1.943281835705208
 30
0.0
 40
0.125
  1
3/4" x 3"
  0
TEXT
  5
3601D
  8
0
 10
2.1452611500070979
 20
1.7328168516215341
 30
0.0
 40
0.125
  1
800.66.TAGUE
  0
ENDBLK
  5
3601F
  8
0
  0
BLOCK
  8
0
  2
*U80
 70
     1
 10
0.0
 20
0.0
 30
0.0
  3
*U80
  1

  0
TEXT
  5
36021
  8
0
 10
2.0814022841362081
 20
2.4827230287430821
 30
0.0
 40
0.125
  1
Chair Rail
  0
TEXT
  5
36022
  8
0
 10
2.0860066497569441
 20
2.273878099229667
 30
0.0
 40
0.125
  1
TL-2003
  0
TEXT
  5
36023
  8
0
 10
2.0818286142862759
 20
2.063413115145992
 30
0.0
 40
0.125
  1
7/8" x 3-13/16"
  0
TEXT
  5
36024
  8
0
 10
2.083022338706467
 20
1.8529481310623179
 30
0.0
 40
0.125
  1
800.66.TAGUE
  0
ENDBLK
  5
36026
  8
0
  0
BLOCK
  8
0
  2
*U81
 70
     1
 10
0.0
 20
0.0
 30
0.0
  3
*U81
  1

  0
TEXT
  5
36028
  8
0
 10
2.396282120712645
 20
2.6371956792013558
 30
0.0
 40
0.125
  1
Chair Rail
  0
TEXT
  5
36029
  8
0
 10
2.4008864863333819
 20
2.4283507496879411
 30
0.0
 40
0.125
  1
TL-2097
  0
TEXT
  5
3602A
  8
0
 10
2.3859649310809949
 20
2.2178857656042661
 30
0.0
 40
0.125
  1
1-1/4" x 2-7/8"
  0
TEXT
  5
3602B
  8
0
 10
2.3979021752829048
 20
2.007420781520592
 30
0.0
 40
0.125
  1
800.66.TAGUE
  0
ENDBLK
  5
3602D
  8
0
  0
BLOCK
  8
0
  2
*U82
 70
     1
 10
0.0
 20
0.0
 30
0.0
  3
*U82
  1

  0
TEXT
  5
3602F
  8
0
 10
2.2497671895647828
 20
1.9038951213874651
 30
0.0
 40
0.125
  1
Chair Rail
  0
TEXT
  5
36030
  8
0
 10
2.2543715551855201
 20
1.6950501918740499
 30
0.0
 40
0.125
  1
TL-392
  0
TEXT
  5
36031
  8
0
 10
2.2394499999331319
 20
1.4845852077903761
 30
0.0
 40
0.125
  1
1-5/16" x 2-3/8"
  0
TEXT
  5
36032
  8
0
 10
2.2513872441350422
 20
1.2741202237067011
 30
0.0
 40
0.125
  1
800.66.TAGUE
  0
ENDBLK
  5
36034
  8
0
  0
BLOCK
  8
0
  2
*U83
 70
     1
 10
0.0
 20
0.0
 30
0.0
  3
*U83
  1

  0
TEXT
  5
36036
  8
0
 10
1.5498063030285369
 20
2.4826645605183031
 30
0.0
 40
0.125
  1
Chair Rail
  0
TEXT
  5
36037
  8
0
 10
1.5544106686492729
 20
2.2738196310048879
 30
0.0
 40
0.125
  1
TL-2152
  0
TEXT
  5
36038
  8
0
 10
1.539489113396886
 20
2.063354646921213
 30
0.0
 40
0.125
  1
1-9/32" x 3-15/16"
  0
TEXT
  5
36039
  8
0
 10
1.5514263575987961
 20
1.8528896628375391
 30
0.0
 40
0.125
  1
800.66.TAGUE
  0
ENDBLK
  5
3603B
  8
0
  0
BLOCK
  8
0
  2
*U84
 70
     1
 10
0.0
 20
0.0
 30
0.0
  3
*U84
  1

  0
TEXT
  5
3603D
  8
0
 10
1.425133411081934
 20
3.23616728770982
 30
0.0
 40
0.125
  1
Chair Rail
  0
TEXT
  5
3603E
  8
0
 10
1.4297377767026711
 20
3.0273223581964048
 30
0.0
 40
0.125
  1
TL-2163
  0
TEXT
  5
3603F
  8
0
 10
1.426497667562153
 20
2.8168573741127299
 30
0.0
 40
0.125
  1
3/4" x 2-3/8"
  0
TEXT
  5
36040
  8
0
 10
1.4267534656521941
 20
2.6063923900290562
 30
0.0
 40
0.125
  1
800.66.TAGUE
  0
ENDBLK
  5
36042
  8
0
  0
BLOCK
  8
0
  2
*U85
 70
     1
 10
0.0
 20
0.0
 30
0.0
  3
*U85
  1

  0
TEXT
  5
36044
  8
0
 10
1.3979859738694
 20
3.241688635672078
 30
0.0
 40
0.125
  1
Chair Rail
  0
TEXT
  5
36045
  8
0
 10
1.4025903394901369
 20
3.0328437061586628
 30
0.0
 40
0.125
  1
TL-2210
  0
TEXT
  5
36046
  8
0
 10
1.38766878423775
 20
2.8223787220749879
 30
0.0
 40
0.125
  1
11/16" x 3"
  0
TEXT
  5
36047
  8
0
 10
1.3996060284396601
 20
2.6119137379913142
 30
0.0
 40
0.125
  1
800.66.TAGUE
  0
ENDBLK
  5
36049
  8
0
  0
BLOCK
  8
0
  2
*U86
 70
     1
 10
0.0
 20
0.0
 30
0.0
  3
*U86
  1

  0
TEXT
  5
3604B
  8
0
 10
1.9179554225799269
 20
1.5548149835556311
 30
0.0
 40
0.125
  1
Chamfer Strip
  0
TEXT
  5
3604C
  8
0
 10
1.9225597882006631
 20
1.3459700540422159
 30
0.0
 40
0.125
  1
TL-994
  0
TEXT
  5
3604D
  8
0
 10
1.9076382329482759
 20
1.137125124528801
 30
0.0
 40
0.125
  1
1" x 1"
  0
TEXT
  5
3604E
  8
0
 10
1.9195754771501861
 20
0.9266601404451272
 30
0.0
 40
0.125
  1
800.66.TAGUE
  0
ENDBLK
  5
36050
  8
0
  0
BLOCK
  8
0
  2
*U87
 70
     1
 10
0.0
 20
0.0
 30
0.0
  3
*U87
  1

  0
TEXT
  5
36052
  8
0
 10
0.4278271454310577
 20
1.8307501971237501
 30
0.0
 40
0.125
  1
Chamfer Strip
  0
TEXT
  5
36053
  8
0
 10
0.4324315110517944
 20
1.6219052676103349
 30
0.0
 40
0.125
  1
TL-995
  0
TEXT
  5
36054
  8
0
 10
0.4175099557994069
 20
1.41144028352666
 30
0.0
 40
0.125
  1
11/16" x 11/16"
  0
TEXT
  5
36055
  8
0
 10
0.4294472000013169
 20
1.2009752994429861
 30
0.0
 40
0.125
  1
800.66.TAGUE
  0
ENDBLK
  5
36057
  8
0
  0
BLOCK
  8
0
  2
*U88
 70
     1
 10
0.0
 20
0.0
 30
0.0
  3
*U88
  1

  0
TEXT
  5
36059
  8
0
 10
1.9926440979760729
 20
0.67862269993522
 30
0.0
 40
0.125
  1
Column Mouldings
  0
TEXT
  5
3605A
  8
0
 10
1.9972484635968091
 20
0.4697777704218047
 30
0.0
 40
0.125
  1
TL-2212
  0
TEXT
  5
3605B
  8
0
 10
1.9823269083444219
 20
0.2593127863381302
 30
0.0
 40
0.125
  1
1-13/16" x 1-7/8"
  0
TEXT
  5
3605C
  8
0
 10
1.994264152546332
 20
0.0488478022544559
 30
0.0
 40
0.125
  1
800.66.TAGUE
  0
ENDBLK
  5
3605E
  8
0
  0
BLOCK
  8
0
  2
*U89
 70
     1
 10
0.0
 20
0.0
 30
0.0
  3
*U89
  1

  0
TEXT
  5
36060
  8
0
 10
1.6834489538549959
 20
0.7751852708459115
 30
0.0
 40
0.125
  1
Column Mouldings
  0
TEXT
  5
36061
  8
0
 10
1.688053319475733
 20
0.5663403413324964
 30
0.0
 40
0.125
  1
TL-2215
  0
TEXT
  5
36062
  8
0
 10
1.673131764223345
 20
0.3558753572488219
 30
0.0
 40
0.125
  1
1/2" x 1"
  0
TEXT
  5
36063
  8
0
 10
1.6850690084252551
 20
0.1454103731651475
 30
0.0
 40
0.125
  1
800.66.TAGUE
  0
ENDBLK
  5
36065
  8
0
  0
BLOCK
  8
0
  2
*U90
 70
     1
 10
0.0
 20
0.0
 30
0.0
  3
*U90
  1

  0
TEXT
  5
36067
  8
0
 10
1.6834489538549959
 20
0.7751852708459115
 30
0.0
 40
0.125
  1
Column Mouldings
  0
TEXT
  5
36068
  8
0
 10
1.688053319475733
 20
0.5663403413324964
 30
0.0
 40
0.125
  1
TL-2215
  0
TEXT
  5
36069
  8
0
 10
1.673131764223345
 20
0.3558753572488219
 30
0.0
 40
0.125
  1
1/2" x 1"
  0
TEXT
  5
3606A
  8
0
 10
1.6850690084252551
 20
0.1454103731651475
 30
0.0
 40
0.125
  1
800.66.TAGUE
  0
ENDBLK
  5
3606C
  8
0
  0
BLOCK
  8
0
  2
*U91
 70
     1
 10
0.0
 20
0.0
 30
0.0
  3
*U91
  1

  0
TEXT
  5
3606E
  8
0
 10
2.2199536060229881
 20
0.9507943810130132
 30
0.0
 40
0.125
  1
Corner Moulding
  0
TEXT
  5
3606F
  8
0
 10
2.224557971643724
 20
0.7419494514995982
 30
0.0
 40
0.125
  1
TL-201
  0
TEXT
  5
36070
  8
0
 10
2.2096364163913371
 20
0.5314844674159237
 30
0.0
 40
0.125
  1
1-3/8" x 1-3/8"
  0
TEXT
  5
36071
  8
0
 10
2.221573660593247
 20
0.3210194833322493
 30
0.0
 40
0.125
  1
800.66.TAGUE
  0
ENDBLK
  5
36073
  8
0
  0
BLOCK
  8
0
  2
*U92
 70
     1
 10
0.0
 20
0.0
 30
0.0
  3
*U92
  1

  0
TEXT
  5
36075
  8
0
 10
1.9663332328677019
 20
0.8425411796803405
 30
0.0
 40
0.125
  1
Corner Moulding
  0
TEXT
  5
36076
  8
0
 10
1.9709375984884381
 20
0.6336962501669256
 30
0.0
 40
0.125
  1
TL-202
  0
TEXT
  5
36077
  8
0
 10
1.9560160432360509
 20
0.423231266083251
 30
0.0
 40
0.125
  1
1-1/8" x 1-1/8"
  0
TEXT
  5
36078
  8
0
 10
1.9679532874379611
 20
0.2127662819995766
 30
0.0
 40
0.125
  1
800.66.TAGUE
  0
ENDBLK
  5
3607A
  8
0
  0
BLOCK
  8
0
  2
*U93
 70
     1
 10
0.0
 20
0.0
 30
0.0
  3
*U93
  1

  0
TEXT
  5
3607C
  8
0
 10
1.5905291641242101
 20
0.7214840869431943
 30
0.0
 40
0.125
  1
Corner Moulding
  0
TEXT
  5
3607D
  8
0
 10
1.5951335297449469
 20
0.5126391574297791
 30
0.0
 40
0.125
  1
TL-203
  0
TEXT
  5
3607E
  8
0
 10
1.5918934206044291
 20
0.3021741733461046
 30
0.0
 40
0.125
  1
3/4" x 3/4"
  0
TEXT
  5
3607F
  8
0
 10
1.592149218694469
 20
0.0917091892624302
 30
0.0
 40
0.125
  1
800.66.TAGUE
  0
ENDBLK
  5
36081
  8
0
  0
BLOCK
  8
0
  2
*U94
 70
     1
 10
0.0
 20
0.0
 30
0.0
  3
*U94
  1

  0
TEXT
  5
36083
  8
0
 10
1.935358187968665
 20
1.031573183991797
 30
0.0
 40
0.125
  1
Corner Moulding
  0
TEXT
  5
36084
  8
0
 10
1.939962553589401
 20
0.8227282544783825
 30
0.0
 40
0.125
  1
TL-204
  0
TEXT
  5
36085
  8
0
 10
1.925040998337014
 20
0.6122632703947081
 30
0.0
 40
0.125
  1
1-3/8" x 1-3/8"
  0
TEXT
  5
36086
  8
0
 10
1.9369782425389239
 20
0.4017982863110337
 30
0.0
 40
0.125
  1
800.66.TAGUE
  0
ENDBLK
  5
36088
  8
0
  0
BLOCK
  8
0
  2
*U95
 70
     1
 10
0.0
 20
0.0
 30
0.0
  3
*U95
  1

  0
TEXT
  5
3608A
  8
0
 10
1.8542205155787641
 20
0.9211791424976514
 30
0.0
 40
0.125
  1
Corner Moulding
  0
TEXT
  5
3608B
  8
0
 10
1.858824881199501
 20
0.7123342129842363
 30
0.0
 40
0.125
  1
TL-205
  0
TEXT
  5
3608C
  8
0
 10
1.8439033259471129
 20
0.5018692289005619
 30
0.0
 40
0.125
  1
1-1/8" x 1-1/8"
  0
TEXT
  5
3608D
  8
0
 10
1.855840570149023
 20
0.2914042448168874
 30
0.0
 40
0.125
  1
800.66.TAGUE
  0
ENDBLK
  5
3608F
  8
0
  0
BLOCK
  8
0
  2
*U96
 70
     1
 10
0.0
 20
0.0
 30
0.0
  3
*U96
  1

  0
TEXT
  5
36091
  8
0
 10
1.334185060618698
 20
0.6786227981105119
 30
0.0
 40
0.125
  1
Corner Moulding
  0
TEXT
  5
36092
  8
0
 10
1.3387894262394351
 20
0.4697778685970966
 30
0.0
 40
0.125
  1
TL-206
  0
TEXT
  5
36093
  8
0
 10
1.3355493170989159
 20
0.2593128845134221
 30
0.0
 40
0.125
  1
3/4" x 3/4"
  0
TEXT
  5
36094
  8
0
 10
1.3358051151889569
 20
0.0488479004297477
 30
0.0
 40
0.125
  1
800.66.TAGUE
  0
ENDBLK
  5
36096
  8
0
  0
BLOCK
  8
0
  2
*U97
 70
     1
 10
0.0
 20
0.0
 30
0.0
  3
*U97
  1

  0
TEXT
  5
36098
  8
0
 10
1.823849037637477
 20
0.8585475398531504
 30
0.0
 40
0.125
  1
Cove
  0
TEXT
  5
36099
  8
0
 10
1.828453403258214
 20
0.6497026103397352
 30
0.0
 40
0.125
  1
TL-83
  0
TEXT
  5
3609A
  8
0
 10
1.825298560147709
 20
0.4392376262560608
 30
0.0
 40
0.125
  1
9/16" x 2-5/8"
  0
TEXT
  5
3609B
  8
0
 10
1.8254690922077359
 20
0.2287726421723863
 30
0.0
 40
0.125
  1
800.66.TAGUE
  0
ENDBLK
  5
3609D
  8
0
  0
BLOCK
  8
0
  2
*U98
 70
     1
 10
0.0
 20
0.0
 30
0.0
  3
*U98
  1

  0
TEXT
  5
3609F
  8
0
 10
1.4372220564187941
 20
0.6786219190419321
 30
0.0
 40
0.125
  1
Cove
  0
TEXT
  5
360A0
  8
0
 10
1.4418264220395309
 20
0.4697769895285169
 30
0.0
 40
0.125
  1
TL-86
  0
TEXT
  5
360A1
  8
0
 10
1.4386715789290261
 20
0.2593120054448424
 30
0.0
 40
0.125
  1
9/16" x 1-5/8"
  0
TEXT
  5
360A2
  8
0
 10
1.438842110989053
 20
0.048847021361168
 30
0.0
 40
0.125
  1
800.66.TAGUE
  0
ENDBLK
  5
360A4
  8
0
  0
BLOCK
  8
0
  2
*U99
 70
     1
 10
0.0
 20
0.0
 30
0.0
  3
*U99
  1

  0
TEXT
  5
360A6
  8
0
 10
1.5163761963436611
 20
0.6786216177161056
 30
0.0
 40
0.125
  1
Cove
  0
TEXT
  5
360A7
  8
0
 10
1.5209805619643979
 20
0.4697766882026904
 30
0.0
 40
0.125
  1
TL-100
  0
TEXT
  5
360A8
  8
0
 10
1.506059006712011
 20
0.2593117041190159
 30
0.0
 40
0.125
  1
11/16" x 11/16"
  0
TEXT
  5
360A9
  8
0
 10
1.5179962509139211
 20
0.0488467200353415
 30
0.0
 40
0.125
  1
800.66.TAGUE
  0
ENDBLK
  5
360AB
  8
0
  0
BLOCK
  8
0
  2
*U100
 70
     1
 10
0.0
 20
0.0
 30
0.0
  3
*U100
  1

  0
TEXT
  5
360AD
  8
0
 10
1.281862643234239
 20
0.6786219754701666
 30
0.0
 40
0.125
  1
Cove
  0
TEXT
  5
360AE
  8
0
 10
1.286467008854975
 20
0.4697770459567514
 30
0.0
 40
0.125
  1
TL-101
  0
TEXT
  5
360AF
  8
0
 10
1.2715454536025881
 20
0.259312061873077
 30
0.0
 40
0.125
  1
1/2" x 1/2"
  0
TEXT
  5
360B0
  8
0
 10
1.283482697804498
 20
0.0488470777894026
 30
0.0
 40
0.125
  1
800.66.TAGUE
  0
ENDBLK
  5
360B2
  8
0
  0
BLOCK
  8
0
  2
*U101
 70
     1
 10
0.0
 20
0.0
 30
0.0
  3
*U101
  1

  0
TEXT
  5
360B4
  8
0
 10
8.9871190848671514
 20
3.8959346082645121
 30
0.0
 40
0.125
  1
Cove
  0
TEXT
  5
360B5
  8
0
 10
8.9917234504878873
 20
3.6870896787510969
 30
0.0
 40
0.125
  1
TL-542
  0
TEXT
  5
360B6
  8
0
 10
8.9884833413473686
 20
3.4766246946674229
 30
0.0
 40
0.125
  1
3/4" x 4"
  0
TEXT
  5
360B7
  8
0
 10
8.9887391394374099
 20
3.2661597105837492
 30
0.0
 40
0.125
  1
800.66.TAGUE
  0
ENDBLK
  5
360B9
  8
0
  0
BLOCK
  8
0
  2
*U102
 70
     1
 10
0.0
 20
0.0
 30
0.0
  3
*U102
  1

  0
TEXT
  5
360BB
  8
0
 10
2.0449744451125631
 20
2.5585391787528962
 30
0.0
 40
0.125
  1
Cove
  0
TEXT
  5
360BC
  8
0
 10
2.0495788107332991
 20
2.349694249239481
 30
0.0
 40
0.125
  1
TL-542
  0
TEXT
  5
360BD
  8
0
 10
2.0463387015927812
 20
2.139229265155806
 30
0.0
 40
0.125
  1
3/4" x 4"
  0
TEXT
  5
360BE
  8
0
 10
2.046594499682822
 20
1.9287642810721319
 30
0.0
 40
0.125
  1
800.66.TAGUE
  0
ENDBLK
  5
360C0
  8
0
  0
BLOCK
  8
0
  2
*U103
 70
     1
 10
0.0
 20
0.0
 30
0.0
  3
*U103
  1

  0
TEXT
  5
360C2
  8
0
 10
1.972901825589735
 20
0.6861779570716795
 30
0.0
 40
0.125
  1
Cove
  0
TEXT
  5
360C3
  8
0
 10
1.977506191210471
 20
0.4773330275582644
 30
0.0
 40
0.125
  1
TL-2285
  0
TEXT
  5
360C4
  8
0
 10
1.9625846359580841
 20
0.2176457378811383
 30
0.0
 40
0.125
  1
1-
  0
TEXT
  5
360C5
  8
0
 10
2.1127371939389841
 20
0.3048707378811382
 30
0.0
 40
0.087225
  1
3
  0
LINE
  5
360C6
  8
0
 10
2.139480062265986
 20
0.233420200818031
 30
0.0
 11
2.2395404715874259
 21
0.3763212749442456
 31
0.0
  0
TEXT
  5
360C7
  8
0
 10
2.202500802397374
 20
0.1885707378811383
 30
0.0
 40
0.087225
  1
4
  0
TEXT
  5
360C8
  8
0
 10
2.2702102498735002
 20
0.2176457378811383
 30
0.0
 40
0.125
  1
" x 1-
  0
TEXT
  5
360C9
  8
0
 10
2.6666963685638141
 20
0.3048707378811382
 30
0.0
 40
0.087225
  1
3
  0
LINE
  5
360CA
  8
0
 10
2.6934392368908151
 20
0.233420200818031
 30
0.0
 11
2.793499646212255
 21
0.3763212749442456
 31
0.0
  0
TEXT
  5
360CB
  8
0
 10
2.756459977022204
 20
0.1885707378811383
 30
0.0
 40
0.087225
  1
4
  0
TEXT
  5
360CC
  8
0
 10
2.8241694244983289
 20
0.2176457378811383
 30
0.0
 40
0.125
  1
"
  0
TEXT
  5
360CD
  8
0
 10
1.974521880159994
 20
0.0488474204641306
 30
0.0
 40
0.125
  1
800.66.TAGUE
  0
ENDBLK
  5
360CF
  8
0
  0
BLOCK
  8
0
  2
*U104
 70
     1
 10
0.0
 20
0.0
 30
0.0
  3
*U104
  1

  0
TEXT
  5
360D1
  8
0
 10
6.0916813895717663
 20
1.1589680224542569
 30
0.0
 40
0.125
  1
TL-539
  0
ENDBLK
  5
360D3
  8
0
  0
BLOCK
  8
0
  2
*U105
 70
     1
 10
0.0
 20
0.0
 30
0.0
  3
*U105
  1

  0
INSERT
  5
360D5
  8
0
  2
_OPEN30
 10
5.5297396917334254
 20
1.423040350996984
 30
0.0
 41
0.046875
 42
0.046875
 43
0.046875
 50
156.5115553320598
  0
POLYLINE
  5
360D6
  8
0
 66
     1
 10
0.0
 20
0.0
 30
0.0
  0
VERTEX
  5
360D7
  8
0
 10
5.5727306514936332
 20
1.404357658367275
 30
0.0
  0
VERTEX
  5
360D8
  8
0
 10
5.992991484785648
 20
1.221723820544298
 30
0.0
  0
VERTEX
  5
360D9
  8
0
 10
6.0332741590124206
 20
1.221723820544298
 30
0.0
  0
SEQEND
  5
360DA
  8
0
  0
ENDBLK
  5
360DC
  8
0
  0
BLOCK
  8
0
  2
*U106
 70
     1
 10
0.0
 20
0.0
 30
0.0
  3
*U106
  1

  0
TEXT
  5
360DE
  8
0
 10
8.2506161076617612
 20
3.659671552769634
 30
0.0
 40
0.125
  1
TL-25
  0
ENDBLK
  5
360E0
  8
0
  0
BLOCK
  8
0
  2
*U107
 70
     1
 10
0.0
 20
0.0
 30
0.0
  3
*U107
  1

  0
INSERT
  5
360E2
  8
0
  2
_OPEN30
 10
7.5943396585593632
 20
4.1117705265849054
 30
0.0
 41
0.046875
 42
0.046875
 43
0.046875
 50
143.83030806409641
  0
POLYLINE
  5
360E3
  8
0
 66
     1
 10
0.0
 20
0.0
 30
0.0
  0
VERTEX
  5
360E4
  8
0
 10
7.6321805623951144
 20
4.0841058989551424
 30
0.0
  0
VERTEX
  5
360E5
  8
0
 10
8.1269005109553518
 20
3.7224273508596748
 30
0.0
  0
VERTEX
  5
360E6
  8
0
 10
8.1922088771024164
 20
3.7224273508596748
 30
0.0
  0
SEQEND
  5
360E7
  8
0
  0
ENDBLK
  5
360E9
  8
0
  0
BLOCK
  8
0
  2
*U108
 70
     1
 10
0.0
 20
0.0
 30
0.0
  3
*U108
  1

  0
TEXT
  5
360EB
  8
0
 10
7.4510287652605358
 20
2.3081779177865811
 30
0.0
 40
0.125
  1
Crown Assembly
  0
TEXT
  5
360EC
  8
0
 10
7.4556331308812718
 20
2.0993329882731659
 30
0.0
 40
0.125
  1
TL-660
  0
TEXT
  5
360ED
  8
0
 10
7.4523930217407539
 20
1.888868004189491
 30
0.0
 40
0.125
  1
3-1/4" x 5-5/8"
  0
TEXT
  5
360EE
  8
0
 10
7.4526488198307952
 20
1.6784030201058171
 30
0.0
 40
0.125
  1
800.66.TAGUE
  0
ENDBLK
  5
360F0
  8
0
  0
BLOCK
  8
0
  2
*U109
 70
     1
 10
0.0
 20
0.0
 30
0.0
  3
*U109
  1

  0
TEXT
  5
360F2
  8
0
 10
11.100877515101759
 20
4.3482389803681532
 30
0.0
 40
0.125
  1
Crown Assembly
  0
TEXT
  5
360F3
  8
0
 10
11.1054818807225
 20
4.1393940508547384
 30
0.0
 40
0.125
  1
TL-661
  0
TEXT
  5
360F4
  8
0
 10
11.1073577333828
 20
3.928929066771063
 30
0.0
 40
0.125
  1
4-1/2" x 9-3/8"
  0
TEXT
  5
360F5
  8
0
 10
11.102497569672019
 20
3.7184640826873889
 30
0.0
 40
0.125
  1
800.66.TAGUE
  0
ENDBLK
  5
360F7
  8
0
  0
BLOCK
  8
0
  2
*U110
 70
     1
 10
0.0
 20
0.0
 30
0.0
  3
*U110
  1

  0
TEXT
  5
360F9
  8
0
 10
9.9973648083120619
 20
4.7141156879961379
 30
0.0
 40
0.125
  1
TL-238
  0
ENDBLK
  5
360FB
  8
0
  0
BLOCK
  8
0
  2
*U111
 70
     1
 10
0.0
 20
0.0
 30
0.0
  3
*U111
  1

  0
INSERT
  5
360FD
  8
0
  2
_OPEN30
 10
9.1771961149673302
 20
5.3422014599419754
 30
0.0
 41
0.046875
 42
0.046875
 43
0.046875
 50
140.13823031629951
  0
POLYLINE
  5
360FE
  8
0
 66
     1
 10
0.0
 20
0.0
 30
0.0
  0
VERTEX
  5
360FF
  8
0
 10
9.2131770361390952
 20
5.3121575098582854
 30
0.0
  0
VERTEX
  5
36100
  8
0
 10
9.8542406836302234
 20
4.7768714860861792
 30
0.0
  0
VERTEX
  5
36101
  8
0
 10
9.938957577752717
 20
4.7768714860861792
 30
0.0
  0
SEQEND
  5
36102
  8
0
  0
ENDBLK
  5
36104
  8
0
  0
BLOCK
  8
0
  2
*U112
 70
     1
 10
0.0
 20
0.0
 30
0.0
  3
*U112
  1

  0
TEXT
  5
36106
  8
0
 10
9.2979572148710243
 20
1.0810665778271971
 30
0.0
 40
0.125
  1
TL-64
  0
ENDBLK
  5
36108
  8
0
  0
BLOCK
  8
0
  2
*U113
 70
     1
 10
0.0
 20
0.0
 30
0.0
  3
*U113
  1

  0
INSERT
  5
3610A
  8
0
  2
_OPEN30
 10
8.6422745705577313
 20
1.642559297640787
 30
0.0
 41
0.046875
 42
0.046875
 43
0.046875
 50
135.79936825235271
  0
POLYLINE
  5
3610B
  8
0
 66
     1
 10
0.0
 20
0.0
 30
0.0
  0
VERTEX
  5
3610C
  8
0
 10
8.6758793949613793
 20
1.6098793129131279
 30
0.0
  0
VERTEX
  5
3610D
  8
0
 10
9.1442411396712941
 20
1.1544073699477619
 30
0.0
  0
VERTEX
  5
3610E
  8
0
 10
9.2395499843116795
 20
1.1438223759172379
 30
0.0
  0
SEQEND
  5
3610F
  8
0
  0
ENDBLK
  5
36111
  8
0
  0
BLOCK
  8
0
  2
*U114
 70
     1
 10
0.0
 20
0.0
 30
0.0
  3
*U114
  1

  0
TEXT
  5
36113
  8
0
 10
8.7532801379956631
 20
2.9571153571353181
 30
0.0
 40
0.125
  1
1 x 6 Board
  0
ENDBLK
  5
36115
  8
0
  0
BLOCK
  8
0
  2
*U115
 70
     1
 10
0.0
 20
0.0
 30
0.0
  3
*U115
  1

  0
INSERT
  5
36117
  8
0
  2
_OPEN30
 10
8.1167699671577793
 20
3.019871155225359
 30
0.0
 41
0.046875
 42
0.046875
 43
0.046875
 50
180.0
  0
POLYLINE
  5
36118
  8
0
 66
     1
 10
0.0
 20
0.0
 30
0.0
  0
VERTEX
  5
36119
  8
0
 10
8.1636449671577793
 20
3.019871155225359
 30
0.0
  0
VERTEX
  5
3611A
  8
0
 10
8.7097944626887056
 20
3.019871155225359
 30
0.0
  0
SEQEND
  5
3611B
  8
0
  0
ENDBLK
  5
3611D
  8
0
  0
BLOCK
  8
0
  2
*U116
 70
     1
 10
0.0
 20
0.0
 30
0.0
  3
*U116
  1

  0
TEXT
  5
3611F
  8
0
 10
9.3508379695960624
 20
3.9746409328325849
 30
0.0
 40
0.125
  1
TL-54
  0
ENDBLK
  5
36121
  8
0
  0
BLOCK
  8
0
  2
*U117
 70
     1
 10
0.0
 20
0.0
 30
0.0
  3
*U117
  1

  0
INSERT
  5
36123
  8
0
  2
_OPEN30
 10
8.5596004878627241
 20
4.5802047155393657
 30
0.0
 41
0.046875
 42
0.046875
 43
0.046875
 50
140.0397693589118
  0
POLYLINE
  5
36124
  8
0
 66
     1
 10
0.0
 20
0.0
 30
0.0
  0
VERTEX
  5
36125
  8
0
 10
8.59552972636817
 20
4.5500989777902472
 30
0.0
  0
VERTEX
  5
36126
  8
0
 10
9.2077117660230652
 20
4.0371409328325853
 30
0.0
  0
VERTEX
  5
36127
  8
0
 10
9.2924307390367176
 20
4.0371409328325853
 30
0.0
  0
SEQEND
  5
36128
  8
0
  0
ENDBLK
  5
3612A
  8
0
  0
BLOCK
  8
0
  2
*U118
 70
     1
 10
0.0
 20
0.0
 30
0.0
  3
*U118
  1

  0
TEXT
  5
3612C
  8
0
 10
11.67173909884349
 20
7.0992410855625394
 30
0.0
 40
0.125
  1
TL-47
  0
ENDBLK
  5
3612E
  8
0
  0
BLOCK
  8
0
  2
*U119
 70
     1
 10
0.0
 20
0.0
 30
0.0
  3
*U119
  1

  0
INSERT
  5
36130
  8
0
  2
_OPEN30
 10
10.865727544193421
 20
7.6405095440040887
 30
0.0
 41
0.046875
 42
0.046875
 43
0.046875
 50
143.72235556643869
  0
POLYLINE
  5
36131
  8
0
 66
     1
 10
0.0
 20
0.0
 30
0.0
  0
VERTEX
  5
36132
  8
0
 10
10.903516257235109
 20
7.6127736684698251
 30
0.0
  0
VERTEX
  5
36133
  8
0
 10
11.518025102534921
 20
7.1617410855625394
 30
0.0
  0
VERTEX
  5
36134
  8
0
 10
11.613331868284151
 20
7.1617410855625394
 30
0.0
  0
SEQEND
  5
36135
  8
0
  0
ENDBLK
  5
36137
  8
0
  0
BLOCK
  8
0
  2
*U120
 70
     1
 10
0.0
 20
0.0
 30
0.0
  3
*U120
  1

  0
TEXT
  5
36139
  8
0
 10
10.306078575796199
 20
1.991254863143028
 30
0.0
 40
0.125
  1
Crown Assembly
  0
TEXT
  5
3613A
  8
0
 10
10.31068294141693
 20
1.7824099336296131
 30
0.0
 40
0.125
  1
TL-662
  0
TEXT
  5
3613B
  8
0
 10
10.31255879407723
 20
1.5719449495459381
 30
0.0
 40
0.125
  1
4-3/8" x 5"
  0
TEXT
  5
3613C
  8
0
 10
10.307698630366451
 20
1.361479965462264
 30
0.0
 40
0.125
  1
800.66.TAGUE
  0
ENDBLK
  5
3613E
  8
0
  0
BLOCK
  8
0
  2
*U121
 70
     1
 10
0.0
 20
0.0
 30
0.0
  3
*U121
  1

  0
TEXT
  5
36140
  8
0
 10
8.4907133848708494
 20
0.0967622511747205
 30
0.0
 40
0.125
  1
TL-623
  0
ENDBLK
  5
36142
  8
0
  0
BLOCK
  8
0
  2
*U122
 70
     1
 10
0.0
 20
0.0
 30
0.0
  3
*U122
  1

  0
INSERT
  5
36144
  8
0
  2
_OPEN30
 10
7.8166701362065956
 20
0.6199995871735382
 30
0.0
 41
0.046875
 42
0.046875
 43
0.046875
 50
138.3966245586565
  0
POLYLINE
  5
36145
  8
0
 66
     1
 10
0.0
 20
0.0
 30
0.0
  0
VERTEX
  5
36146
  8
0
 10
7.8517213381880619
 20
0.588875980945235
 30
0.0
  0
VERTEX
  5
36147
  8
0
 10
8.3352614355432024
 20
0.1595180492647614
 30
0.0
  0
VERTEX
  5
36148
  8
0
 10
8.4323061543115045
 20
0.1595180492647614
 30
0.0
  0
SEQEND
  5
36149
  8
0
  0
ENDBLK
  5
3614B
  8
0
  0
BLOCK
  8
0
  2
*U123
 70
     1
 10
0.0
 20
0.0
 30
0.0
  3
*U123
  1

  0
TEXT
  5
3614D
  8
0
 10
9.5905632324050352
 20
2.4357622671589061
 30
0.0
 40
0.125
  1
TL-547
  0
ENDBLK
  5
3614F
  8
0
  0
BLOCK
  8
0
  2
*U124
 70
     1
 10
0.0
 20
0.0
 30
0.0
  3
*U124
  1

  0
INSERT
  5
36151
  8
0
  2
_OPEN30
 10
8.9379372763926312
 20
3.012476083171463
 30
0.0
 41
0.046875
 42
0.046875
 43
0.046875
 50
134.64930297028991
  0
POLYLINE
  5
36152
  8
0
 66
     1
 10
0.0
 20
0.0
 30
0.0
  0
VERTEX
  5
36153
  8
0
 10
8.9708794087728574
 20
2.9791281965930958
 30
0.0
  0
VERTEX
  5
36154
  8
0
 10
9.4458944915828624
 20
2.4982622671589061
 30
0.0
  0
VERTEX
  5
36155
  8
0
 10
9.5321560018456921
 20
2.4982622671589061
 30
0.0
  0
SEQEND
  5
36156
  8
0
  0
ENDBLK
  5
36158
  8
0
  0
BLOCK
  8
0
  2
*U125
 70
     1
 10
0.0
 20
0.0
 30
0.0
  3
*U125
  1

  0
TEXT
  5
3615A
  8
0
 10
11.520691030397129
 20
3.912039811269675
 30
0.0
 40
0.125
  1
TL-623
  0
ENDBLK
  5
3615C
  8
0
  0
BLOCK
  8
0
  2
*U126
 70
     1
 10
0.0
 20
0.0
 30
0.0
  3
*U126
  1

  0
INSERT
  5
3615E
  8
0
  2
_OPEN30
 10
11.020454893837719
 20
4.3488596077285129
 30
0.0
 41
0.046875
 42
0.046875
 43
0.046875
 50
131.85755087258991
  0
POLYLINE
  5
3615F
  8
0
 66
     1
 10
0.0
 20
0.0
 30
0.0
  0
VERTEX
  5
36160
  8
0
 10
11.051733687379979
 20
4.3139468206793472
 30
0.0
  0
VERTEX
  5
36161
  8
0
 10
11.36523908106949
 20
3.9640181370855312
 30
0.0
  0
VERTEX
  5
36162
  8
0
 10
11.46302804287723
 20
3.9642485872277571
 30
0.0
  0
SEQEND
  5
36163
  8
0
  0
ENDBLK
  5
36165
  8
0
  0
BLOCK
  8
0
  2
*U127
 70
     1
 10
0.0
 20
0.0
 30
0.0
  3
*U127
  1

  0
TEXT
  5
36167
  8
0
 10
9.2456145386519548
 20
1.830235825918082
 30
0.0
 40
0.125
  1
Crown Assembly
  0
TEXT
  5
36168
  8
0
 10
9.2502189042726908
 20
1.621390896404667
 30
0.0
 40
0.125
  1
TL-663
  0
TEXT
  5
36169
  8
0
 10
9.2491957119125274
 20
1.4109259123209921
 30
0.0
 40
0.125
  1
2-11/16" x 4-1/4"
  0
TEXT
  5
3616A
  8
0
 10
9.2472345932222133
 20
1.200460928237318
 30
0.0
 40
0.125
  1
800.66.TAGUE
  0
ENDBLK
  5
3616C
  8
0
  0
BLOCK
  8
0
  2
*U128
 70
     1
 10
0.0
 20
0.0
 30
0.0
  3
*U128
  1

  0
TEXT
  5
3616E
  8
0
 10
7.0011486317315006
 20
0.0994237416013103
 30
0.0
 40
0.125
  1
TL-56
  0
ENDBLK
  5
36170
  8
0
  0
BLOCK
  8
0
  2
*U129
 70
     1
 10
0.0
 20
0.0
 30
0.0
  3
*U129
  1

  0
INSERT
  5
36172
  8
0
  2
_OPEN30
 10
6.1447636050547771
 20
0.8025867523464285
 30
0.0
 41
0.046875
 42
0.046875
 43
0.046875
 50
136.0557062383902
  0
POLYLINE
  5
36173
  8
0
 66
     1
 10
0.0
 20
0.0
 30
0.0
  0
VERTEX
  5
36174
  8
0
 10
6.1785143010030019
 20
0.7700574402109038
 30
0.0
  0
VERTEX
  5
36175
  8
0
 10
6.8092163001293784
 20
0.1621795396913512
 30
0.0
  0
VERTEX
  5
36176
  8
0
 10
6.9427414011721558
 20
0.1621795396913512
 30
0.0
  0
SEQEND
  5
36177
  8
0
  0
ENDBLK
  5
36179
  8
0
  0
BLOCK
  8
0
  2
*U130
 70
     1
 10
0.0
 20
0.0
 30
0.0
  3
*U130
  1

  0
TEXT
  5
3617B
  8
0
 10
7.4758184206721721
 20
1.2018846043570841
 30
0.0
 40
0.125
  1
1-1/16" x 1-7/8"
  0
TEXT
  5
3617C
  8
0
 10
7.4943211491851329
 20
0.9914196202734098
 30
0.0
 40
0.125
  1
w/ 3/8" Bead
  0
ENDBLK
  5
3617E
  8
0
  0
BLOCK
  8
0
  2
*U131
 70
     1
 10
0.0
 20
0.0
 30
0.0
  3
*U131
  1

  0
INSERT
  5
36180
  8
0
  2
_OPEN30
 10
6.8403616286130378
 20
1.6201217739683209
 30
0.0
 41
0.046875
 42
0.046875
 43
0.046875
 50
143.32430708272619
  0
POLYLINE
  5
36181
  8
0
 66
     1
 10
0.0
 20
0.0
 30
0.0
  0
VERTEX
  5
36182
  8
0
 10
6.8779567430390864
 20
1.592124041983527
 30
0.0
  0
VERTEX
  5
36183
  8
0
 10
7.316611268313749
 20
1.265450429732254
 30
0.0
  0
VERTEX
  5
36184
  8
0
 10
7.4323327453652146
 20
1.265450429732254
 30
0.0
  0
SEQEND
  5
36185
  8
0
  0
ENDBLK
  5
36187
  8
0
  0
BLOCK
  8
0
  2
*U132
 70
     1
 10
0.0
 20
0.0
 30
0.0
  3
*U132
  1

  0
TEXT
  5
36189
  8
0
 10
8.2206740073252771
 20
2.3682472913577719
 30
0.0
 40
0.125
  1
TL-71
  0
ENDBLK
  5
3618B
  8
0
  0
BLOCK
  8
0
  2
*U133
 70
     1
 10
0.0
 20
0.0
 30
0.0
  3
*U133
  1

  0
INSERT
  5
3618D
  8
0
  2
_OPEN30
 10
7.732786633242994
 20
2.897502127018015
 30
0.0
 41
0.046875
 42
0.046875
 43
0.046875
 50
127.3606991348481
  0
POLYLINE
  5
3618E
  8
0
 66
     1
 10
0.0
 20
0.0
 30
0.0
  0
VERTEX
  5
3618F
  8
0
 10
7.7612318262646021
 20
2.8602444215201781
 30
0.0
  0
VERTEX
  5
36190
  8
0
 10
8.0821525476966372
 20
2.4399002980619571
 30
0.0
  0
VERTEX
  5
36191
  8
0
 10
8.1622667767659323
 20
2.4310030894478132
 30
0.0
  0
SEQEND
  5
36192
  8
0
  0
ENDBLK
  5
36194
  8
0
  0
BLOCK
  8
0
  2
*U134
 70
     1
 10
0.0
 20
0.0
 30
0.0
  3
*U134
  1

  0
TEXT
  5
36196
  8
0
 10
8.3234330435333614
 20
1.414021240929644
 30
0.0
 40
0.125
  1
Crown Assembly
  0
TEXT
  5
36197
  8
0
 10
8.3280374091540974
 20
1.2051763114162291
 30
0.0
 40
0.125
  1
TL-664
  0
TEXT
  5
36198
  8
0
 10
8.3247973000135786
 20
0.9947113273325546
 30
0.0
 40
0.125
  1
3-1/16" x 4-1/4"
  0
TEXT
  5
36199
  8
0
 10
8.3250530981036182
 20
0.7842463432488803
 30
0.0
 40
0.125
  1
800.66.TAGUE
  0
ENDBLK
  5
3619B
  8
0
  0
BLOCK
  8
0
  2
*U135
 70
     1
 10
0.0
 20
0.0
 30
0.0
  3
*U135
  1

  0
TEXT
  5
3619D
  8
0
 10
6.7733031137018482
 20
0.0417615579446075
 30
0.0
 40
0.125
  1
TL-B3
  0
ENDBLK
  5
3619F
  8
0
  0
BLOCK
  8
0
  2
*U136
 70
     1
 10
0.0
 20
0.0
 30
0.0
  3
*U136
  1

  0
INSERT
  5
361A1
  8
0
  2
_OPEN30
 10
6.0277617672714987
 20
0.5589010370247252
 30
0.0
 41
0.046875
 42
0.046875
 43
0.046875
 50
143.10777595702231
  0
POLYLINE
  5
361A2
  8
0
 66
     1
 10
0.0
 20
0.0
 30
0.0
  0
VERTEX
  5
361A3
  8
0
 10
6.065250804980173
 20
0.5307614265676202
 30
0.0
  0
VERTEX
  5
361A4
  8
0
 10
6.6427250972388938
 20
0.0973040047092582
 30
0.0
  0
VERTEX
  5
361A5
  8
0
 10
6.716868750864136
 20
0.0942112590512352
 30
0.0
  0
SEQEND
  5
361A6
  8
0
  0
ENDBLK
  5
361A8
  8
0
  0
BLOCK
  8
0
  2
*U137
 70
     1
 10
0.0
 20
0.0
 30
0.0
  3
*U137
  1

  0
TEXT
  5
361AA
  8
0
 10
7.886387182432661
 20
2.2482273942292861
 30
0.0
 40
0.125
  1
TL-49
  0
ENDBLK
  5
361AC
  8
0
  0
BLOCK
  8
0
  2
*U138
 70
     1
 10
0.0
 20
0.0
 30
0.0
  3
*U138
  1

  0
INSERT
  5
361AE
  8
0
  2
_OPEN30
 10
7.253797201372719
 20
2.7268635825205361
 30
0.0
 41
0.046875
 42
0.046875
 43
0.046875
 50
136.21869819866211
  0
POLYLINE
  5
361AF
  8
0
 66
     1
 10
0.0
 20
0.0
 30
0.0
  0
VERTEX
  5
361B0
  8
0
 10
7.2876402982734163
 20
2.6944304140479658
 30
0.0
  0
VERTEX
  5
361B1
  8
0
 10
7.6877566634765344
 20
2.310983192319326
 30
0.0
  0
VERTEX
  5
361B2
  8
0
 10
7.8279799518733171
 20
2.310983192319326
 30
0.0
  0
SEQEND
  5
361B3
  8
0
  0
ENDBLK
  5
361B5
  8
0
  0
BLOCK
  8
0
  2
*U139
 70
     1
 10
0.0
 20
0.0
 30
0.0
  3
*U139
  1

  0
INSERT
  5
361B7
  8
0
  6
CONTINUOUS
  2
_OPEN30
 10
16.890010925503759
 20
4.0998827605750421
 30
0.0
 41
0.046875
 42
0.046875
 43
0.046875
 50
220.32439975277339
  0
POLYLINE
  5
361B8
  8
0
  6
CONTINUOUS
 66
     1
 10
0.0
 20
0.0
 30
0.0
  0
VERTEX
  5
361B9
  8
0
  6
CONTINUOUS
 10
16.92574808899867
 20
4.1302162531259778
 30
0.0
  0
VERTEX
  5
361BA
  8
0
  6
CONTINUOUS
 10
17.378553106259119
 20
4.5145544678824763
 30
0.0
  0
VERTEX
  5
361BB
  8
0
  6
CONTINUOUS
 10
17.468327545948402
 20
4.5145544678824763
 30
0.0
  0
SEQEND
  5
361BC
  8
0
  6
CONTINUOUS
  0
ENDBLK
  5
361BE
  8
0
  0
BLOCK
  8
0
  2
*U140
 70
     1
 10
0.0
 20
0.0
 30
0.0
  3
*U140
  1

  0
TEXT
  5
361C0
  8
0
 10
17.526734776507741
 20
4.451798669792435
 30
0.0
 40
0.125
  1
TL-542
  0
ENDBLK
  5
361C2
  8
0
  0
BLOCK
  8
0
  2
*U141
 70
     1
 10
0.0
 20
0.0
 30
0.0
  3
*U141
  1

  0
INSERT
  5
361C4
  8
0
  6
CONTINUOUS
  2
_OPEN30
 10
13.390010925503759
 20
4.5373827605750421
 30
0.0
 41
0.046875
 42
0.046875
 43
0.046875
 50
110.44249644019671
  0
POLYLINE
  5
361C5
  8
0
  6
CONTINUOUS
 66
     1
 10
0.0
 20
0.0
 30
0.0
  0
VERTEX
  5
361C6
  8
0
  6
CONTINUOUS
 10
13.40638282250643
 20
4.4934597983168567
 30
0.0
  0
VERTEX
  5
361C7
  8
0
  6
CONTINUOUS
 10
13.78538853520223
 20
3.4766531563219578
 30
0.0
  0
VERTEX
  5
361C8
  8
0
  6
CONTINUOUS
 10
13.93846127658429
 20
3.4766531563219578
 30
0.0
  0
SEQEND
  5
361C9
  8
0
  6
CONTINUOUS
  0
ENDBLK
  5
361CB
  8
0
  0
BLOCK
  8
0
  2
*U142
 70
     1
 10
0.0
 20
0.0
 30
0.0
  3
*U142
  1

  0
TEXT
  5
361CD
  8
0
 10
13.981946951891249
 20
3.413897358231917
 30
0.0
 40
0.125
  1
1 x 6 Board
  0
ENDBLK
  5
361CF
  8
0
  0
BLOCK
  8
0
  2
*U143
 70
     1
 10
0.0
 20
0.0
 30
0.0
  3
*U143
  1

  0
INSERT
  5
361D1
  8
0
  6
CONTINUOUS
  2
_OPEN30
 10
11.87770156644649
 20
2.3649564226565181
 30
0.0
 41
0.046875
 42
0.046875
 43
0.046875
 50
130.18882139360491
  0
POLYLINE
  5
361D2
  8
0
  6
CONTINUOUS
 66
     1
 10
0.0
 20
0.0
 30
0.0
  0
VERTEX
  5
361D3
  8
0
  6
CONTINUOUS
 10
11.907950409704521
 20
2.3291475814779599
 30
0.0
  0
VERTEX
  5
361D4
  8
0
  6
CONTINUOUS
 10
12.248739654318509
 20
1.9257183385265071
 30
0.0
  0
VERTEX
  5
361D5
  8
0
  6
CONTINUOUS
 10
12.312149687699391
 20
1.9257183385265071
 30
0.0
  0
SEQEND
  5
361D6
  8
0
  6
CONTINUOUS
  0
ENDBLK
  5
361D8
  8
0
  0
BLOCK
  8
0
  2
*U144
 70
     1
 10
0.0
 20
0.0
 30
0.0
  3
*U144
  1

  0
TEXT
  5
361DA
  8
0
 10
12.37055691825873
 20
1.862962540436466
 30
0.0
 40
0.125
  1
TL-33
  0
ENDBLK
  5
361DC
  8
0
  0
BLOCK
  8
0
  2
*U145
 70
     1
 10
0.0
 20
0.0
 30
0.0
  3
*U145
  1

  0
INSERT
  5
361DE
  8
0
  6
CONTINUOUS
  2
_OPEN30
 10
18.394001282817442
 20
6.4209189786757861
 30
0.0
 41
0.046875
 42
0.046875
 43
0.046875
 50
123.0920274041645
  0
POLYLINE
  5
361DF
  8
0
  6
CONTINUOUS
 66
     1
 10
0.0
 20
0.0
 30
0.0
  0
VERTEX
  5
361E0
  8
0
  6
CONTINUOUS
 10
18.419594347917641
 20
6.38164735222899
 30
0.0
  0
VERTEX
  5
361E1
  8
0
  6
CONTINUOUS
 10
18.6491653891635
 20
6.0293789490693817
 30
0.0
  0
VERTEX
  5
361E2
  8
0
  6
CONTINUOUS
 10
18.752054828682841
 20
6.0293789490693817
 30
0.0
  0
SEQEND
  5
361E3
  8
0
  6
CONTINUOUS
  0
ENDBLK
  5
361E5
  8
0
  0
BLOCK
  8
0
  2
*U146
 70
     1
 10
0.0
 20
0.0
 30
0.0
  3
*U146
  1

  0
TEXT
  5
361E7
  8
0
 10
18.810462059242191
 20
5.9666231509793421
 30
0.0
 40
0.125
  1
TL-24
  0
ENDBLK
  5
361E9
  8
0
  0
BLOCK
  8
0
  2
*U147
 70
     1
 10
0.0
 20
0.0
 30
0.0
  3
*U147
  1

  0
TEXT
  5
361EB
  8
0
 10
15.59678431273241
 20
2.213317815843554
 30
0.0
 40
0.125
  1
Crown Assembly
  0
TEXT
  5
361EC
  8
0
 10
15.60138867835315
 20
2.0044728863301389
 30
0.0
 40
0.125
  1
TL-665
  0
TEXT
  5
361ED
  8
0
 10
15.59840436730267
 20
1.7940079022464639
 30
0.0
 40
0.125
  1
8-3/8" x 7-7/8"
  0
TEXT
  5
361EE
  8
0
 10
15.59840436730267
 20
1.58354291816279
 30
0.0
 40
0.125
  1
800.66.TAGUE
  0
ENDBLK
  5
361F0
  8
0
  0
BLOCK
  8
0
  2
*U148
 70
     1
 10
0.0
 20
0.0
 30
0.0
  3
*U148
  1

  0
TEXT
  5
361F2
  8
0
 10
7.9349246968354574
 20
1.686007980218635
 30
0.0
 40
0.125
  1
Crown Assembly
  0
TEXT
  5
361F3
  8
0
 10
7.9395290624561934
 20
1.47716305070522
 30
0.0
 40
0.125
  1
TL-667
  0
TEXT
  5
361F4
  8
0
 10
7.93850587009603
 20
1.266698066621545
 30
0.0
 40
0.125
  1
2-5/16" x 3-3/4"
  0
TEXT
  5
361F5
  8
0
 10
7.936544751405715
 20
1.056233082537871
 30
0.0
 40
0.125
  1
800.66.TAGUE
  0
ENDBLK
  5
361F7
  8
0
  0
BLOCK
  8
0
  2
*U149
 70
     1
 10
0.0
 20
0.0
 30
0.0
  3
*U149
  1

  0
INSERT
  5
361F9
  8
0
  6
CONTINUOUS
  2
_OPEN30
 10
7.009055351416122
 20
3.050768134400982
 30
0.0
 41
0.046875
 42
0.046875
 43
0.046875
 50
142.35807926426151
  0
POLYLINE
  5
361FA
  8
0
  6
CONTINUOUS
 66
     1
 10
0.0
 20
0.0
 30
0.0
  0
VERTEX
  5
361FB
  8
0
  6
CONTINUOUS
 10
7.0461729927749328
 20
3.0221404148802331
 30
0.0
  0
VERTEX
  5
361FC
  8
0
  6
CONTINUOUS
 10
7.4803814790067227
 20
2.6872484793391318
 30
0.0
  0
VERTEX
  5
361FD
  8
0
  6
CONTINUOUS
 10
7.5548900131420851
 20
2.679804310467147
 30
0.0
  0
SEQEND
  5
361FE
  8
0
  6
CONTINUOUS
  0
ENDBLK
  5
36200
  8
0
  0
BLOCK
  8
0
  2
*U150
 70
     1
 10
0.0
 20
0.0
 30
0.0
  3
*U150
  1

  0
TEXT
  5
36202
  8
0
 10
7.613297243701429
 20
2.617048512377107
 30
0.0
 40
0.125
  1
TL-71
  0
ENDBLK
  5
36204
  8
0
  0
BLOCK
  8
0
  2
*U151
 70
     1
 10
0.0
 20
0.0
 30
0.0
  3
*U151
  1

  0
INSERT
  5
36206
  8
0
  6
CONTINUOUS
  2
_OPEN30
 10
5.8181306020992452
 20
0.8521781666523793
 30
0.0
 41
0.046875
 42
0.046875
 43
0.046875
 50
142.35807926426151
  0
POLYLINE
  5
36207
  8
0
  6
CONTINUOUS
 66
     1
 10
0.0
 20
0.0
 30
0.0
  0
VERTEX
  5
36208
  8
0
  6
CONTINUOUS
 10
5.8552482434580551
 20
0.8235504471316302
 30
0.0
  0
VERTEX
  5
36209
  8
0
  6
CONTINUOUS
 10
6.2894567296898449
 20
0.4886585115905291
 30
0.0
  0
VERTEX
  5
3620A
  8
0
  6
CONTINUOUS
 10
6.3639652638252073
 20
0.4812143427185447
 30
0.0
  0
SEQEND
  5
3620B
  8
0
  6
CONTINUOUS
  0
ENDBLK
  5
3620D
  8
0
  0
BLOCK
  8
0
  2
*U152
 70
     1
 10
0.0
 20
0.0
 30
0.0
  3
*U152
  1

  0
TEXT
  5
3620F
  8
0
 10
1.551308446705467
 20
9.4290439625366549
 30
0.0
 40
0.125
  1
Crown Moulding Backer
  0
TEXT
  5
36210
  8
0
 10
1.5559128123262029
 20
9.2201990330232402
 30
0.0
 40
0.125
  1
TL-539
  0
TEXT
  5
36211
  8
0
 10
1.552757969215699
 20
9.0097340489395652
 30
0.0
 40
0.125
  1
9/16" x 3-5/16"
  0
TEXT
  5
36212
  8
0
 10
1.5529285012757259
 20
8.7992690648558902
 30
0.0
 40
0.125
  1
800.66.TAGUE
  0
ENDBLK
  5
36214
  8
0
  0
BLOCK
  8
0
  2
*U153
 70
     1
 10
0.0
 20
0.0
 30
0.0
  3
*U153
  1

  0
TEXT
  5
36216
  8
0
 10
1.787541778833746
 20
0.8152779313428641
 30
0.0
 40
0.125
  1
Crown Moulding
  0
TEXT
  5
36217
  8
0
 10
1.7921461444544831
 20
0.6064330018294492
 30
0.0
 40
0.125
  1
TL-23
  0
TEXT
  5
36218
  8
0
 10
1.787968108983814
 20
0.3959680177457746
 30
0.0
 40
0.125
  1
7/8" x 3-3/16"
  0
TEXT
  5
36219
  8
0
 10
1.7891618334040049
 20
0.1855030336621002
 30
0.0
 40
0.125
  1
800.66.TAGUE
  0
ENDBLK
  5
3621B
  8
0
  0
BLOCK
  8
0
  2
*U154
 70
     1
 10
0.0
 20
0.0
 30
0.0
  3
*U154
  1

  0
TEXT
  5
3621D
  8
0
 10
2.2018711328786691
 20
0.9729018122572075
 30
0.0
 40
0.125
  1
Crown
  0
TEXT
  5
3621E
  8
0
 10
2.2064754984994059
 20
0.7640568827437924
 30
0.0
 40
0.125
  1
TL-24
  0
TEXT
  5
3621F
  8
0
 10
2.191553943247019
 20
0.5535918986601179
 30
0.0
 40
0.125
  1
1" x 3-1/2"
  0
TEXT
  5
36220
  8
0
 10
2.2034911874489289
 20
0.3431269145764435
 30
0.0
 40
0.125
  1
800.66.TAGUE
  0
ENDBLK
  5
36222
  8
0
  0
BLOCK
  8
0
  2
*U155
 70
     1
 10
0.0
 20
0.0
 30
0.0
  3
*U155
  1

  0
TEXT
  5
36224
  8
0
 10
2.4799582647584422
 20
1.4094768675851279
 30
0.0
 40
0.125
  1
Crown Moulding
  0
TEXT
  5
36225
  8
0
 10
2.484562630379179
 20
1.200631938071713
 30
0.0
 40
0.125
  1
TL-25
  0
TEXT
  5
36226
  8
0
 10
2.4696410751267912
 20
0.9901669539880392
 30
0.0
 40
0.125
  1
1-1/8" x 4-13/16"
  0
TEXT
  5
36227
  8
0
 10
2.4815783193287011
 20
0.7797019699043649
 30
0.0
 40
0.125
  1
800.66.TAGUE
  0
ENDBLK
  5
36229
  8
0
  0
BLOCK
  8
0
  2
*U156
 70
     1
 10
0.0
 20
0.0
 30
0.0
  3
*U156
  1

  0
TEXT
  5
3622B
  8
0
 10
2.2862448005914522
 20
8.6801380419453995
 30
0.0
 40
0.125
  1
Crown Moulding
  0
TEXT
  5
3622C
  8
0
 10
2.290849166212189
 20
8.4712931124319848
 30
0.0
 40
0.125
  1
TL-26
  0
TEXT
  5
3622D
  8
0
 10
2.28667113074152
 20
8.2608281283483098
 30
0.0
 40
0.125
  1
7/8" x 4-7/16"
  0
TEXT
  5
3622E
  8
0
 10
2.2878648551617111
 20
8.0503631442646348
 30
0.0
 40
0.125
  1
800.66.TAGUE
  0
ENDBLK
  5
36230
  8
0
  0
BLOCK
  8
0
  2
*U157
 70
     1
 10
0.0
 20
0.0
 30
0.0
  3
*U157
  1

  0
TEXT
  5
36232
  8
0
 10
2.47366955595712
 20
1.8485788132224039
 30
0.0
 40
0.125
  1
Crown Moulding
  0
TEXT
  5
36233
  8
0
 10
2.4782739215778569
 20
1.639733883708989
 30
0.0
 40
0.125
  1
TL-48
  0
TEXT
  5
36234
  8
0
 10
2.4633523663254699
 20
1.4292688996253149
 30
0.0
 40
0.125
  1
11/16" x 5-1/4"
  0
TEXT
  5
36235
  8
0
 10
2.4752896105273798
 20
1.2188039155416399
 30
0.0
 40
0.125
  1
800.66.TAGUE
  0
ENDBLK
  5
36237
  8
0
  0
BLOCK
  8
0
  2
*U158
 70
     1
 10
0.0
 20
0.0
 30
0.0
  3
*U158
  1

  0
TEXT
  5
36239
  8
0
 10
2.3704616662601881
 20
1.5393707616764389
 30
0.0
 40
0.125
  1
Crown Moulding
  0
TEXT
  5
3623A
  8
0
 10
2.3750660318809249
 20
1.331037428343105
 30
0.0
 40
0.125
  1
TL-47
  0
TEXT
  5
3623B
  8
0
 10
2.3601444766285371
 20
1.1205724442594309
 30
0.0
 40
0.125
  1
11/16" x 4-5/8"
  0
TEXT
  5
3623C
  8
0
 10
2.372081720830447
 20
0.9101074601757571
 30
0.0
 40
0.125
  1
800.66.TAGUE
  0
ENDBLK
  5
3623E
  8
0
  0
BLOCK
  8
0
  2
*U159
 70
     1
 10
0.0
 20
0.0
 30
0.0
  3
*U159
  1

  0
TEXT
  5
36240
  8
0
 10
1.921005453794099
 20
1.0606312480006339
 30
0.0
 40
0.125
  1
Crown Moulding
  0
TEXT
  5
36241
  8
0
 10
1.9256098194148361
 20
0.851786318487219
 30
0.0
 40
0.125
  1
TL-49
  0
TEXT
  5
36242
  8
0
 10
1.922454976304331
 20
0.6413213344035446
 30
0.0
 40
0.125
  1
9/16" x 3-5/8"
  0
TEXT
  5
36243
  8
0
 10
1.922625508364358
 20
0.4308563503198702
 30
0.0
 40
0.125
  1
800.66.TAGUE
  0
ENDBLK
  5
36245
  8
0
  0
BLOCK
  8
0
  2
*U160
 70
     1
 10
0.0
 20
0.0
 30
0.0
  3
*U160
  1

  0
TEXT
  5
36247
  8
0
 10
1.679185999902846
 20
0.8615441314963324
 30
0.0
 40
0.125
  1
Crown Moulding
  0
TEXT
  5
36248
  8
0
 10
1.6837903655235831
 20
0.6526992019829172
 30
0.0
 40
0.125
  1
TL-53
  0
TEXT
  5
36249
  8
0
 10
1.680635522413078
 20
0.4422342178992428
 30
0.0
 40
0.125
  1
9/16" x 2-5/8"
  0
TEXT
  5
3624A
  8
0
 10
1.6808060544731049
 20
0.2317692338155683
 30
0.0
 40
0.125
  1
800.66.TAGUE
  0
ENDBLK
  5
3624C
  8
0
  0
BLOCK
  8
0
  2
*U161
 70
     1
 10
0.0
 20
0.0
 30
0.0
  3
*U161
  1

  0
TEXT
  5
3624E
  8
0
 10
2.0194001572207059
 20
1.4664951753760691
 30
0.0
 40
0.125
  1
Crown Moulding
  0
TEXT
  5
3624F
  8
0
 10
2.0240045228414432
 20
1.2581618420427361
 30
0.0
 40
0.125
  1
TL-547
  0
TEXT
  5
36250
  8
0
 10
2.020764413700924
 20
1.0476968579590611
 30
0.0
 40
0.125
  1
3/4" x 4-1/4"
  0
TEXT
  5
36251
  8
0
 10
2.0210202117909648
 20
0.8372318738753872
 30
0.0
 40
0.125
  1
800.66.TAGUE
  0
ENDBLK
  5
36253
  8
0
  0
BLOCK
  8
0
  2
*U162
 70
     1
 10
0.0
 20
0.0
 30
0.0
  3
*U162
  1

  0
TEXT
  5
36255
  8
0
 10
2.4033085465245891
 20
1.114063668743499
 30
0.0
 40
0.125
  1
Crown Moulding
  0
TEXT
  5
36256
  8
0
 10
2.407912912145326
 20
0.9052187392300845
 30
0.0
 40
0.125
  1
TL-735
  0
TEXT
  5
36257
  8
0
 10
2.3929913568929391
 20
0.6947537551464099
 30
0.0
 40
0.125
  1
1-1/16" x 4-13/16"
  0
TEXT
  5
36258
  8
0
 10
2.4049286010948481
 20
0.4842887710627356
 30
0.0
 40
0.125
  1
800.66.TAGUE
  0
ENDBLK
  5
3625A
  8
0
  0
BLOCK
  8
0
  2
*U163
 70
     1
 10
0.0
 20
0.0
 30
0.0
  3
*U163
  1

  0
TEXT
  5
3625C
  8
0
 10
3.4682612700969222
 20
1.825759911853895
 30
0.0
 40
0.125
  1
Crown Moulding
  0
TEXT
  5
3625D
  8
0
 10
3.472865635717659
 20
1.61691498234048
 30
0.0
 40
0.125
  1
TL-2009
  0
TEXT
  5
3625E
  8
0
 10
3.4579440804652708
 20
1.4064499982568051
 30
0.0
 40
0.125
  1
1-1/4" x 7-11/16"
  0
TEXT
  5
3625F
  8
0
 10
3.4698813246671811
 20
1.195985014173131
 30
0.0
 40
0.125
  1
800.66.TAGUE
  0
ENDBLK
  5
36261
  8
0
  0
BLOCK
  8
0
  2
*U164
 70
     1
 10
0.0
 20
0.0
 30
0.0
  3
*U164
  1

  0
TEXT
  5
36263
  8
0
 10
1.699788297753547
 20
0.7242404957799115
 30
0.0
 40
0.125
  1
Crown Moulding
  0
TEXT
  5
36264
  8
0
 10
1.7043926633742841
 20
0.5153955662664962
 30
0.0
 40
0.125
  1
TL-2013
  0
TEXT
  5
36265
  8
0
 10
1.701237820263779
 20
0.3049305821828217
 30
0.0
 40
0.125
  1
9/16" x 2-1/8"
  0
TEXT
  5
36266
  8
0
 10
1.7014083523238059
 20
0.0944655980991474
 30
0.0
 40
0.125
  1
800.66.TAGUE
  0
ENDBLK
  5
36268
  8
0
  0
BLOCK
  8
0
  2
*U165
 70
     1
 10
0.0
 20
0.0
 30
0.0
  3
*U165
  1

  0
TEXT
  5
3626A
  8
0
 10
2.6009295079307759
 20
1.7846010298159329
 30
0.0
 40
0.125
  1
Crown Moulding
  0
TEXT
  5
3626B
  8
0
 10
2.6055338735515128
 20
1.575756100302518
 30
0.0
 40
0.125
  1
TL-2046
  0
TEXT
  5
3626C
  8
0
 10
2.5906123182991259
 20
1.365291116218843
 30
0.0
 40
0.125
  1
1-9/16" x 6-3/8"
  0
TEXT
  5
3626D
  8
0
 10
2.6025495625010362
 20
1.1548261321351689
 30
0.0
 40
0.125
  1
800.66.TAGUE
  0
ENDBLK
  5
3626F
  8
0
  0
BLOCK
  8
0
  2
*U166
 70
     1
 10
0.0
 20
0.0
 30
0.0
  3
*U166
  1

  0
TEXT
  5
36271
  8
0
 10
2.7666159371219452
 20
1.701425858604936
 30
0.0
 40
0.125
  1
Crown Moulding
  0
TEXT
  5
36272
  8
0
 10
2.7712203027426821
 20
1.4925809290915211
 30
0.0
 40
0.125
  1
TL-604
  0
TEXT
  5
36273
  8
0
 10
2.7562987474902951
 20
1.282115945007847
 30
0.0
 40
0.125
  1
1-5/16" x 6-3/4"
  0
TEXT
  5
36274
  8
0
 10
2.768235991692205
 20
1.071650960924172
 30
0.0
 40
0.125
  1
800.66.TAGUE
  0
ENDBLK
  5
36276
  8
0
  0
BLOCK
  8
0
  2
*U167
 70
     1
 10
0.0
 20
0.0
 30
0.0
  3
*U167
  1

  0
TEXT
  5
36278
  8
0
 10
2.211938273622001
 20
0.9544384301919013
 30
0.0
 40
0.125
  1
Crown
  0
TEXT
  5
36279
  8
0
 10
2.216542639242737
 20
0.7455935006784862
 30
0.0
 40
0.125
  1
TL-718
  0
TEXT
  5
3627A
  8
0
 10
2.2184184919030381
 20
0.536748571165071
 30
0.0
 40
0.125
  1
4" x 6"
  0
TEXT
  5
3627B
  8
0
 10
2.2135583281922599
 20
0.3262835870813966
 30
0.0
 40
0.125
  1
800.66.TAGUE
  0
ENDBLK
  5
3627D
  8
0
  0
BLOCK
  8
0
  2
*U168
 70
     1
 10
0.0
 20
0.0
 30
0.0
  3
*U168
  1

  0
TEXT
  5
3627F
  8
0
 10
3.6576409617732439
 20
2.7966954322929651
 30
0.0
 40
0.125
  1
Crown
  0
TEXT
  5
36280
  8
0
 10
3.6622453273939808
 20
2.58785050277955
 30
0.0
 40
0.125
  1
TL-719
  0
TEXT
  5
36281
  8
0
 10
3.6580672919233121
 20
2.377385518695875
 30
0.0
 40
0.125
  1
7-1/16" x 7-9/16"
  0
TEXT
  5
36282
  8
0
 10
3.6592610163435029
 20
2.1669205346122009
 30
0.0
 40
0.125
  1
800.66.TAGUE
  0
ENDBLK
  5
36284
  8
0
  0
BLOCK
  8
0
  2
*U169
 70
     1
 10
0.0
 20
0.0
 30
0.0
  3
*U169
  1

  0
TEXT
  5
36286
  8
0
 10
2.6158106459738848
 20
1.2432442436281841
 30
0.0
 40
0.125
  1
Crown
  0
TEXT
  5
36287
  8
0
 10
2.6204150115946221
 20
1.0343993141147689
 30
0.0
 40
0.125
  1
TL-549
  0
TEXT
  5
36288
  8
0
 10
2.6054934563422338
 20
0.8239343300310954
 30
0.0
 40
0.125
  1
1" x 4-3/4"
  0
TEXT
  5
36289
  8
0
 10
2.6174307005441442
 20
0.6134693459474211
 30
0.0
 40
0.125
  1
800.66.TAGUE
  0
ENDBLK
  5
3628B
  8
0
  0
BLOCK
  8
0
  2
*U170
 70
     1
 10
0.0
 20
0.0
 30
0.0
  3
*U170
  1

  0
TEXT
  5
3628D
  8
0
 10
2.5671209103460102
 20
1.7078769860001031
 30
0.0
 40
0.125
  1
Crown Moulding
  0
TEXT
  5
3628E
  8
0
 10
2.571725275966747
 20
1.4990320564866879
 30
0.0
 40
0.125
  1
TL-737
  0
TEXT
  5
3628F
  8
0
 10
2.5568037207143601
 20
1.2885670724030129
 30
0.0
 40
0.125
  1
1-1/16" x 5-3/4"
  0
TEXT
  5
36290
  8
0
 10
2.56874096491627
 20
1.0781020883193391
 30
0.0
 40
0.125
  1
800.66.TAGUE
  0
ENDBLK
  5
36292
  8
0
  0
BLOCK
  8
0
  2
*U171
 70
     1
 10
0.0
 20
0.0
 30
0.0
  3
*U171
  1

  0
TEXT
  5
36294
  8
0
 10
2.9532445898214279
 20
1.283909908665593
 30
0.0
 40
0.125
  1
Crown Moulding
  0
TEXT
  5
36295
  8
0
 10
2.9578489554421652
 20
1.075064979152178
 30
0.0
 40
0.125
  1
TL-2010
  0
TEXT
  5
36296
  8
0
 10
2.9429274001897769
 20
0.8645999950685043
 30
0.0
 40
0.125
  1
1-1/2" x 6-1/16"
  0
TEXT
  5
36297
  8
0
 10
2.9548646443916868
 20
0.6541350109848299
 30
0.0
 40
0.125
  1
800.66.TAGUE
  0
ENDBLK
  5
36299
  8
0
  0
BLOCK
  8
0
  2
*U172
 70
     1
 10
0.0
 20
0.0
 30
0.0
  3
*U172
  1

  0
TEXT
  5
3629B
  8
0
 10
3.035497978571446
 20
1.453183634474287
 30
0.0
 40
0.125
  1
Crown Moulding
  0
TEXT
  5
3629C
  8
0
 10
3.0401023441921828
 20
1.2443387049608721
 30
0.0
 40
0.125
  1
TL-2011
  0
TEXT
  5
3629D
  8
0
 10
3.0251807889397959
 20
1.0338737208771971
 30
0.0
 40
0.125
  1
1-1/16" x 6-3/8"
  0
TEXT
  5
3629E
  8
0
 10
3.0371180331417058
 20
0.8234087367935234
 30
0.0
 40
0.125
  1
800.66.TAGUE
  0
ENDBLK
  5
362A0
  8
0
  0
BLOCK
  8
0
  2
*U173
 70
     1
 10
0.0
 20
0.0
 30
0.0
  3
*U173
  1

  0
TEXT
  5
362A2
  8
0
 10
-367.27142728348662
 20
857.76277653735178
 30
0.0
 40
0.125
  1
Crown Moulding
  0
TEXT
  5
362A3
  8
0
 10
-367.26682291786591
 20
857.55393160783831
 30
0.0
 40
0.125
  1
TL-2011
  0
TEXT
  5
362A4
  8
0
 10
-367.28174447311829
 20
857.34346662375469
 30
0.0
 40
0.125
  1
1-1/16" x 6-3/8"
  0
TEXT
  5
362A5
  8
0
 10
-367.26980722891642
 20
857.13300163967108
 30
0.0
 40
0.125
  1
800.66.TAGUE
  0
ENDBLK
  5
362A7
  8
0
  0
ENDSEC
  0
SECTION
  2
ENTITIES
  0
INSERT
  5
35FB7
  8
0
  2
*U173
 10
0.0
 20
0.0
 30
0.0
  0
LINE
  5
35FB8
  8
0
 10
-366.37538238795571
 20
860.87208177799334
 30
0.0
 11
-370.30692368359053
 21
856.85991138667623
 31
0.0
  0
LINE
  5
35FB9
  8
0
 10
-370.30692368359053
 20
856.30959294027491
 30
0.0
 11
-369.35860256848451
 21
856.30959294027491
 31
0.0
  0
LINE
  5
35FBA
  8
0
 10
-369.35860256848451
 20
856.30959294027491
 30
0.0
 11
-369.35860256848451
 21
857.01224546012611
 31
0.0
  0
LINE
  5
35FBB
  8
0
 10
-365.87674503577881
 20
859.8628573343226
 30
0.0
 11
-365.87674503577881
 21
860.87208177799334
 31
0.0
  0
ARC
  5
35FBC
  8
0
 10
-369.30966668100052
 20
858.37759042604182
 30
0.0
 40
1.366221650039074
 50
267.94731718925527
 51
319.34883593157969
  0
ARC
  5
35FBD
  8
0
 10
-371.70222679628279
 20
860.21895033162252
 30
0.0
 40
4.3839703788243458
 50
321.46154739105651
 51
334.1831783782024
  0
ARC
  5
35FBE
  8
0
 10
-364.23052660269678
 20
856.60408595751483
 30
0.0
 40
3.9162433690938441
 50
132.85731764991911
 51
154.18058763687981
  0
ARC
  5
35FBF
  8
0
 10
-365.96097231341707
 20
858.55547857892543
 30
0.0
 40
1.3100890978720441
 50
86.313839838764153
 51
135.42912376376691
  0
LINE
  5
35FC0
  8
0
 10
-370.30692368359053
 20
856.30959294027491
 30
0.0
 11
-370.30692368359053
 21
856.85991138667623
 31
0.0
  0
LINE
  5
35FC1
  8
0
 10
-365.87674503577881
 20
860.87208177799334
 30
0.0
 11
-366.37538238795571
 21
860.87208177799334
 31
0.0
  0
VIEWPORT
  5
BADA
 67
     1
  8
0
 10
5.249999665167536
 20
4.0168608648543138
 30
0.0
 40
16.023543186357209
 41
8.0117715931786062
 68
     2
 69
     1
1001
ACAD
1000
MVIEW
1002
{
1070
    16
1010
0.0
1020
0.0
1030
0.0
1010
0.0
1020
0.0
1030
1.0
1040
0.0
1040
8.0117715931786062
1040
5.249999665167536
1040
4.0168608648543138
1040
50.0
1040
0.0
1040
0.0
1070
     0
1070
   100
1070
     1
1070
     1
1070
     0
1070
     0
1070
     0
1070
     0
1040
0.0
1040
0.0
1040
0.0
1040
0.5
1040
0.5
1040
0.5
1040
0.5
1070
     0
1002
{
1002
}
1002
}
  0
VIEWPORT
  5
BADD
 67
     1
  8
0
 10
5.2499996294871929
 20
4.0166741807634683
 30
0.0
 40
10.44245679893058
 41
7.8813805131999892
 68
     1
 69
     2
1001
ACAD
1000
MVIEW
1002
{
1070
    16
1010
0.0
1020
0.0
1030
0.0
1010
0.0
1020
0.0
1030
1.0
1040
0.0
1040
7.8813805329733588
1040
-367.91068226081393
1040
858.36800062925317
1040
50.0
1040
0.0
1040
0.0
1070
     0
1070
   100
1070
     1
1070
     2
1070
     0
1070
     0
1070
     0
1070
     0
1040
0.0
1040
0.0
1040
0.0
1040
0.5
1040
0.5
1040
0.5
1040
0.5
1070
     0
1002
{
1002
}
1002
}
  0
ENDSEC
  0
EOF
