  0
SECTION
  2
HEADER
  9
$ACADVER
  1
AC1009
  9
$INSBASE
 10
0.0
 20
0.0
 30
0.0
  9
$EXTMIN
 10
-389.93991053657271
 20
834.65667183693085
 30
0.0
  9
$EXTMAX
 10
-383.9430257495203
 20
843.05086629103664
 30
0.0
  9
$LIMMIN
 10
0.0
 20
0.0
  9
$LIMMAX
 10
1500.0
 20
1500.0
  9
$ORTHOMODE
 70
     0
  9
$REGENMODE
 70
     1
  9
$FILLMODE
 70
     1
  9
$QTEXTMODE
 70
     0
  9
$MIRRTEXT
 70
     1
  9
$DRAGMODE
 70
     2
  9
$LTSCALE
 40
1.0
  9
$OSMODE
 70
    37
  9
$ATTMODE
 70
     1
  9
$TEXTSIZE
 40
1.5
  9
$TRACEWID
 40
0.05
  9
$TEXTSTYLE
  7
STANDARD
  9
$CLAYER
  8
0
  9
$CELTYPE
  6
BYLAYER
  9
$CECOLOR
 62
   256
  9
$DIMSCALE
 40
1.0
  9
$DIMASZ
 40
0.75
  9
$DIMEXO
 40
1.5
  9
$DIMDLI
 40
2.0
  9
$DIMRND
 40
0.0
  9
$DIMDLE
 40
0.0
  9
$DIMEXE
 40
1.0
  9
$DIMTP
 40
0.0
  9
$DIMTM
 40
0.0
  9
$DIMTXT
 40
1.5
  9
$DIMCEN
 40
2.0
  9
$DIMTSZ
 40
0.0
  9
$DIMTOL
 70
     0
  9
$DIMLIM
 70
     0
  9
$DIMTIH
 70
     0
  9
$DIMTOH
 70
     0
  9
$DIMSE1
 70
     0
  9
$DIMSE2
 70
     0
  9
$DIMTAD
 70
     1
  9
$DIMZIN
 70
     0
  9
$DIMBLK
  1
ARCHTICK
  9
$DIMASO
 70
     1
  9
$DIMSHO
 70
     1
  9
$DIMPOST
  1
"
  9
$DIMAPOST
  1

  9
$DIMALT
 70
     0
  9
$DIMALTD
 70
     2
  9
$DIMALTF
 40
25.399999999999999
  9
$DIMLFAC
 40
1.0
  9
$DIMTOFL
 70
     0
  9
$DIMTVP
 40
0.0
  9
$DIMTIX
 70
     1
  9
$DIMSOXD
 70
     0
  9
$DIMSAH
 70
     0
  9
$DIMBLK1
  1

  9
$DIMBLK2
  1

  9
$DIMSTYLE
  2
THREE_QUARTER_INCH_SCALE
  9
$DIMCLRD
 70
     0
  9
$DIMCLRE
 70
     0
  9
$DIMCLRT
 70
     0
  9
$DIMTFAC
 40
1.0
  9
$DIMGAP
 40
1.0
  9
$LUNITS
 70
     2
  9
$LUPREC
 70
     4
  9
$SKETCHINC
 40
0.1
  9
$FILLETRAD
 40
0.0
  9
$AUNITS
 70
     0
  9
$AUPREC
 70
     0
  9
$MENU
  1
.
  9
$ELEVATION
 40
0.0
  9
$PELEVATION
 40
0.0
  9
$THICKNESS
 40
0.0
  9
$LIMCHECK
 70
     0
  9
$BLIPMODE
 70
     0
  9
$CHAMFERA
 40
0.5
  9
$CHAMFERB
 40
0.5
  9
$SKPOLY
 70
     0
  9
$TDCREATE
 40
2452089.395738773
  9
$TDUPDATE
 40
2453612.3417762499
  9
$TDINDWG
 40
1.0231453240999999
  9
$TDUSRTIMER
 40
1.0231449653
  9
$USRTIMER
 70
     1
  9
$ANGBASE
 50
0.0
  9
$ANGDIR
 70
     0
  9
$PDMODE
 70
     0
  9
$PDSIZE
 40
10.0
  9
$PLINEWID
 40
0.0
  9
$COORDS
 70
     1
  9
$SPLFRAME
 70
     0
  9
$SPLINETYPE
 70
     6
  9
$SPLINESEGS
 70
     8
  9
$ATTDIA
 70
     0
  9
$ATTREQ
 70
     1
  9
$HANDLING
 70
     1
  9
$HANDSEED
  5
F817
  9
$SURFTAB1
 70
     6
  9
$SURFTAB2
 70
     6
  9
$SURFTYPE
 70
     6
  9
$SURFU
 70
     6
  9
$SURFV
 70
     6
  9
$UCSNAME
  2

  9
$UCSORG
 10
0.0
 20
0.0
 30
0.0
  9
$UCSXDIR
 10
1.0
 20
0.0
 30
0.0
  9
$UCSYDIR
 10
0.0
 20
1.0
 30
0.0
  9
$PUCSNAME
  2

  9
$PUCSORG
 10
0.0
 20
0.0
 30
0.0
  9
$PUCSXDIR
 10
1.0
 20
0.0
 30
0.0
  9
$PUCSYDIR
 10
0.0
 20
1.0
 30
0.0
  9
$USERI1
 70
     0
  9
$USERI2
 70
     0
  9
$USERI3
 70
     0
  9
$USERI4
 70
     0
  9
$USERI5
 70
     0
  9
$USERR1
 40
0.0
  9
$USERR2
 40
0.0
  9
$USERR3
 40
0.0
  9
$USERR4
 40
0.0
  9
$USERR5
 40
0.0
  9
$WORLDVIEW
 70
     1
  9
$SHADEDGE
 70
     3
  9
$SHADEDIF
 70
    70
  9
$TILEMODE
 70
     0
  9
$MAXACTVP
 70
    64
  9
$PLIMCHECK
 70
     0
  9
$PEXTMIN
 10
0.0282895744820628
 20
0.0759353784799721
 30
-0.0015258207003583
  9
$PEXTMAX
 10
10.47170975585299
 20
7.9577863512286546
 30
0.0000000349246037
  9
$PLIMMIN
 10
-0.1682389550263349
 20
-0.2033427855578579
  9
$PLIMMAX
 10
10.754640548407011
 20
8.2370640492290015
  9
$UNITMODE
 70
     0
  9
$VISRETAIN
 70
     1
  9
$PLINEGEN
 70
     0
  9
$PSLTSCALE
 70
     1
  0
ENDSEC
  0
SECTION
  2
TABLES
  0
TABLE
  2
VPORT
 70
     1
  0
VPORT
  2
*ACTIVE
 70
     0
 10
0.0
 20
0.0
 11
1.0
 21
1.0
 12
-386.52380251144001
 22
838.09204166179234
 13
0.0
 23
0.0
 14
0.5
 24
0.5
 15
0.5
 25
0.5
 16
0.0
 26
0.0
 36
1.0
 17
0.0
 27
0.0
 37
0.0
 40
3.930952126162941
 41
2.0226628895184122
 42
50.0
 43
0.0
 44
0.0
 50
0.0
 51
0.0
 71
     0
 72
   100
 73
     1
 74
     2
 75
     0
 76
     0
 77
     0
 78
     0
  0
ENDTAB
  0
TABLE
  2
LTYPE
 70
     1
  0
LTYPE
  2
CONTINUOUS
 70
     0
  3
Solid line
 72
    65
 73
     0
 40
0.0
  0
ENDTAB
  0
TABLE
  2
LAYER
 70
    10
  0
LAYER
  2
0
 70
     0
 62
     7
  6
CONTINUOUS
  0
LAYER
  2
DEFPOINTS
 70
     0
 62
     7
  6
CONTINUOUS
  0
LAYER
  2
FRAME_200
 70
     0
 62
     8
  6
CONTINUOUS
  0
LAYER
  2
FRAME_070
 70
     0
 62
     5
  6
CONTINUOUS
  0
LAYER
  2
FRAME_050
 70
     0
 62
     6
  6
CONTINUOUS
  0
LAYER
  2
TITLE_BLOCK
 70
     0
 62
     7
  6
CONTINUOUS
  0
LAYER
  2
FRAME_025
 70
     0
 62
     7
  6
CONTINUOUS
  0
LAYER
  2
VIEWPORT
 70
     0
 62
     7
  6
CONTINUOUS
  0
LAYER
  2
PROF
 70
     0
 62
     7
  6
CONTINUOUS
  0
LAYER
  2
PROFILE
 70
     0
 62
     7
  6
CONTINUOUS
  0
ENDTAB
  0
TABLE
  2
STYLE
 70
     2
  0
STYLE
  2
STANDARD
 70
     0
 40
0.0
 41
1.0
 50
0.0
 71
     0
 42
1.5
  3
txt
  4

  0
STYLE
  2
ISO_PROPORTIONAL
 70
     0
 40
0.0
 41
1.0
 50
0.0
 71
     0
 42
2.5
  3
isocp.shx
  4

  0
ENDTAB
  0
TABLE
  2
VIEW
 70
     0
  0
ENDTAB
  0
TABLE
  2
UCS
 70
     0
  0
ENDTAB
  0
TABLE
  2
APPID
 70
     6
  0
APPID
  2
ACAD
 70
     0
  0
APPID
  2
DCO15
 70
     0
  0
APPID
  2
ACAD_EXEMPT_FROM_CAD_STANDARDS
 70
     0
  0
APPID
  2
ACAD_PSEXT
 70
     0
  0
APPID
  2
CONTENTBLOCKDESCRIPTION
 70
     0
  0
APPID
  2
CONTENTBLOCKICON
 70
     0
  0
ENDTAB
  0
TABLE
  2
DIMSTYLE
 70
    10
  0
DIMSTYLE
  2
FULL_SCALE
 70
     0
  3
"
  4

  5

  6

  7

 40
1.0
 41
0.046875
 42
0.09375
 43
0.125
 44
0.0625
 45
0.0
 46
0.0
 47
0.0
 48
0.0
140
0.125
141
0.125
142
0.0
143
25.399999999999999
144
1.0
145
0.0
146
1.0
147
0.0625
 71
     0
 72
     0
 73
     0
 74
     0
 75
     0
 76
     0
 77
     1
 78
     0
170
     0
171
     2
172
     0
173
     0
174
     1
175
     0
176
     0
177
     0
178
     0
  0
DIMSTYLE
  2
HALF_SCALE
 70
     0
  3
"
  4

  5

  6

  7

 40
1.0
 41
0.09375
 42
0.1875
 43
0.25
 44
0.125
 45
0.0
 46
0.0
 47
0.0
 48
0.0
140
0.25
141
0.25
142
0.0
143
25.399999999999999
144
1.0
145
0.0
146
1.0
147
0.125
 71
     0
 72
     0
 73
     0
 74
     0
 75
     0
 76
     0
 77
     1
 78
     0
170
     0
171
     2
172
     0
173
     0
174
     1
175
     0
176
     0
177
     0
178
     0
  0
DIMSTYLE
  2
INCH_SCALE
 70
     0
  3
"
  4

  5

  6

  7

 40
1.0
 41
0.5625
 42
1.125
 43
1.5
 44
0.75
 45
0.0
 46
0.0
 47
0.0
 48
0.0
140
1.125
141
1.5
142
0.0
143
25.399999999999999
144
1.0
145
0.0
146
1.0
147
0.75
 71
     0
 72
     0
 73
     0
 74
     0
 75
     0
 76
     0
 77
     1
 78
     0
170
     0
171
     2
172
     0
173
     0
174
     1
175
     0
176
     0
177
     0
178
     0
  0
DIMSTYLE
  2
THREE_QUARTER_INCH_SCALE
 70
     0
  3
"
  4

  5

  6

  7

 40
1.0
 41
0.75
 42
1.5
 43
2.0
 44
1.0
 45
0.0
 46
0.0
 47
0.0
 48
0.0
140
1.5
141
2.0
142
0.0
143
25.399999999999999
144
1.0
145
0.0
146
1.0
147
1.0
 71
     0
 72
     0
 73
     0
 74
     0
 75
     0
 76
     0
 77
     1
 78
     0
170
     0
171
     2
172
     0
173
     0
174
     1
175
     0
176
     0
177
     0
178
     0
  0
DIMSTYLE
  2
ZHALF_INCH_SCALE
 70
     0
  3
"
  4

  5

  6

  7

 40
1.0
 41
1.125
 42
2.25
 43
3.0
 44
1.5
 45
0.0
 46
0.0
 47
0.0
 48
0.0
140
2.25
141
3.0
142
0.0
143
25.399999999999999
144
1.0
145
0.0
146
1.0
147
1.5
 71
     0
 72
     0
 73
     0
 74
     0
 75
     0
 76
     0
 77
     1
 78
     0
170
     0
171
     2
172
     0
173
     0
174
     1
175
     0
176
     0
177
     0
178
     0
  0
DIMSTYLE
  2
FULL_SCALE0
 70
     0
  3
"
  4

  5
ARCHTICK
  6

  7

 40
1.0
 41
0.046875
 42
0.09375
 43
0.125
 44
0.0625
 45
0.0
 46
0.0
 47
0.0
 48
0.0
140
0.125
141
0.125
142
0.0
143
25.399999999999999
144
1.0
145
0.0
146
1.0
147
0.0625
 71
     0
 72
     0
 73
     0
 74
     0
 75
     0
 76
     0
 77
     1
 78
     0
170
     0
171
     2
172
     0
173
     0
174
     1
175
     0
176
     0
177
     0
178
     0
  0
DIMSTYLE
  2
HALF_SCALE0
 70
     0
  3
"
  4

  5
ARCHTICK
  6

  7

 40
1.0
 41
0.09375
 42
0.1875
 43
0.25
 44
0.125
 45
0.0
 46
0.0
 47
0.0
 48
0.0
140
0.25
141
0.25
142
0.0
143
25.399999999999999
144
1.0
145
0.0
146
1.0
147
0.125
 71
     0
 72
     0
 73
     0
 74
     0
 75
     0
 76
     0
 77
     1
 78
     0
170
     0
171
     2
172
     0
173
     0
174
     1
175
     0
176
     0
177
     0
178
     0
  0
DIMSTYLE
  2
INCH_SCALE0
 70
     0
  3
"
  4

  5
ARCHTICK
  6

  7

 40
1.0
 41
0.5625
 42
1.125
 43
1.5
 44
0.75
 45
0.0
 46
0.0
 47
0.0
 48
0.0
140
1.125
141
1.5
142
0.0
143
25.399999999999999
144
1.0
145
0.0
146
1.0
147
0.75
 71
     0
 72
     0
 73
     0
 74
     0
 75
     0
 76
     0
 77
     1
 78
     0
170
     0
171
     2
172
     0
173
     0
174
     1
175
     0
176
     0
177
     0
178
     0
  0
DIMSTYLE
  2
THREE_QUARTER_INCH_SCALE0
 70
     0
  3
"
  4

  5
ARCHTICK
  6

  7

 40
1.0
 41
0.75
 42
1.5
 43
2.0
 44
1.0
 45
0.0
 46
0.0
 47
0.0
 48
0.0
140
1.5
141
2.0
142
0.0
143
25.399999999999999
144
1.0
145
0.0
146
1.0
147
1.0
 71
     0
 72
     0
 73
     0
 74
     0
 75
     0
 76
     0
 77
     1
 78
     0
170
     0
171
     2
172
     0
173
     0
174
     1
175
     0
176
     0
177
     0
178
     0
  0
DIMSTYLE
  2
ZHALF_INCH_SCALE0
 70
     0
  3
"
  4

  5
ARCHTICK
  6

  7

 40
1.0
 41
1.125
 42
2.25
 43
3.0
 44
1.5
 45
0.0
 46
0.0
 47
0.0
 48
0.0
140
2.25
141
3.0
142
0.0
143
25.399999999999999
144
1.0
145
0.0
146
1.0
147
1.5
 71
     0
 72
     0
 73
     0
 74
     0
 75
     0
 76
     0
 77
     1
 78
     0
170
     0
171
     2
172
     0
173
     0
174
     1
175
     0
176
     0
177
     0
178
     0
  0
ENDTAB
  0
ENDSEC
  0
SECTION
  2
BLOCKS
  0
BLOCK
  8
0
  2
$MODEL_SPACE
 70
     0
 10
0.0
 20
0.0
 30
0.0
  3
$MODEL_SPACE
  1

  0
ENDBLK
  5
C9DC
  8
0
  0
BLOCK
 67
     1
  8
0
  2
$PAPER_SPACE
 70
     0
 10
0.0
 20
0.0
 30
0.0
  3
$PAPER_SPACE
  1

  0
ENDBLK
  5
C9D8
 67
     1
  8
0
  0
BLOCK
  8
0
  2
_ARCHTICK
 70
     0
 10
0.0
 20
0.0
 30
0.0
  3
_ARCHTICK
  1

  0
POLYLINE
  5
158
  8
0
  6
BYBLOCK
 62
     0
 66
     1
 10
0.0
 20
0.0
 30
0.0
 40
0.15
 41
0.15
  0
VERTEX
  5
F320
  8
0
  6
BYBLOCK
 62
     0
 10
-0.5
 20
-0.5
 30
0.0
  0
VERTEX
  5
F321
  8
0
  6
BYBLOCK
 62
     0
 10
0.5
 20
0.5
 30
0.0
  0
SEQEND
  5
F322
  8
0
  6
BYBLOCK
 62
     0
  0
ENDBLK
  5
15A
  8
0
  0
BLOCK
  8
0
  2
_OPEN30
 70
     0
 10
0.0
 20
0.0
 30
0.0
  3
_OPEN30
  1

  0
LINE
  5
15C
  8
0
  6
BYBLOCK
 62
     0
 10
-1.0
 20
0.26794919
 30
0.0
 11
0.0
 21
0.0
 31
0.0
  0
LINE
  5
15D
  8
0
  6
BYBLOCK
 62
     0
 10
0.0
 20
0.0
 30
0.0
 11
-1.0
 21
-0.26794919
 31
0.0
  0
LINE
  5
15E
  8
0
  6
BYBLOCK
 62
     0
 10
0.0
 20
0.0
 30
0.0
 11
-1.0
 21
0.0
 31
0.0
  0
ENDBLK
  5
160
  8
0
  0
BLOCK
  8
0
  2
ISO_A2_TITLE_BLOCK
 70
     2
 10
0.0
 20
0.0
 30
0.0
  3
ISO_A2_TITLE_BLOCK
  1

  0
LINE
  5
BDD
  8
FRAME_050
 10
299.5
 20
12.5
 30
0.0
 11
297.0
 21
7.5
 31
0.0
  0
LINE
  5
BDE
  8
FRAME_050
 10
294.5
 20
12.5
 30
0.0
 11
299.5
 21
12.5
 31
0.0
  0
LINE
  5
BDF
  8
FRAME_050
 10
247.0
 20
5.0
 30
0.0
 11
347.0
 21
5.0
 31
0.0
  0
LINE
  5
BE0
  8
FRAME_070
 10
584.0
 20
410.0
 30
0.0
 11
10.0
 21
410.0
 31
0.0
  0
LINE
  5
BE1
  8
FRAME_070
 10
10.0
 20
10.0
 30
0.0
 11
584.0
 21
10.0
 31
0.0
  0
LINE
  5
BE2
  8
FRAME_050
 10
12.5
 20
207.5
 30
0.0
 11
7.5
 21
210.0
 31
0.0
  0
LINE
  5
BE3
  8
FRAME_050
 10
12.5
 20
212.5
 30
0.0
 11
12.5
 21
207.5
 31
0.0
  0
LINE
  5
BE4
  8
FRAME_070
 10
10.0
 20
410.0
 30
0.0
 11
10.0
 21
10.0
 31
0.0
  0
LINE
  5
BE5
  8
FRAME_200
 10
0.0
 20
0.0
 30
0.0
 11
0.0
 21
10.0
 31
0.0
  0
LINE
  5
BE6
  8
FRAME_200
 10
0.0
 20
0.0
 30
0.0
 11
10.0
 21
0.0
 31
0.0
  0
TEXT
  5
BE7
  8
FRAME_050
 10
5.9000000000000004
 20
35.0
 30
0.0
 40
4.0
  1
H
  7
ISO_PROPORTIONAL
 72
     4
 11
7.5
 21
37.0
 31
0.0
  0
LINE
  5
BE8
  8
FRAME_050
 10
10.0
 20
60.0
 30
0.0
 11
5.0
 21
60.0
 31
0.0
  0
LINE
  5
BE9
  8
FRAME_050
 10
81.75
 20
5.0
 30
0.0
 11
81.75
 21
10.0
 31
0.0
  0
TEXT
  5
BEA
  8
FRAME_050
 10
44.874999999999993
 20
5.5
 30
0.0
 40
4.0
  1
1
  7
ISO_PROPORTIONAL
 72
     4
 11
45.875
 21
7.5
 31
0.0
  0
TEXT
  5
BEB
  8
FRAME_050
 10
6.0035533905932743
 20
85.0
 30
0.0
 40
4.0
  1
G
  7
ISO_PROPORTIONAL
 72
     4
 11
7.5
 21
87.0
 31
0.0
  0
LINE
  5
BEC
  8
FRAME_050
 10
10.0
 20
110.0
 30
0.0
 11
5.0
 21
110.0
 31
0.0
  0
TEXT
  5
BED
  8
FRAME_050
 10
6.0999999999999988
 20
135.0
 30
0.0
 40
4.0
  1
F
  7
ISO_PROPORTIONAL
 72
     4
 11
7.5
 21
137.0
 31
0.0
  0
LINE
  5
BEE
  8
FRAME_050
 10
10.0
 20
160.0
 30
0.0
 11
5.0
 21
160.0
 31
0.0
  0
TEXT
  5
BEF
  8
FRAME_050
 10
6.0999999999999988
 20
185.0
 30
0.0
 40
4.0
  1
E
  7
ISO_PROPORTIONAL
 72
     4
 11
7.5
 21
187.0
 31
0.0
  0
LINE
  5
BF0
  8
FRAME_050
 10
153.5
 20
5.0
 30
0.0
 11
153.5
 21
10.0
 31
0.0
  0
TEXT
  5
BF1
  8
FRAME_050
 10
116.1556692913386
 20
5.3996062992125982
 30
0.0
 40
4.0
  1
2
  7
ISO_PROPORTIONAL
 72
     4
 11
117.625
 21
7.5
 31
0.0
  0
TEXT
  5
BF2
  8
FRAME_050
 10
187.89215728752529
 20
5.5828427124746138
 30
0.0
 40
4.0
  1
3
  7
ISO_PROPORTIONAL
 72
     4
 11
189.375
 21
7.5
 31
0.0
  0
LINE
  5
BF3
  8
FRAME_050
 10
225.25
 20
5.0
 30
0.0
 11
225.25
 21
10.0
 31
0.0
  0
LINE
  5
BF4
  8
FRAME_050
 10
297.0
 20
7.5
 30
0.0
 11
294.5
 21
12.5
 31
0.0
  0
LINE
  5
BF5
  8
FRAME_050
 10
287.0
 20
5.0
 30
0.0
 11
287.0
 21
10.0
 31
0.0
  0
LINE
  5
BF6
  8
FRAME_050
 10
277.0
 20
5.0
 30
0.0
 11
277.0
 21
10.0
 31
0.0
  0
LINE
  5
BF7
  8
FRAME_050
 10
267.0
 20
5.0
 30
0.0
 11
267.0
 21
10.0
 31
0.0
  0
LINE
  5
BF8
  8
FRAME_050
 10
257.0
 20
5.0
 30
0.0
 11
257.0
 21
10.0
 31
0.0
  0
LINE
  5
BF9
  8
FRAME_050
 10
247.0
 20
5.0
 30
0.0
 11
247.0
 21
10.0
 31
0.0
  0
LINE
  5
BFA
  8
FRAME_050
 10
297.0
 20
10.0
 30
0.0
 11
297.0
 21
5.0
 31
0.0
  0
LINE
  5
BFB
  8
FRAME_050
 10
297.0
 20
10.0
 30
0.0
 11
297.0
 21
15.0
 31
0.0
  0
LINE
  5
BFC
  8
FRAME_050
 10
5.0
 20
210.0
 30
0.0
 11
15.0
 21
210.0
 31
0.0
  0
LINE
  5
BFD
  8
FRAME_050
 10
7.5
 20
210.0
 30
0.0
 11
12.5
 21
212.5
 31
0.0
  0
TEXT
  5
BFE
  8
FRAME_050
 10
5.7860912703473977
 20
235.0
 30
0.0
 40
4.0
  1
D
  7
ISO_PROPORTIONAL
 72
     4
 11
7.5
 21
237.0
 31
0.0
  0
LINE
  5
BFF
  8
FRAME_050
 10
10.0
 20
260.0
 30
0.0
 11
5.0
 21
260.0
 31
0.0
  0
TEXT
  5
C00
  8
FRAME_050
 10
6.1931980515339466
 20
285.0
 30
0.0
 40
4.0
  1
C
  7
ISO_PROPORTIONAL
 72
     4
 11
7.5
 21
287.0
 31
0.0
  0
LINE
  5
C01
  8
FRAME_050
 10
10.0
 20
310.0
 30
0.0
 11
5.0
 21
310.0
 31
0.0
  0
TEXT
  5
C02
  8
FRAME_050
 10
5.8999999999999959
 20
335.0
 30
0.0
 40
4.0
  1
B
  7
ISO_PROPORTIONAL
 72
     4
 11
7.5
 21
337.0
 31
0.0
  0
LINE
  5
C03
  8
FRAME_050
 10
10.0
 20
360.0
 30
0.0
 11
5.0
 21
360.0
 31
0.0
  0
TEXT
  5
C04
  8
FRAME_050
 10
5.6999999999999993
 20
385.0
 30
0.0
 40
4.0
  1
A
  7
ISO_PROPORTIONAL
 72
     4
 11
7.5
 21
387.0
 31
0.0
  0
LINE
  5
C05
  8
FRAME_200
 10
10.0
 20
420.0
 30
0.0
 11
0.0
 21
420.0
 31
0.0
  0
LINE
  5
C06
  8
FRAME_200
 10
0.0
 20
420.0
 30
0.0
 11
0.0
 21
410.0
 31
0.0
  0
TEXT
  5
C07
  8
FRAME_050
 10
44.874999999999993
 20
410.5
 30
0.0
 40
4.0
  1
1
  7
ISO_PROPORTIONAL
 72
     4
 11
45.875
 21
412.5
 31
0.0
  0
LINE
  5
C08
  8
FRAME_050
 10
81.75
 20
410.0
 30
0.0
 11
81.75
 21
415.0
 31
0.0
  0
TEXT
  5
C09
  8
FRAME_050
 10
116.1556692913386
 20
410.39960629921262
 30
0.0
 40
4.0
  1
2
  7
ISO_PROPORTIONAL
 72
     4
 11
117.625
 21
412.5
 31
0.0
  0
LINE
  5
C0A
  8
FRAME_050
 10
153.5
 20
410.0
 30
0.0
 11
153.5
 21
415.0
 31
0.0
  0
TEXT
  5
C0B
  8
FRAME_050
 10
187.89215728752529
 20
410.58284271247459
 30
0.0
 40
4.0
  1
3
  7
ISO_PROPORTIONAL
 72
     4
 11
189.375
 21
412.5
 31
0.0
  0
LINE
  5
C0C
  8
FRAME_050
 10
297.0
 20
405.0
 30
0.0
 11
297.0
 21
415.0
 31
0.0
  0
LINE
  5
C0D
  8
FRAME_050
 10
225.25
 20
410.0
 30
0.0
 11
225.25
 21
415.0
 31
0.0
  0
TEXT
  5
C0E
  8
FRAME_050
 10
259.52499999999998
 20
410.5
 30
0.0
 40
4.0
  1
4
  7
ISO_PROPORTIONAL
 72
     4
 11
261.125
 21
412.5
 31
0.0
  0
LINE
  5
C0F
  8
FRAME_070
 10
584.0
 20
10.0
 30
0.0
 11
584.0
 21
410.0
 31
0.0
  0
ATTDEF
  5
C10
  8
FRAME_025
 10
473.0
 20
31.75
 30
0.0
 40
2.5
  1
XXX - 00/00/00
  7
ISO_PROPORTIONAL
 11
473.0
 21
33.0
 31
0.0
  3
Approved by - Date
  2
APPROVED_BY_DATE
 70
     8
 74
     2
  0
TEXT
  5
C11
  8
FRAME_025
 10
448.0
 20
41.749999999999993
 30
0.0
 40
2.5
  1
Title/Name, designation, material, dimension etc
  7
ISO_PROPORTIONAL
 11
448.0
 21
43.0
 31
0.0
 73
     2
  0
TEXT
  5
C12
  8
FRAME_025
 10
473.0
 20
35.75
 30
0.0
 40
2.5
  1
Approved by - date
  7
ISO_PROPORTIONAL
 11
473.0
 21
37.0
 31
0.0
 73
     2
  0
LINE
  5
C13
  8
FRAME_070
 10
414.0
 20
46.0
 30
0.0
 11
584.0
 21
46.0
 31
0.0
  0
LINE
  5
C14
  8
FRAME_070
 10
414.0
 20
40.0
 30
0.0
 11
584.0
 21
40.0
 31
0.0
  0
LINE
  5
C15
  8
FRAME_070
 10
414.0
 20
30.0
 30
0.0
 11
584.0
 21
30.0
 31
0.0
  0
LINE
  5
C16
  8
FRAME_050
 10
368.75
 20
5.0
 30
0.0
 11
368.75
 21
10.0
 31
0.0
  0
LINE
  5
C17
  8
FRAME_050
 10
337.0
 20
5.0
 30
0.0
 11
337.0
 21
10.0
 31
0.0
  0
LINE
  5
C18
  8
FRAME_050
 10
327.0
 20
5.0
 30
0.0
 11
327.0
 21
10.0
 31
0.0
  0
LINE
  5
C19
  8
FRAME_050
 10
317.0
 20
5.0
 30
0.0
 11
317.0
 21
10.0
 31
0.0
  0
LINE
  5
C1A
  8
FRAME_050
 10
307.0
 20
5.0
 30
0.0
 11
307.0
 21
10.0
 31
0.0
  0
LINE
  5
C1B
  8
FRAME_050
 10
347.0
 20
5.0
 30
0.0
 11
347.0
 21
10.0
 31
0.0
  0
LINE
  5
C1C
  8
FRAME_050
 10
440.5
 20
5.0
 30
0.0
 11
440.5
 21
10.0
 31
0.0
  0
TEXT
  5
C1D
  8
FRAME_050
 10
403.24547244094481
 20
5.4102362204724406
 30
0.0
 40
4.0
  1
6
  7
ISO_PROPORTIONAL
 72
     4
 11
404.62499999999989
 21
7.5
 31
0.0
  0
TEXT
  5
C1E
  8
FRAME_050
 10
474.97499999999991
 20
5.5
 30
0.0
 40
4.0
  1
7
  7
ISO_PROPORTIONAL
 72
     4
 11
476.37499999999989
 21
7.5
 31
0.0
  0
TEXT
  5
C1F
  8
FRAME_025
 10
431.0
 20
41.749999999999993
 30
0.0
 40
2.5
  1
Quantity
  7
ISO_PROPORTIONAL
 11
431.0
 21
43.0
 31
0.0
 73
     2
  0
TEXT
  5
C20
  8
FRAME_025
 10
416.0
 20
41.749999999999993
 30
0.0
 40
2.5
  1
Itemref
  7
ISO_PROPORTIONAL
 11
416.0
 21
43.0
 31
0.0
 73
     2
  0
LINE
  5
C21
  8
FRAME_070
 10
414.0
 20
40.0
 30
0.0
 11
414.0
 21
46.0
 31
0.0
  0
LINE
  5
C22
  8
FRAME_070
 10
429.0
 20
40.0
 30
0.0
 11
429.0
 21
46.0
 31
0.0
  0
LINE
  5
C23
  8
FRAME_070
 10
414.0
 20
10.0
 30
0.0
 11
414.0
 21
40.0
 31
0.0
  0
ATTDEF
  5
C24
  8
FRAME_025
 10
416.0
 20
31.75
 30
0.0
 40
2.5
  1
XXX
  7
ISO_PROPORTIONAL
 11
416.0
 21
33.0
 31
0.0
  3
Designed by
  2
DESIGNED_BY
 70
     8
 74
     2
  0
TEXT
  5
C25
  8
FRAME_025
 10
416.0
 20
35.75
 30
0.0
 40
2.5
  1
Designed by
  7
ISO_PROPORTIONAL
 11
416.0
 21
37.0
 31
0.0
 73
     2
  0
LINE
  5
C26
  8
FRAME_070
 10
446.0
 20
40.0
 30
0.0
 11
446.0
 21
46.0
 31
0.0
  0
ATTDEF
  5
C27
  8
FRAME_025
 10
448.0
 20
31.75
 30
0.0
 40
2.5
  1
XXX
  7
ISO_PROPORTIONAL
 11
448.0
 21
33.0
 31
0.0
  3
Checked by
  2
CHECKED_BY
 70
     8
 74
     2
  0
TEXT
  5
C28
  8
FRAME_025
 10
448.0
 20
35.75
 30
0.0
 40
2.5
  1
Checked by
  7
ISO_PROPORTIONAL
 11
448.0
 21
37.0
 31
0.0
 73
     2
  0
ATTDEF
  5
C29
  8
FRAME_050
 10
444.74999999999989
 20
17.5
 30
0.0
 40
5.0
  1
XXX
  7
ISO_PROPORTIONAL
 72
     4
 11
451.49999999999989
 21
20.0
 31
0.0
  3
Owner
  2
OWNER
 70
     8
  0
LINE
  5
C2A
  8
FRAME_070
 10
446.0
 20
30.0
 30
0.0
 11
446.0
 21
40.0
 31
0.0
  0
LINE
  5
C2B
  8
FRAME_070
 10
471.0
 20
30.0
 30
0.0
 11
471.0
 21
40.0
 31
0.0
  0
LINE
  5
C2C
  8
FRAME_070
 10
489.0
 20
20.0
 30
0.0
 11
584.0
 21
20.0
 31
0.0
  0
LINE
  5
C2D
  8
FRAME_050
 10
512.25
 20
5.0
 30
0.0
 11
512.25
 21
10.0
 31
0.0
  0
TEXT
  5
C2E
  8
FRAME_050
 10
546.72499999999991
 20
5.5
 30
0.0
 40
4.0
  1
8
  7
ISO_PROPORTIONAL
 72
     4
 11
548.125
 21
7.5
 31
0.0
  0
ATTDEF
  5
C2F
  8
FRAME_050
 10
517.64999999999986
 20
13.5
 30
0.0
 40
3.0
  1
X
  7
ISO_PROPORTIONAL
 72
     4
 11
519.0
 21
15.0
 31
0.0
  3
Drawing number
  2
DRAWING_NUMBER
 70
     8
  0
ATTDEF
  5
C30
  8
FRAME_050
 10
529.75
 20
22.5
 30
0.0
 40
5.0
  1
XXX
  7
ISO_PROPORTIONAL
 72
     4
 11
536.5
 21
25.0
 31
0.0
  3
Title / Name
  2
TITLE
 70
     8
  0
LINE
  5
C31
  8
FRAME_070
 10
489.0
 20
10.0
 30
0.0
 11
489.0
 21
30.0
 31
0.0
  0
ATTDEF
  5
C32
  8
FRAME_025
 10
511.0
 20
31.75
 30
0.0
 40
2.5
  1
XXX
  7
ISO_PROPORTIONAL
 11
511.0
 21
33.0
 31
0.0
  3
Filename
  2
FILENAME
 70
     8
 74
     2
  0
TEXT
  5
C33
  8
FRAME_025
 10
511.0
 20
35.75
 30
0.0
 40
2.5
  1
Filename
  7
ISO_PROPORTIONAL
 11
511.0
 21
37.0
 31
0.0
 73
     2
  0
LINE
  5
C34
  8
FRAME_070
 10
509.0
 20
30.0
 30
0.0
 11
509.0
 21
40.0
 31
0.0
  0
TEXT
  5
C35
  8
FRAME_025
 10
536.0
 20
41.749999999999993
 30
0.0
 40
2.5
  1
Article No./Reference
  7
ISO_PROPORTIONAL
 11
536.0
 21
43.0
 31
0.0
 73
     2
  0
LINE
  5
C36
  8
FRAME_070
 10
534.0
 20
40.0
 30
0.0
 11
534.0
 21
46.0
 31
0.0
  0
ATTDEF
  5
C37
  8
FRAME_025
 10
551.0
 20
11.75
 30
0.0
 40
2.5
  1
0
  7
ISO_PROPORTIONAL
 11
551.0
 21
13.0
 31
0.0
  3
Edition
  2
EDITION
 70
     8
 74
     2
  0
TEXT
  5
C38
  8
FRAME_025
 10
551.0
 20
15.75
 30
0.0
 40
2.5
  1
Edition
  7
ISO_PROPORTIONAL
 11
551.0
 21
17.0
 31
0.0
 73
     2
  0
LINE
  5
C39
  8
FRAME_070
 10
549.0
 20
10.0
 30
0.0
 11
549.0
 21
20.0
 31
0.0
  0
ATTDEF
  5
C3A
  8
FRAME_025
 10
536.0
 20
31.75
 30
0.0
 40
2.5
  1
00/00/00
  7
ISO_PROPORTIONAL
 11
536.0
 21
33.0
 31
0.0
  3
Date
  2
DATE
 70
     8
 74
     2
  0
TEXT
  5
C3B
  8
FRAME_025
 10
536.0
 20
35.75
 30
0.0
 40
2.5
  1
Date
  7
ISO_PROPORTIONAL
 11
536.0
 21
37.0
 31
0.0
 73
     2
  0
LINE
  5
C3C
  8
FRAME_070
 10
534.0
 20
30.0
 30
0.0
 11
534.0
 21
40.0
 31
0.0
  0
ATTDEF
  5
C3D
  8
FRAME_025
 10
566.0
 20
11.75
 30
0.0
 40
2.5
  1
1/1
  7
ISO_PROPORTIONAL
 11
566.0
 21
13.0
 31
0.0
  3
Sheet
  2
SHEET
 70
     8
 74
     2
  0
TEXT
  5
C3E
  8
FRAME_025
 10
566.0
 20
15.75
 30
0.0
 40
2.5
  1
Sheet
  7
ISO_PROPORTIONAL
 11
566.0
 21
17.0
 31
0.0
 73
     2
  0
LINE
  5
C3F
  8
FRAME_070
 10
564.0
 20
10.0
 30
0.0
 11
564.0
 21
20.0
 31
0.0
  0
ATTDEF
  5
C40
  8
FRAME_025
 10
566.0
 20
31.75
 30
0.0
 40
2.5
  1
1:1
  7
ISO_PROPORTIONAL
 11
566.0
 21
33.0
 31
0.0
  3
Scale
  2
SCALE
 70
     8
 74
     2
  0
TEXT
  5
C41
  8
FRAME_025
 10
566.0
 20
35.75
 30
0.0
 40
2.5
  1
Scale
  7
ISO_PROPORTIONAL
 11
566.0
 21
37.0
 31
0.0
 73
     2
  0
LINE
  5
C42
  8
FRAME_070
 10
564.0
 20
30.0
 30
0.0
 11
564.0
 21
40.0
 31
0.0
  0
LINE
  5
C43
  8
FRAME_200
 10
594.0
 20
0.0
 30
0.0
 11
594.0
 21
10.0
 31
0.0
  0
LINE
  5
C44
  8
FRAME_200
 10
594.0
 20
0.0
 30
0.0
 11
584.0
 21
0.0
 31
0.0
  0
TEXT
  5
C45
  8
FRAME_050
 10
584.89999999999998
 20
35.0
 30
0.0
 40
4.0
  1
H
  7
ISO_PROPORTIONAL
 72
     4
 11
586.5
 21
37.0
 31
0.0
  0
LINE
  5
C46
  8
FRAME_050
 10
589.0
 20
60.0
 30
0.0
 11
584.0
 21
60.0
 31
0.0
  0
TEXT
  5
C47
  8
FRAME_050
 10
585.0035533905932
 20
85.0
 30
0.0
 40
4.0
  1
G
  7
ISO_PROPORTIONAL
 72
     4
 11
586.5
 21
87.0
 31
0.0
  0
LINE
  5
C48
  8
FRAME_050
 10
589.0
 20
110.0
 30
0.0
 11
584.0
 21
110.0
 31
0.0
  0
TEXT
  5
C49
  8
FRAME_050
 10
585.09999999999991
 20
135.0
 30
0.0
 40
4.0
  1
F
  7
ISO_PROPORTIONAL
 72
     4
 11
586.5
 21
137.0
 31
0.0
  0
LINE
  5
C4A
  8
FRAME_050
 10
589.0
 20
160.0
 30
0.0
 11
584.0
 21
160.0
 31
0.0
  0
TEXT
  5
C4B
  8
FRAME_050
 10
585.09999999999991
 20
185.0
 30
0.0
 40
4.0
  1
E
  7
ISO_PROPORTIONAL
 72
     4
 11
586.5
 21
187.0
 31
0.0
  0
LINE
  5
C4C
  8
FRAME_070
 10
414.0
 20
404.0
 30
0.0
 11
584.0
 21
404.0
 31
0.0
  0
TEXT
  5
C4D
  8
FRAME_050
 10
331.39215728752538
 20
410.58284271247459
 30
0.0
 40
4.0
  1
5
  7
ISO_PROPORTIONAL
 72
     4
 11
332.875
 21
412.5
 31
0.0
  0
LINE
  5
C4E
  8
FRAME_050
 10
368.75
 20
410.0
 30
0.0
 11
368.75
 21
415.0
 31
0.0
  0
TEXT
  5
C4F
  8
FRAME_025
 10
428.0
 20
405.75
 30
0.0
 40
2.5
  1
Revision note
  7
ISO_PROPORTIONAL
 11
428.0
 21
407.0
 31
0.0
 73
     2
  0
TEXT
  5
C50
  8
FRAME_025
 10
416.0
 20
405.75
 30
0.0
 40
2.5
  1
RevNo
  7
ISO_PROPORTIONAL
 11
416.0
 21
407.0
 31
0.0
 73
     2
  0
LINE
  5
C51
  8
FRAME_070
 10
426.0
 20
404.0
 30
0.0
 11
426.0
 21
410.0
 31
0.0
  0
LINE
  5
C52
  8
FRAME_070
 10
414.0
 20
404.0
 30
0.0
 11
414.0
 21
410.0
 31
0.0
  0
TEXT
  5
C53
  8
FRAME_050
 10
403.24547244094481
 20
410.41023622047243
 30
0.0
 40
4.0
  1
6
  7
ISO_PROPORTIONAL
 72
     4
 11
404.62499999999989
 21
412.5
 31
0.0
  0
LINE
  5
C54
  8
FRAME_050
 10
440.5
 20
410.0
 30
0.0
 11
440.5
 21
415.0
 31
0.0
  0
TEXT
  5
C55
  8
FRAME_050
 10
474.97499999999991
 20
410.5
 30
0.0
 40
4.0
  1
7
  7
ISO_PROPORTIONAL
 72
     4
 11
476.37499999999989
 21
412.5
 31
0.0
  0
LINE
  5
C56
  8
FRAME_050
 10
579.0
 20
210.0
 30
0.0
 11
589.0
 21
210.0
 31
0.0
  0
TEXT
  5
C57
  8
FRAME_050
 10
584.78609127034736
 20
235.0
 30
0.0
 40
4.0
  1
D
  7
ISO_PROPORTIONAL
 72
     4
 11
586.5
 21
237.0
 31
0.0
  0
LINE
  5
C58
  8
FRAME_050
 10
589.0
 20
260.0
 30
0.0
 11
584.0
 21
260.0
 31
0.0
  0
TEXT
  5
C59
  8
FRAME_050
 10
585.19319805153395
 20
285.0
 30
0.0
 40
4.0
  1
C
  7
ISO_PROPORTIONAL
 72
     4
 11
586.5
 21
287.0
 31
0.0
  0
LINE
  5
C5A
  8
FRAME_050
 10
589.0
 20
310.0
 30
0.0
 11
584.0
 21
310.0
 31
0.0
  0
TEXT
  5
C5B
  8
FRAME_050
 10
584.89999999999998
 20
335.0
 30
0.0
 40
4.0
  1
B
  7
ISO_PROPORTIONAL
 72
     4
 11
586.5
 21
337.0
 31
0.0
  0
TEXT
  5
C5C
  8
FRAME_025
 10
571.08299391850551
 20
405.75
 30
0.0
 40
2.5
  1
Checked
  7
ISO_PROPORTIONAL
 11
571.08299391850551
 21
407.0
 31
0.0
 73
     2
  0
TEXT
  5
C5D
  8
FRAME_025
 10
555.36099797283521
 20
405.75
 30
0.0
 40
2.5
  1
Signature
  7
ISO_PROPORTIONAL
 11
555.36099797283521
 21
407.0
 31
0.0
 73
     2
  0
TEXT
  5
C5E
  8
FRAME_025
 10
537.0
 20
405.75
 30
0.0
 40
2.5
  1
Date
  7
ISO_PROPORTIONAL
 11
537.0
 21
407.0
 31
0.0
 73
     2
  0
LINE
  5
C5F
  8
FRAME_070
 10
570.0
 20
404.0
 30
0.0
 11
570.0
 21
410.0
 31
0.0
  0
LINE
  5
C60
  8
FRAME_070
 10
555.0
 20
404.0
 30
0.0
 11
555.0
 21
410.0
 31
0.0
  0
LINE
  5
C61
  8
FRAME_070
 10
535.0
 20
404.0
 30
0.0
 11
535.0
 21
410.0
 31
0.0
  0
LINE
  5
C62
  8
FRAME_050
 10
512.25
 20
410.0
 30
0.0
 11
512.25
 21
415.0
 31
0.0
  0
TEXT
  5
C63
  8
FRAME_050
 10
546.72499999999991
 20
410.5
 30
0.0
 40
4.0
  1
8
  7
ISO_PROPORTIONAL
 72
     4
 11
548.125
 21
412.5
 31
0.0
  0
LINE
  5
C64
  8
FRAME_050
 10
589.0
 20
360.0
 30
0.0
 11
584.0
 21
360.0
 31
0.0
  0
TEXT
  5
C65
  8
FRAME_050
 10
584.70000000000005
 20
385.0
 30
0.0
 40
4.0
  1
A
  7
ISO_PROPORTIONAL
 72
     4
 11
586.5
 21
387.0
 31
0.0
  0
LINE
  5
C66
  8
FRAME_200
 10
594.0
 20
420.0
 30
0.0
 11
584.0
 21
420.0
 31
0.0
  0
LINE
  5
C67
  8
FRAME_200
 10
594.0
 20
410.0
 30
0.0
 11
594.0
 21
420.0
 31
0.0
  0
ENDBLK
  5
C69
  8
0
  0
BLOCK
  8
0
  2
WOBB001END
 70
     0
 10
0.0
 20
0.0
 30
0.0
  3
WOBB001END
  1

  0
LINE
  5
4D66
  8
0
  6
CONTINUOUS
 10
0.0
 20
0.0
 30
0.0
 11
0.8749999999999998
 21
0.0
 31
0.0
  0
ARC
  5
4D67
  8
0
  6
CONTINUOUS
 10
0.0331648379439287
 20
-0.5087238935900234
 30
0.0
 40
0.8790130605592325
 50
284.06490243660443
 51
312.19222981924361
  0
ARC
  5
4D68
  8
0
  6
CONTINUOUS
 10
0.2841534338796767
 20
-1.510548310625538
 30
0.0
 40
0.1537731892806598
 50
104.0649024366044
 51
179.4721730735024
  0
LINE
  5
4D69
  8
0
  6
CONTINUOUS
 10
0.0
 20
0.0
 30
0.0
 11
-0.0000000000000003
 21
-1.7501564476661911
 31
0.0
  0
ARC
  5
4D6A
  8
0
  6
CONTINUOUS
 10
0.1404622019506122
 20
-1.630313718354619
 30
0.0
 40
0.1198427293115722
 50
275.0
 51
85.000000000000057
  0
LINE
  5
4D6B
  8
0
  6
CONTINUOUS
 10
-0.0000000000000003
 20
-1.7501564476661911
 30
0.0
 11
0.1456946485130855
 21
-1.7501564476661911
 31
0.0
  0
LINE
  5
4D6C
  8
0
  6
CONTINUOUS
 10
0.1377603739254348
 20
-1.7508506067459131
 30
0.0
 11
0.150907184036669
 21
-1.7497004098996509
 31
0.0
  0
LINE
  5
4D6D
  8
0
  6
CONTINUOUS
 10
0.1303867696719884
 20
-1.5091317231818231
 30
0.0
 11
0.1509071840366689
 21
-1.510927026809586
 31
0.0
  0
LINE
  5
4D6E
  8
0
  6
CONTINUOUS
 10
0.8749999999999998
 20
0.0
 30
0.0
 11
0.8749999999999996
 21
-0.8649327026588228
 31
0.0
  0
LINE
  5
4D6F
  8
0
  6
CONTINUOUS
 10
0.727014513830997
 20
-0.872688293355061
 30
0.0
 11
0.727014513830997
 21
-0.9264923397184784
 31
0.0
  0
ARC
  5
4D70
  8
0
  6
CONTINUOUS
 10
0.41187090827646
 20
-0.9264923397184784
 30
0.0
 40
0.3151436055545369
 50
312.19222981924361
 51
0.0
  0
LINE
  5
4D71
  8
0
  6
CONTINUOUS
 10
0.727014513830997
 20
-0.872688293355061
 30
0.0
 11
0.8749999999999996
 21
-0.8649327026588228
 31
0.0
  0
ENDBLK
  5
4D72
  8
0
  0
BLOCK
  8
0
  2
A$C0A61123B
 70
     0
 10
0.0
 20
0.0
 30
0.0
  3
A$C0A61123B
  1

  0
LINE
  5
C0AD
  8
PROF
  6
CONTINUOUS
 10
4.9012016798694162
 20
13.325025853350891
 30
0.0000000000000002
 11
4.9012016798694162
 21
12.88585218805485
 31
0.0000000000000003
  0
INSERT
  5
C0AE
  8
0
  2
*U7
 10
0.0
 20
0.0
 30
0.0
  0
LINE
  5
C0AF
  8
PROF
 10
4.519857503186925
 20
12.72227734589444
 30
0.0000000000000001
 11
4.519857503186925
 21
12.88585218805485
 31
0.0000000000000001
  0
LINE
  5
C0B0
  8
PROF
  6
CONTINUOUS
 10
3.6306271195888362
 20
13.325025853350891
 30
0.0000000000000002
 11
4.9012016798694162
 21
13.325025853350891
 31
0.0000000000000002
  0
LINE
  5
C0B1
  8
PROF
 10
1.9750295148747341
 20
10.37671325491794
 30
0.0000000000000002
 11
1.9750295148747341
 21
10.11391186758919
 31
0.0000000000000002
  0
LINE
  5
C0B2
  8
PROF
 10
1.6079673357556299
 20
10.11391186758919
 30
0.0000000000000001
 11
1.9750295148747341
 21
10.11391186758919
 31
0.0000000000000001
  0
LINE
  5
C0B3
  8
PROF
 10
1.9750295148747341
 20
10.11391186758919
 30
0.0000000000000001
 11
1.944958486898144
 21
10.11391186758919
 31
0.0000000000000001
  0
LINE
  5
C0B4
  8
PROF
 10
1.9750295148747341
 20
10.11391186758919
 30
0.0000000000000001
 11
1.944958486898144
 21
10.11391186758919
 31
0.0000000000000001
  0
LINE
  5
C0B5
  8
PROF
 10
0.3222605517169654
 20
7.5247473351056451
 30
-0.0000000000000002
 11
-0.0000008570117416
 21
7.5247473351056451
 31
0.0
  0
LINE
  5
C0B6
  8
PROF
 10
-0.0000008570117416
 20
7.5247473351056451
 30
0.0
 11
-0.0000008570117416
 21
9.1943336957369848
 31
0.0
  0
POLYLINE
  5
C0B7
  8
PROF
 66
     1
 10
0.0
 20
0.0
 30
0.0000000000000001
 70
     4
 75
     6
  0
VERTEX
  5
C0B8
  8
PROF
 10
1.6079673357556299
 20
10.11391186758919
 30
0.0000000000000001
 70
    16
  0
VERTEX
  5
C0B9
  8
PROF
 10
1.6079673357556299
 20
10.11391186758919
 30
0.0000000000000001
 70
     8
  0
VERTEX
  5
C0BA
  8
PROF
 10
1.6468132326485809
 20
10.02198069336111
 30
0.0000000000000001
 70
     8
  0
VERTEX
  5
C0BB
  8
PROF
 10
1.67335966680929
 20
9.9344134163010231
 30
0.0000000000000001
 70
     8
  0
VERTEX
  5
C0BC
  8
PROF
 10
1.6890086400463229
 20
9.8512576644480951
 30
0.0000000000000001
 70
     8
  0
VERTEX
  5
C0BD
  8
PROF
 10
1.6951621541682571
 20
9.7725610658417281
 30
0.0000000000000001
 70
     8
  0
VERTEX
  5
C0BE
  8
PROF
 10
1.693222210983605
 20
9.6983712485214237
 30
0.0000000000000001
 70
     8
  0
VERTEX
  5
C0BF
  8
PROF
 10
1.6845908123009961
 20
9.6287358405263603
 30
0.0000000000000001
 70
     8
  0
VERTEX
  5
C0C0
  8
PROF
 10
1.670669959928885
 20
9.5637024698960431
 30
0.0000000000000001
 70
     8
  0
VERTEX
  5
C0C1
  8
PROF
 10
1.6528616556759621
 20
9.5033187646697552
 30
0.0000000000000001
 70
     8
  0
VERTEX
  5
C0C2
  8
PROF
 10
1.632356299273054
 20
9.4475843259650691
 30
0.0000000000000001
 70
     8
  0
VERTEX
  5
C0C3
  8
PROF
 10
1.609497882140658
 20
9.3963066472123273
 30
0.0000000000000001
 70
     8
  0
VERTEX
  5
C0C4
  8
PROF
 10
1.584418793621637
 20
9.3492451949202842
 30
0.0000000000000001
 70
     8
  0
VERTEX
  5
C0C5
  8
PROF
 10
1.5572514230587431
 20
9.3061594355972357
 30
0.0000000000000001
 70
     8
  0
VERTEX
  5
C0C6
  8
PROF
 10
1.5281281597949601
 20
9.2668088357519274
 30
0.0000000000000001
 70
     8
  0
VERTEX
  5
C0C7
  8
PROF
 10
1.497181393172978
 20
9.2309528618929981
 30
0.0000000000000001
 70
     8
  0
VERTEX
  5
C0C8
  8
PROF
 10
1.4645435125357249
 20
9.1983509805288541
 30
0.0000000000000001
 70
     8
  0
VERTEX
  5
C0C9
  8
PROF
 10
1.4303469072260091
 20
9.1687626581682462
 30
0.0000000000000001
 70
     8
  0
VERTEX
  5
C0CA
  8
PROF
 10
1.394736033257401
 20
9.1419547918675335
 30
0.0000000000000001
 70
     8
  0
VERTEX
  5
C0CB
  8
PROF
 10
1.3579036133264131
 20
9.1177240008747713
 30
0.0000000000000001
 70
     8
  0
VERTEX
  5
C0CC
  8
PROF
 10
1.3200544368004321
 20
9.0958743349860924
 30
0.0000000000000001
 70
     8
  0
VERTEX
  5
C0CD
  8
PROF
 10
1.281393293046676
 20
9.0762098439975034
 30
0.0000000000000001
 70
     8
  0
VERTEX
  5
C0CE
  8
PROF
 10
1.2421249714324161
 20
9.0585345777049042
 30
0.0000000000000001
 70
     8
  0
VERTEX
  5
C0CF
  8
PROF
 10
1.202454261324986
 20
9.0426525859044187
 30
0.0000000000000001
 70
     8
  0
VERTEX
  5
C0D0
  8
PROF
 10
1.162585952091659
 20
9.0283679183919503
 30
0.0000000000000001
 70
     8
  0
VERTEX
  5
C0D1
  8
PROF
 10
1.1227248330997091
 20
9.0154846249635021
 30
0.0000000000000001
 70
     8
  0
VERTEX
  5
C0D2
  8
PROF
 10
1.0829726247361
 20
9.0034643862466055
 30
0.0000000000000001
 70
     8
  0
VERTEX
  5
C0D3
  8
PROF
 10
1.043018771466222
 20
8.9903994061946833
 30
0.0000000000000001
 70
     8
  0
VERTEX
  5
C0D4
  8
PROF
 10
1.002449648775211
 20
8.9740395195925622
 30
0.0000000000000001
 70
     8
  0
VERTEX
  5
C0D5
  8
PROF
 10
0.9608516321480919
 20
8.9521345612251935
 30
0.0000000000000001
 70
     8
  0
VERTEX
  5
C0D6
  8
PROF
 10
0.9178110970699435
 20
8.9224343658775052
 30
0.0000000000000001
 70
     8
  0
VERTEX
  5
C0D7
  8
PROF
 10
0.8729144190259033
 20
8.8826887683343312
 30
0.0000000000000001
 70
     8
  0
VERTEX
  5
C0D8
  8
PROF
 10
0.8257479735009949
 20
8.8306476033806121
 30
0.0000000000000001
 70
     8
  0
VERTEX
  5
C0D9
  8
PROF
 10
0.7758981359802988
 20
8.764060705801171
 30
0.0000000000000001
 70
     8
  0
VERTEX
  5
C0DA
  8
PROF
 10
1.7292019016096549
 20
9.8629858761255491
 30
0.0000000000000001
 70
    16
  0
VERTEX
  5
C0DB
  8
PROF
 10
1.679373123114088
 20
9.4532143012734213
 30
0.0000000000000001
 70
    16
  0
VERTEX
  5
C0DC
  8
PROF
 10
1.4455611507419801
 20
9.1391837193732481
 30
0.0000000000000001
 70
    16
  0
VERTEX
  5
C0DD
  8
PROF
 10
1.1204637172738201
 20
9.0026267702428413
 30
0.0000000000000001
 70
    16
  0
VERTEX
  5
C0DE
  8
PROF
 10
0.9127765582653638
 20
8.9630202230383702
 30
0.0000000000000001
 70
    16
  0
VERTEX
  5
C0DF
  8
PROF
 10
0.7758981359802988
 20
8.764060705801171
 30
0.0000000000000001
 70
    16
  0
SEQEND
  5
C0E0
  8
PROF
  0
ARC
  5
C0E1
  8
PROF
 10
0.733429816733235
 20
8.4849506952165257
 30
0.0000000000000001
 40
0.2823224329524727
 50
269.73652020831901
 51
81.348449993176914
  0
LINE
  5
C0E2
  8
PROF
  6
CONTINUOUS
 10
-0.0000008570117416
 20
9.1943336957369848
 30
-0.0000000000000001
 11
3.6306271195888362
 21
13.325025853350891
 31
0.0000000000000002
  0
POLYLINE
  5
C0E3
  8
PROF
 66
     1
 10
0.0
 20
0.0
 30
0.0000000000000001
 70
     4
 75
     6
  0
VERTEX
  5
C0E4
  8
PROF
 10
4.519857503186925
 20
12.72227734589444
 30
0.0000000000000001
 70
    16
  0
VERTEX
  5
C0E5
  8
PROF
 10
4.519857503186925
 20
12.72227734589444
 30
0.0000000000000001
 70
     8
  0
VERTEX
  5
C0E6
  8
PROF
 10
4.4467035366886289
 20
12.741128108778071
 30
0.0000000000000001
 70
     8
  0
VERTEX
  5
C0E7
  8
PROF
 10
4.3786645761268801
 20
12.754675269913941
 30
0.0000000000000001
 70
     8
  0
VERTEX
  5
C0E8
  8
PROF
 10
4.3154364111440469
 20
12.76334314092332
 30
0.0000000000000001
 70
     8
  0
VERTEX
  5
C0E9
  8
PROF
 10
4.256714831382566
 20
12.76755603342724
 30
0.0000000000000001
 70
     8
  0
VERTEX
  5
C0EA
  8
PROF
 10
4.2021956264849791
 20
12.76773825904672
 30
0.0000000000000001
 70
     8
  0
VERTEX
  5
C0EB
  8
PROF
 10
4.1515745860935436
 20
12.764314129403139
 30
0.0000000000000001
 70
     8
  0
VERTEX
  5
C0EC
  8
PROF
 10
4.1045474998508649
 20
12.75770795611743
 30
0.0000000000000001
 70
     8
  0
VERTEX
  5
C0ED
  8
PROF
 10
4.0608101573993149
 20
12.748344050810831
 30
0.0000000000000001
 70
     8
  0
VERTEX
  5
C0EE
  8
PROF
 10
4.0200583483813261
 20
12.736646725104491
 30
0.0000000000000001
 70
     8
  0
VERTEX
  5
C0EF
  8
PROF
 10
3.981987862439381
 20
12.72304029061945
 30
0.0000000000000001
 70
     8
  0
VERTEX
  5
C0F0
  8
PROF
 10
3.946294489215858
 20
12.707949058976959
 30
0.0000000000000001
 70
     8
  0
VERTEX
  5
C0F1
  8
PROF
 10
3.912674018353242
 20
12.691797341798059
 30
0.0000000000000001
 70
     8
  0
VERTEX
  5
C0F2
  8
PROF
 10
3.8808638350742499
 20
12.67494295718654
 30
0.0000000000000001
 70
     8
  0
VERTEX
  5
C0F3
  8
PROF
 10
3.850767706922738
 20
12.65747774917668
 30
0.0000000000000001
 70
     8
  0
VERTEX
  5
C0F4
  8
PROF
 10
3.8223309970228438
 20
12.639427068285499
 30
0.0000000000000001
 70
     8
  0
VERTEX
  5
C0F5
  8
PROF
 10
3.795499068498712
 20
12.62081626503004
 30
0.0000000000000001
 70
     8
  0
VERTEX
  5
C0F6
  8
PROF
 10
3.7702172844744819
 20
12.601670689926999
 30
0.0000000000000001
 70
     8
  0
VERTEX
  5
C0F7
  8
PROF
 10
3.7464310080743521
 20
12.58201569349364
 30
0.0000000000000001
 70
     8
  0
VERTEX
  5
C0F8
  8
PROF
 10
3.7240856024224609
 20
12.56187662624666
 30
0.0000000000000001
 70
     8
  0
VERTEX
  5
C0F9
  8
PROF
 10
3.7031264306428961
 20
12.541278838703191
 30
0.0000000000000001
 70
     8
  0
VERTEX
  5
C0FA
  8
PROF
 10
3.683498855859908
 20
12.520247681380051
 30
0.0000000000000001
 70
     8
  0
VERTEX
  5
C0FB
  8
PROF
 10
3.665148241197528
 20
12.49880850479428
 30
0.0000000000000001
 70
     8
  0
VERTEX
  5
C0FC
  8
PROF
 10
3.648019949779949
 20
12.47698665946279
 30
0.0000000000000001
 70
     8
  0
VERTEX
  5
C0FD
  8
PROF
 10
3.6320593447313159
 20
12.45480749590263
 30
0.0000000000000001
 70
     8
  0
VERTEX
  5
C0FE
  8
PROF
 10
3.617189584886658
 20
12.43223790353807
 30
0.0000000000000001
 70
     8
  0
VERTEX
  5
C0FF
  8
PROF
 10
3.6032450119242849
 20
12.40901092742285
 30
0.0000000000000001
 70
     8
  0
VERTEX
  5
C100
  8
PROF
 10
3.590037763233453
 20
12.38480115151844
 30
0.0000000000000001
 70
     8
  0
VERTEX
  5
C101
  8
PROF
 10
3.5773799762033032
 20
12.35928315978594
 30
0.0000000000000001
 70
     8
  0
VERTEX
  5
C102
  8
PROF
 10
3.5650837882230899
 20
12.33213153618658
 30
0.0000000000000001
 70
     8
  0
VERTEX
  5
C103
  8
PROF
 10
3.552961336681959
 20
12.303020864681571
 30
0.0000000000000001
 70
     8
  0
VERTEX
  5
C104
  8
PROF
 10
3.540824758969165
 20
12.271625729232371
 30
0.0000000000000001
 70
     8
  0
VERTEX
  5
C105
  8
PROF
 10
3.528486192473848
 20
12.23762071379997
 30
0.0000000000000001
 70
     8
  0
VERTEX
  5
C106
  8
PROF
 10
3.5157577745852659
 20
12.200680402345711
 30
0.0000000000000001
 70
     8
  0
VERTEX
  5
C107
  8
PROF
 10
3.502451642692618
 20
12.16047937883093
 30
0.0000000000000001
 70
     8
  0
VERTEX
  5
C108
  8
PROF
 10
3.4883799341851041
 20
12.116692227216619
 30
0.0000000000000001
 70
     8
  0
VERTEX
  5
C109
  8
PROF
 10
3.4733547864519201
 20
12.06899353146423
 30
0.0000000000000001
 70
     8
  0
VERTEX
  5
C10A
  8
PROF
 10
3.45723654619428
 20
12.0172095445447
 30
0.0000000000000001
 70
     8
  0
VERTEX
  5
C10B
  8
PROF
 10
3.440078397361388
 20
11.961773195467799
 30
0.0000000000000001
 70
     8
  0
VERTEX
  5
C10C
  8
PROF
 10
3.4219817332145781
 20
11.90326908225302
 30
0.0000000000000001
 70
     8
  0
VERTEX
  5
C10D
  8
PROF
 10
3.4030479470150099
 20
11.842281802919951
 30
0.0000000000000001
 70
     8
  0
VERTEX
  5
C10E
  8
PROF
 10
3.383378432024017
 20
11.779395955487979
 30
0.0000000000000001
 70
     8
  0
VERTEX
  5
C10F
  8
PROF
 10
3.36307458150287
 20
11.7151961379768
 30
0.0000000000000001
 70
     8
  0
VERTEX
  5
C110
  8
PROF
 10
3.342237788712735
 20
11.650266948405831
 30
0.0000000000000001
 70
     8
  0
VERTEX
  5
C111
  8
PROF
 10
3.3209694469149991
 20
11.58519298479461
 30
0.0000000000000001
 70
     8
  0
VERTEX
  5
C112
  8
PROF
 10
3.299370949370767
 20
11.52055884516254
 30
0.0000000000000001
 70
     8
  0
VERTEX
  5
C113
  8
PROF
 10
3.277543689341428
 20
11.456949127529461
 30
0.0000000000000001
 70
     8
  0
VERTEX
  5
C114
  8
PROF
 10
3.2555890600881399
 20
11.3949484299145
 30
0.0000000000000001
 70
     8
  0
VERTEX
  5
C115
  8
PROF
 10
3.2336084548721811
 20
11.335141350337491
 30
0.0000000000000001
 70
     8
  0
VERTEX
  5
C116
  8
PROF
 10
3.2116715641212181
 20
11.277995447977769
 30
0.0000000000000001
 70
     8
  0
VERTEX
  5
C117
  8
PROF
 10
3.1897212669278461
 20
11.22351012665467
 30
0.0000000000000001
 70
     8
  0
VERTEX
  5
C118
  8
PROF
 10
3.1676687395512881
 20
11.17156775134765
 30
0.0000000000000001
 70
     8
  0
VERTEX
  5
C119
  8
PROF
 10
3.1454251582505321
 20
11.12205068703588
 30
0.0000000000000001
 70
     8
  0
VERTEX
  5
C11A
  8
PROF
 10
3.122901699284625
 20
11.07484129869874
 30
0.0000000000000001
 70
     8
  0
VERTEX
  5
C11B
  8
PROF
 10
3.1000095389127278
 20
11.02982195131551
 30
0.0000000000000001
 70
     8
  0
VERTEX
  5
C11C
  8
PROF
 10
3.07665985339389
 20
10.986875009865679
 30
0.0000000000000001
 70
     8
  0
VERTEX
  5
C11D
  8
PROF
 10
3.0527638189871591
 20
10.9458828393283
 30
0.0000000000000001
 70
     8
  0
VERTEX
  5
C11E
  8
PROF
 10
3.0282326119516361
 20
10.90672780468298
 30
0.0000000000000001
 70
     8
  0
VERTEX
  5
C11F
  8
PROF
 10
3.0029774085463701
 20
10.869292270908771
 30
0.0000000000000001
 70
     8
  0
VERTEX
  5
C120
  8
PROF
 10
2.9769093850304089
 20
10.833458602985161
 30
0.0000000000000001
 70
     8
  0
VERTEX
  5
C121
  8
PROF
 10
2.9499397176628559
 20
10.799109165891419
 30
0.0000000000000001
 70
     8
  0
VERTEX
  5
C122
  8
PROF
 10
2.922000609840437
 20
10.76614363969508
 30
0.0000000000000001
 70
     8
  0
VERTEX
  5
C123
  8
PROF
 10
2.8931083735102998
 20
10.7345309648158
 30
0.0000000000000001
 70
     8
  0
VERTEX
  5
C124
  8
PROF
 10
2.8633003477572729
 20
10.70425739676193
 30
0.0000000000000001
 70
     8
  0
VERTEX
  5
C125
  8
PROF
 10
2.8326138716660689
 20
10.67530919104115
 30
0.0000000000000001
 70
     8
  0
VERTEX
  5
C126
  8
PROF
 10
2.801086284321626
 20
10.647672603161711
 30
0.0000000000000001
 70
     8
  0
VERTEX
  5
C127
  8
PROF
 10
2.7687549248087162
 20
10.62133388863162
 30
0.0000000000000001
 70
     8
  0
VERTEX
  5
C128
  8
PROF
 10
2.7356571322120531
 20
10.5962793029588
 30
0.0000000000000001
 70
     8
  0
VERTEX
  5
C129
  8
PROF
 10
2.7018302456165202
 20
10.572495101651381
 30
0.0000000000000001
 70
     8
  0
VERTEX
  5
C12A
  8
PROF
 10
2.6673116041068838
 20
10.54996754021726
 30
0.0000000000000001
 70
     8
  0
VERTEX
  5
C12B
  8
PROF
 10
2.6321385467680321
 20
10.528682874164581
 30
0.0000000000000001
 70
     8
  0
VERTEX
  5
C12C
  8
PROF
 10
2.5963484126846179
 20
10.508627359001251
 30
0.0000000000000001
 70
     8
  0
VERTEX
  5
C12D
  8
PROF
 10
2.5599785409415841
 20
10.489787250235279
 30
0.0000000000000001
 70
     8
  0
VERTEX
  5
C12E
  8
PROF
 10
2.522998630314361
 20
10.472162234281081
 30
0.0000000000000001
 70
     8
  0
VERTEX
  5
C12F
  8
PROF
 10
2.4851078183409072
 20
10.455805721177621
 30
0.0000000000000001
 70
     8
  0
VERTEX
  5
C130
  8
PROF
 10
2.4459376022498982
 20
10.44078455187036
 30
0.0000000000000001
 70
     8
  0
VERTEX
  5
C131
  8
PROF
 10
2.4051194792701249
 20
10.42716556730465
 30
0.0000000000000001
 70
     8
  0
VERTEX
  5
C132
  8
PROF
 10
2.3622849466301541
 20
10.415015608425851
 30
0.0000000000000001
 70
     8
  0
VERTEX
  5
C133
  8
PROF
 10
2.317065501558714
 20
10.40440151617929
 30
0.0000000000000001
 70
     8
  0
VERTEX
  5
C134
  8
PROF
 10
2.2690926412844301
 20
10.395390131510339
 30
0.0000000000000001
 70
     8
  0
VERTEX
  5
C135
  8
PROF
 10
2.2179978630360879
 20
10.388048295364451
 30
0.0000000000000001
 70
     8
  0
VERTEX
  5
C136
  8
PROF
 10
2.1634126640422551
 20
10.38244284868688
 30
0.0000000000000001
 70
     8
  0
VERTEX
  5
C137
  8
PROF
 10
2.1049685415316031
 20
10.37864063242295
 30
0.0000000000000001
 70
     8
  0
VERTEX
  5
C138
  8
PROF
 10
2.0422969927328709
 20
10.37670848751816
 30
0.0000000000000001
 70
     8
  0
VERTEX
  5
C139
  8
PROF
 10
1.9750295148747341
 20
10.37671325491794
 30
0.0000000000000001
 70
     8
  0
VERTEX
  5
C13A
  8
PROF
 10
4.2166060115107484
 20
12.80885334975255
 30
0.0000000000000001
 70
    16
  0
VERTEX
  5
C13B
  8
PROF
 10
3.8702254102732909
 20
12.707065515763929
 30
0.0000000000000001
 70
    16
  0
VERTEX
  5
C13C
  8
PROF
 10
3.605346156896871
 20
12.46277472098552
 30
0.0000000000000001
 70
    16
  0
VERTEX
  5
C13D
  8
PROF
 10
3.500746030527238
 20
12.170680575709749
 30
0.0000000000000001
 70
    16
  0
VERTEX
  5
C13E
  8
PROF
 10
3.231798439705698
 20
11.26846416496107
 30
0.0000000000000001
 70
    16
  0
VERTEX
  5
C13F
  8
PROF
 10
2.9737109398832882
 20
10.76631086647069
 30
0.0000000000000001
 70
    16
  0
VERTEX
  5
C140
  8
PROF
 10
2.5729961067384002
 20
10.460947364504699
 30
0.0000000000000001
 70
    16
  0
VERTEX
  5
C141
  8
PROF
 10
2.2537826214546031
 20
10.372731239449759
 30
0.0000000000000001
 70
    16
  0
VERTEX
  5
C142
  8
PROF
 10
1.9750295148747341
 20
10.37671325491794
 30
0.0000000000000001
 70
    16
  0
SEQEND
  5
C143
  8
PROF
  0
LINE
  5
C144
  8
PROF
 10
4.9012016798694162
 20
12.88585218805485
 30
0.0000000000000003
 11
4.519857503186925
 21
12.88585218805485
 31
0.0000000000000003
  0
LINE
  5
C145
  8
PROF
 10
0.7321315362267457
 20
8.2026312473991556
 30
0.0000000000000006
 11
0.7321315362267457
 21
8.0511853963434952
 31
0.0000000000000006
  0
ARC
  5
C146
  8
PROF
 10
0.7977322214551919
 20
7.577333933202679
 30
0.0000000000000006
 40
0.4783708383912013
 50
97.882010168942557
 51
186.31119505698641
  0
LINE
  5
C147
  8
FRAME_050
 10
7.8016377197432121
 20
17.99371054969447
 30
0.0
 11
7.8016377197432121
 21
0.0000000000002274
 31
0.0
  0
ENDBLK
  5
C149
  8
0
  0
BLOCK
  8
0
  2
*U7
 70
     1
 10
0.0
 20
0.0
 30
0.0
  3
*U7
  1

  0
TEXT
  5
C8C3
  8
0
 10
3.5177832928899071
 20
10.38601584255777
 30
0.0
 40
0.125
  1
Crown Moulding
  0
TEXT
  5
C8C4
  8
0
 10
3.5223876585106431
 20
10.17717091304435
 30
0.0
 40
0.125
  1
TL-AB509
  0
TEXT
  5
C8C5
  8
0
 10
3.5074661032582561
 20
9.9667059289606801
 30
0.0
 40
0.125
  1
1-5/16" x 7-9/16"
  0
TEXT
  5
C8C6
  8
0
 10
3.519403347460166
 20
9.7562409448770051
 30
0.0
 40
0.125
  1
800.66.TAGUE
  0
ENDBLK
  5
C8C8
  8
0
  0
BLOCK
  8
0
  2
*U8
 70
     1
 10
0.0
 20
0.0
 30
0.0
  3
*U8
  1

  0
TEXT
  5
C8CA
  8
0
 10
5.3066868277875692
 20
1.767659498411035
 30
0.0
 40
0.125
  1
Back Band
  0
TEXT
  5
C8CB
  8
0
 10
5.3153839628489603
 20
1.55881456889762
 30
0.0
 40
0.125
  1
TL-1
  0
TEXT
  5
C8CC
  8
0
 10
5.3004624075965721
 20
1.3483495848139451
 30
0.0
 40
0.125
  1
1-3/8" x 1-9/16"
  0
TEXT
  5
C8CD
  8
0
 10
5.3123996517984811
 20
1.1378846007302701
 30
0.0
 40
0.125
  1
800.66.TAGUE
  0
ENDBLK
  5
C8CF
  8
0
  0
BLOCK
  8
0
  2
*U9
 70
     1
 10
0.0
 20
0.0
 30
0.0
  3
*U9
  1

  0
TEXT
  5
C8D1
  8
0
 10
-385.7580743253551
 20
838.2627455404056
 30
0.0
 40
0.125
  1
Back Band
  0
TEXT
  5
C8D2
  8
0
 10
-385.74937719029373
 20
838.05390061089247
 30
0.0
 40
0.125
  1
TL-1
  0
TEXT
  5
C8D3
  8
0
 10
-385.76429874554611
 20
837.84343562680851
 30
0.0
 40
0.125
  1
1-3/8" x 1-9/16"
  0
TEXT
  5
C8D4
  8
0
 10
-385.75236150134418
 20
837.63297064272513
 30
0.0
 40
0.125
  1
800.66.TAGUE
  0
ENDBLK
  5
C8D6
  8
0
  0
BLOCK
  8
0
  2
*D21
 70
     1
 10
0.0
 20
0.0
 30
0.0
  3
*D21
  1

  0
LINE
  5
CDAB
  8
0
 62
     0
 10
-346.64573732984462
 20
509.42191863586828
 30
0.0
 11
-346.03266106471222
 21
509.42191863586828
 31
0.0
  0
LINE
  5
CDAC
  8
0
 62
     0
 10
-347.59461414974379
 20
507.61166709199199
 30
0.0
 11
-346.03266106471222
 21
507.61166709199199
 31
0.0
  0
LINE
  5
CDAD
  8
0
 62
     0
 10
-346.09516106471222
 20
509.42191863586828
 30
0.0
 11
-346.09516106471222
 21
507.61166709199199
 31
0.0
  0
INSERT
  5
CDAE
  8
0
 62
     0
  2
_ARCHTICK
 10
-346.09516106471222
 20
509.42191863586828
 30
0.0
 41
0.046875
 42
0.046875
 43
0.046875
 50
90.0
  0
INSERT
  5
CDAF
  8
0
 62
     0
  2
_ARCHTICK
 10
-346.09516106471222
 20
507.61166709199199
 30
0.0
 41
0.046875
 42
0.046875
 43
0.046875
 50
270.0
  0
INSERT
  5
CDB0
  8
0
  2
*U72
 10
0.0
 20
0.0
 30
0.0
  0
POINT
  5
CDB1
  8
DEFPOINTS
 62
     0
 10
-346.73948732984462
 20
509.42191863586828
 30
0.0
  0
POINT
  5
CDB2
  8
DEFPOINTS
 62
     0
 10
-347.68836414974379
 20
507.61166709199199
 30
0.0
  0
POINT
  5
CDB3
  8
DEFPOINTS
 62
     0
 10
-346.09516106471222
 20
507.61166709199199
 30
0.0
  0
ENDBLK
  5
CDB4
  8
0
  0
BLOCK
  8
0
  2
*D23
 70
     1
 10
0.0
 20
0.0
 30
0.0
  3
*D23
  1

  0
LINE
  5
CDEB
  8
0
 62
     0
 10
-387.02714157709249
 20
839.57969957928674
 30
0.0
 11
-386.41406531196009
 21
839.57969957928674
 31
0.0
  0
LINE
  5
CDEC
  8
0
 62
     0
 10
-387.97601839699172
 20
837.76944803541039
 30
0.0
 11
-386.41406531196009
 21
837.76944803541039
 31
0.0
  0
LINE
  5
CDED
  8
0
 62
     0
 10
-386.47656531196009
 20
839.57969957928674
 30
0.0
 11
-386.47656531196009
 21
837.76944803541039
 31
0.0
  0
INSERT
  5
CDEE
  8
0
 62
     0
  2
_ARCHTICK
 10
-386.47656531196009
 20
839.57969957928674
 30
0.0
 41
0.046875
 42
0.046875
 43
0.046875
 50
90.0
  0
INSERT
  5
CDEF
  8
0
 62
     0
  2
_ARCHTICK
 10
-386.47656531196009
 20
837.76944803541039
 30
0.0
 41
0.046875
 42
0.046875
 43
0.046875
 50
270.0
  0
INSERT
  5
CDF0
  8
0
  2
*U74
 10
0.0
 20
0.0
 30
0.0
  0
POINT
  5
CDF1
  8
DEFPOINTS
 62
     0
 10
-387.12089157709249
 20
839.57969957928674
 30
0.0
  0
POINT
  5
CDF2
  8
DEFPOINTS
 62
     0
 10
-388.06976839699172
 20
837.76944803541039
 30
0.0
  0
POINT
  5
CDF3
  8
DEFPOINTS
 62
     0
 10
-386.47656531196009
 20
837.76944803541039
 30
0.0
  0
ENDBLK
  5
CDEA
  8
0
  0
BLOCK
  8
0
  2
*U61
 70
     1
 10
0.0
 20
0.0
 30
0.0
  3
*U61
  1

  0
TEXT
  5
F330
  8
0
 10
2.0520856342580478
 20
1.4053520973297959
 30
0.0
 40
0.125
  1
Exterior Casing
  0
TEXT
  5
F331
  8
0
 10
2.0520856342580478
 20
1.1970187639964629
 30
0.0
 40
0.125
  1
TL-180
  0
TEXT
  5
F332
  8
0
 10
2.0520856342580478
 20
0.9886854306631298
 30
0.0
 40
0.125
  1
1-1/4" x 2"
  0
TEXT
  5
F333
  8
0
 10
2.0520856342580478
 20
0.7803520973297964
 30
0.0
 40
0.125
  1
800.66.TAGUE
  0
ENDBLK
  5
F335
  8
0
  0
BLOCK
  8
0
  2
*U62
 70
     1
 10
0.0
 20
0.0
 30
0.0
  3
*U62
  1

  0
TEXT
  5
F337
  8
0
 10
1.875832532300876
 20
1.1538771312937111
 30
0.0
 40
0.125
  1
Exterior Casing
  0
TEXT
  5
F338
  8
0
 10
1.875832532300876
 20
0.9455437979603782
 30
0.0
 40
0.125
  1
TL-544
  0
TEXT
  5
F339
  8
0
 10
1.875832532300876
 20
0.7372104646270449
 30
0.0
 40
0.125
  1
1-1/8" x 1-9/16"
  0
TEXT
  5
F33A
  8
0
 10
1.875832532300876
 20
0.5288771312937115
 30
0.0
 40
0.125
  1
800.66.TAGUE
  0
ENDBLK
  5
F33C
  8
0
  0
BLOCK
  8
0
  2
*U63
 70
     1
 10
0.0
 20
0.0
 30
0.0
  3
*U63
  1

  0
TEXT
  5
F33E
  8
0
 10
2.2653468102219558
 20
1.612015904330746
 30
0.0
 40
0.125
  1
Exterior Casing
  0
TEXT
  5
F33F
  8
0
 10
2.2653468102219558
 20
1.403682570997413
 30
0.0
 40
0.125
  1
TL-2023
  0
TEXT
  5
F340
  8
0
 10
2.2653468102219558
 20
1.19534923766408
 30
0.0
 40
0.125
  1
1-13/16" x 3" 
  0
TEXT
  5
F341
  8
0
 10
2.2653468102219558
 20
0.9870159043307467
 30
0.0
 40
0.125
  1
800.66.TAGUE
  0
ENDBLK
  5
F343
  8
0
  0
BLOCK
  8
0
  2
*U64
 70
     1
 10
0.0
 20
0.0
 30
0.0
  3
*U64
  1

  0
TEXT
  5
F345
  8
0
 10
2.0898675486657221
 20
0.9145072342178082
 30
0.0
 40
0.125
  1
Exterior Casing
  0
TEXT
  5
F346
  8
0
 10
2.0898675486657221
 20
0.706173900884475
 30
0.0
 40
0.125
  1
TL-2087
  0
TEXT
  5
F347
  8
0
 10
2.0898675486657221
 20
0.4978405675511416
 30
0.0
 40
0.125
  1
7/8" x 1-7/16"
  0
TEXT
  5
F348
  8
0
 10
2.0898675486657221
 20
0.2895072342178082
 30
0.0
 40
0.125
  1
800.66.TAGUE
  0
ENDBLK
  5
F34A
  8
0
  0
BLOCK
  8
0
  2
*U65
 70
     1
 10
0.0
 20
0.0
 30
0.0
  3
*U65
  1

  0
TEXT
  5
F34C
  8
0
 10
2.1806631076311191
 20
0.8419101546792263
 30
0.0
 40
0.125
  1
Exterior Casing
  0
TEXT
  5
F34D
  8
0
 10
2.1806631076311191
 20
0.6335768213458931
 30
0.0
 40
0.125
  1
TL-2158
  0
TEXT
  5
F34E
  8
0
 10
2.1806631076311191
 20
0.4252434880125597
 30
0.0
 40
0.125
  1
1-1/16" x 1-5/16"
  0
TEXT
  5
F34F
  8
0
 10
2.1806631076311191
 20
0.2169101546792262
 30
0.0
 40
0.125
  1
800.66.TAGUE
  0
ENDBLK
  5
F351
  8
0
  0
BLOCK
  8
0
  2
*U66
 70
     1
 10
0.0
 20
0.0
 30
0.0
  3
*U66
  1

  0
TEXT
  5
F353
  8
0
 10
2.2408536425556909
 20
1.2992247915469759
 30
0.0
 40
0.125
  1
Exterior Casing
  0
TEXT
  5
F354
  8
0
 10
2.2408536425556909
 20
1.090891458213642
 30
0.0
 40
0.125
  1
TL-2174
  0
TEXT
  5
F355
  8
0
 10
2.2408536425556909
 20
0.8825581248803095
 30
0.0
 40
0.125
  1
1-3/8" x 1-7/16"
  0
TEXT
  5
F356
  8
0
 10
2.2408536425556909
 20
0.6742247915469762
 30
0.0
 40
0.125
  1
800.66.TAGUE
  0
ENDBLK
  5
F358
  8
0
  0
BLOCK
  8
0
  2
*U67
 70
     1
 10
0.0
 20
0.0
 30
0.0
  3
*U67
  1

  0
TEXT
  5
F35A
  8
0
 10
2.8048346441314029
 20
1.129982283289336
 30
0.0
 40
0.125
  1
Exterior Casing
  0
TEXT
  5
F35B
  8
0
 10
2.8048346441314029
 20
0.9216489499560037
 30
0.0
 40
0.125
  1
TL-2175
  0
TEXT
  5
F35C
  8
0
 10
2.8048346441314029
 20
0.7133156166226704
 30
0.0
 40
0.125
  1
1-9/32" x 1-29/32"
  0
TEXT
  5
F35D
  8
0
 10
2.8048346441314029
 20
0.504982283289337
 30
0.0
 40
0.125
  1
800.66.TAGUE
  0
ENDBLK
  5
F35F
  8
0
  0
BLOCK
  8
0
  2
*U68
 70
     1
 10
0.0
 20
0.0
 30
0.0
  3
*U68
  1

  0
TEXT
  5
F361
  8
0
 10
2.5484960182450891
 20
0.679430053902138
 30
0.0
 40
0.125
  1
Exterior Casing
  0
TEXT
  5
F362
  8
0
 10
2.5484960182450891
 20
0.4710967205688046
 30
0.0
 40
0.125
  1
TL-2176
  0
TEXT
  5
F363
  8
0
 10
2.5484960182450891
 20
0.2627633872354712
 30
0.0
 40
0.125
  1
19/32" x 1-5/8"
  0
TEXT
  5
F364
  8
0
 10
2.5484960182450891
 20
0.0544300539021379
 30
0.0
 40
0.125
  1
800.66.TAGUE
  0
ENDBLK
  5
F366
  8
0
  0
BLOCK
  8
0
  2
*U69
 70
     1
 10
0.0
 20
0.0
 30
0.0
  3
*U69
  1

  0
TEXT
  5
F368
  8
0
 10
2.105732231568993
 20
0.7255830389262883
 30
0.0
 40
0.125
  1
Exterior Casing
  0
TEXT
  5
F369
  8
0
 10
2.105732231568993
 20
0.5172497055929551
 30
0.0
 40
0.125
  1
TL-2108
  0
TEXT
  5
F36A
  8
0
 10
2.105732231568993
 20
0.3089163722596217
 30
0.0
 40
0.125
  1
15/16" x 1-1/16"
  0
TEXT
  5
F36B
  8
0
 10
2.105732231568993
 20
0.1005830389262883
 30
0.0
 40
0.125
  1
800.66.TAGUE
  0
ENDBLK
  5
F36D
  8
0
  0
BLOCK
  8
0
  2
*U70
 70
     1
 10
0.0
 20
0.0
 30
0.0
  3
*U70
  1

  0
TEXT
  5
F36F
  8
0
 10
0.0469294570366401
 20
0.67943073463357
 30
0.0
 40
0.125
  1
Exterior Casing
  0
TEXT
  5
F370
  8
0
 10
0.0469294570366401
 20
0.4710974013002366
 30
0.0
 40
0.125
  1
TL-2206
  0
TEXT
  5
F371
  8
0
 10
0.0469294570366401
 20
0.2627640679669033
 30
0.0
 40
0.125
  1
1-3/32" x 1-23/32"
  0
TEXT
  5
F372
  8
0
 10
0.0469294570366401
 20
0.05443073463357
 30
0.0
 40
0.125
  1
800.66.TAGUE
  0
ENDBLK
  5
F374
  8
0
  0
BLOCK
  8
0
  2
*U71
 70
     1
 10
0.0
 20
0.0
 30
0.0
  3
*U71
  1

  0
TEXT
  5
F376
  8
0
 10
0.0449853036485593
 20
0.6794309447934666
 30
0.0
 40
0.125
  1
Exterior Casing
  0
TEXT
  5
F377
  8
0
 10
0.0449853036485593
 20
0.4710976114601333
 30
0.0
 40
0.125
  1
TL-2207
  0
TEXT
  5
F378
  8
0
 10
0.0449853036485593
 20
0.2627642781267999
 30
0.0
 40
0.125
  1
1-1/8" x 2-15/16"
  0
TEXT
  5
F379
  8
0
 10
0.0449853036485593
 20
0.0544309447934666
 30
0.0
 40
0.125
  1
800.66.TAGUE
  0
ENDBLK
  5
F37B
  8
0
  0
BLOCK
  8
0
  2
*U72
 70
     1
 10
0.0
 20
0.0
 30
0.0
  3
*U72
  1

  0
TEXT
  5
F37D
  8
0
 62
     0
 10
-346.15979271546257
 20
508.16262619726342
 30
0.0
 40
0.125
  1
Cutter
 50
90.0
  0
ENDBLK
  5
F37F
  8
0
  0
BLOCK
  8
0
  2
*U73
 70
     1
 10
0.0
 20
0.0
 30
0.0
  3
*U73
  1

  0
TEXT
  5
F381
  8
0
 10
3.5112004937425918
 20
2.3236705000861089
 30
0.0
 40
0.125
  1
Exterior Casing
  0
TEXT
  5
F382
  8
0
 10
3.5112004937425918
 20
2.1153371667527749
 30
0.0
 40
0.125
  1
TL-2242
  0
TEXT
  5
F383
  8
0
 10
3.5112004937425918
 20
1.9070038334194419
 30
0.0
 40
0.125
  1
2" x 4-1/2"
  0
TEXT
  5
F384
  8
0
 10
3.5112004937425918
 20
1.6986705000861091
 30
0.0
 40
0.125
  1
800.66.TAGUE
  0
ENDBLK
  5
F386
  8
0
  0
BLOCK
  8
0
  2
*U74
 70
     1
 10
0.0
 20
0.0
 30
0.0
  3
*U74
  1

  0
TEXT
  5
F388
  8
0
 62
     0
 10
-386.5390653119602
 20
838.32040714068194
 30
0.0
 40
0.125
  1
Cutter
 50
90.0
  0
ENDBLK
  5
F38A
  8
0
  0
BLOCK
  8
0
  2
*U75
 70
     1
 10
0.0
 20
0.0
 30
0.0
  3
*U75
  1

  0
TEXT
  5
F38C
  8
0
 10
1.983241637717696
 20
1.2297917133489591
 30
0.0
 40
0.125
  1
Exterior Casing
  0
TEXT
  5
F38D
  8
0
 10
1.983241637717696
 20
1.0214583800156249
 30
0.0
 40
0.125
  1
TL-2254
  0
TEXT
  5
F38E
  8
0
 10
1.983241637717696
 20
0.8131250466822924
 30
0.0
 40
0.125
  1
1-1/4" x 1-3/4"
  0
TEXT
  5
F38F
  8
0
 10
1.983241637717696
 20
0.6047917133489591
 30
0.0
 40
0.125
  1
800.66.TAGUE
  0
ENDBLK
  5
F391
  8
0
  0
BLOCK
  8
0
  2
*U76
 70
     1
 10
0.0
 20
0.0
 30
0.0
  3
*U76
  1

  0
TEXT
  5
F393
  8
0
 10
2.2285402119240412
 20
3.7215677387475798
 30
0.0
 40
0.125
  1
Exterior Jamb
  0
TEXT
  5
F394
  8
0
 10
2.2285402119240412
 20
3.5132344054142468
 30
0.0
 40
0.125
  1
TL-2126
  0
TEXT
  5
F395
  8
0
 10
2.2285402119240412
 20
3.3049010720809142
 30
0.0
 40
0.125
  1
1-1/4" x 6-5/8"
  0
TEXT
  5
F396
  8
0
 10
2.2285402119240412
 20
3.0965677387475798
 30
0.0
 40
0.125
  1
800.66.TAGUE
  0
ENDBLK
  5
F398
  8
0
  0
BLOCK
  8
0
  2
*U77
 70
     1
 10
0.0
 20
0.0
 30
0.0
  3
*U77
  1

  0
TEXT
  5
F39A
  8
0
 10
2.025590122046196
 20
3.8877018206065941
 30
0.0
 40
0.125
  1
Exterior Jamb
  0
TEXT
  5
F39B
  8
0
 10
2.025590122046196
 20
3.6793684872732602
 30
0.0
 40
0.125
  1
TL-2127
  0
TEXT
  5
F39C
  8
0
 10
2.025590122046196
 20
3.4710351539399271
 30
0.0
 40
0.125
  1
1-1/4" x 6-5/8"
  0
TEXT
  5
F39D
  8
0
 10
2.025590122046196
 20
3.2627018206065941
 30
0.0
 40
0.125
  1
800.66.TAGUE
  0
ENDBLK
  5
F39F
  8
0
  0
BLOCK
  8
0
  2
*U78
 70
     1
 10
0.0
 20
0.0
 30
0.0
  3
*U78
  1

  0
TEXT
  5
F3A1
  8
0
 10
1.8279899277385421
 20
2.0085009357213721
 30
0.0
 40
0.125
  1
Fluting
  0
TEXT
  5
F3A2
  8
0
 10
1.8279899277385421
 20
1.800167602388038
 30
0.0
 40
0.125
  1
TL-123
  0
TEXT
  5
F3A3
  8
0
 10
1.8279899277385421
 20
1.5918342690547049
 30
0.0
 40
0.125
  1
3/4" x 3-1/2"
  0
TEXT
  5
F3A4
  8
0
 10
1.8279899277385421
 20
1.3835009357213719
 30
0.0
 40
0.125
  1
800.66.TAGUE
  0
ENDBLK
  5
F3A6
  8
0
  0
BLOCK
  8
0
  2
*U79
 70
     1
 10
0.0
 20
0.0
 30
0.0
  3
*U79
  1

  0
TEXT
  5
F3A8
  8
0
 10
1.9710461263608181
 20
3.9608870512416838
 30
0.0
 40
0.125
  1
Fluting
  0
TEXT
  5
F3A9
  8
0
 10
1.9710461263608181
 20
3.7525537179083499
 30
0.0
 40
0.125
  1
TL-343
  0
TEXT
  5
F3AA
  8
0
 10
1.9710461263608181
 20
3.5442203845750169
 30
0.0
 40
0.125
  1
7/8" x 7-3/16"
  0
TEXT
  5
F3AB
  8
0
 10
1.9710461263608181
 20
3.3358870512416838
 30
0.0
 40
0.125
  1
800.66.TAGUE
  0
ENDBLK
  5
F3AD
  8
0
  0
BLOCK
  8
0
  2
*U80
 70
     1
 10
0.0
 20
0.0
 30
0.0
  3
*U80
  1

  0
TEXT
  5
F3AF
  8
0
 10
1.4662897697170929
 20
3.8395028676267202
 30
0.0
 40
0.125
  1
Fluting
  0
TEXT
  5
F3B0
  8
0
 10
1.4662897697170929
 20
3.6311695342933858
 30
0.0
 40
0.125
  1
TL-2183
  0
TEXT
  5
F3B1
  8
0
 10
1.4662897697170929
 20
3.4228362009600528
 30
0.0
 40
0.125
  1
3/4" x 7-1/4"
  0
TEXT
  5
F3B2
  8
0
 10
1.4662897697170929
 20
3.2145028676267202
 30
0.0
 40
0.125
  1
800.66.TAGUE
  0
ENDBLK
  5
F3B4
  8
0
  0
BLOCK
  8
0
  2
*U81
 70
     1
 10
0.0
 20
0.0
 30
0.0
  3
*U81
  1

  0
TEXT
  5
F3B6
  8
0
 10
2.0951853732560148
 20
2.6676693683394879
 30
0.0
 40
0.125
  1
Fluting
  0
TEXT
  5
F3B7
  8
0
 10
2.0951853732560148
 20
2.4593360350061548
 30
0.0
 40
0.125
  1
TL-2276
  0
TEXT
  5
F3B8
  8
0
 10
2.0951853732560148
 20
2.2510027016728218
 30
0.0
 40
0.125
  1
11/16" x 3"
  0
TEXT
  5
F3B9
  8
0
 10
2.0951853732560148
 20
2.0426693683394879
 30
0.0
 40
0.125
  1
800.66.TAGUE
  0
ENDBLK
  5
F3BB
  8
0
  0
BLOCK
  8
0
  2
*U82
 70
     1
 10
0.0
 20
0.0
 30
0.0
  3
*U82
  1

  0
TEXT
  5
F3BD
  8
0
 10
2.4586482925877808
 20
1.0775582798773931
 30
0.0
 40
0.125
  1
Full Round
  0
TEXT
  5
F3BE
  8
0
 10
2.4586482925877808
 20
0.8692249465440607
 30
0.0
 40
0.125
  1
TL-232
  0
TEXT
  5
F3BF
  8
0
 10
2.4586482925877808
 20
0.6608916132107274
 30
0.0
 40
0.125
  1
1-7/16" x 1-7/16"
  0
TEXT
  5
F3C0
  8
0
 10
2.4586482925877808
 20
0.452558279877394
 30
0.0
 40
0.125
  1
800.66.TAGUE
  0
ENDBLK
  5
F3C2
  8
0
  0
BLOCK
  8
0
  2
*U83
 70
     1
 10
0.0
 20
0.0
 30
0.0
  3
*U83
  1

  0
TEXT
  5
F3C4
  8
0
 10
2.339763263951113
 20
0.912090443150646
 30
0.0
 40
0.125
  1
Full Round
  0
TEXT
  5
F3C5
  8
0
 10
2.339763263951113
 20
0.7037571098173128
 30
0.0
 40
0.125
  1
TL-233
  0
TEXT
  5
F3C6
  8
0
 10
2.339763263951113
 20
0.4954237764839795
 30
0.0
 40
0.125
  1
1-3/16" x 1-3/16"
  0
TEXT
  5
F3C7
  8
0
 10
2.339763263951113
 20
0.287090443150646
 30
0.0
 40
0.125
  1
800.66.TAGUE
  0
ENDBLK
  5
F3C9
  8
0
  0
BLOCK
  8
0
  2
*U84
 70
     1
 10
0.0
 20
0.0
 30
0.0
  3
*U84
  1

  0
TEXT
  5
F3CB
  8
0
 10
2.2927598682417729
 20
0.8643692839127652
 30
0.0
 40
0.125
  1
Full Round
  0
TEXT
  5
F3CC
  8
0
 10
2.2927598682417729
 20
0.6560359505794321
 30
0.0
 40
0.125
  1
TL-234
  0
TEXT
  5
F3CD
  8
0
 10
2.2927598682417729
 20
0.4477026172460987
 30
0.0
 40
0.125
  1
1-1/16" x 1-1/16"
  0
TEXT
  5
F3CE
  8
0
 10
2.2927598682417729
 20
0.2393692839127652
 30
0.0
 40
0.125
  1
800.66.TAGUE
  0
ENDBLK
  5
F3D0
  8
0
  0
BLOCK
  8
0
  2
*U85
 70
     1
 10
0.0
 20
0.0
 30
0.0
  3
*U85
  1

  0
TEXT
  5
F3D2
  8
0
 10
2.0765905058337921
 20
1.0252762384561711
 30
0.0
 40
0.125
  1
Glass Bead
  0
TEXT
  5
F3D3
  8
0
 10
2.0765905058337921
 20
0.8169429051228387
 30
0.0
 40
0.125
  1
TL-145
  0
TEXT
  5
F3D4
  8
0
 10
2.0765905058337921
 20
0.6086095717895054
 30
0.0
 40
0.125
  1
11/16" x 3/4"
  0
TEXT
  5
F3D5
  8
0
 10
2.0765905058337921
 20
0.400276238456172
 30
0.0
 40
0.125
  1
800.66.TAGUE
  0
ENDBLK
  5
F3D7
  8
0
  0
BLOCK
  8
0
  2
*U86
 70
     1
 10
0.0
 20
0.0
 30
0.0
  3
*U86
  1

  0
TEXT
  5
F3D9
  8
0
 10
1.468683703905185
 20
0.7455079879047162
 30
0.0
 40
0.125
  1
Glass Bead
  0
TEXT
  5
F3DA
  8
0
 10
1.468683703905185
 20
0.537174654571383
 30
0.0
 40
0.125
  1
TL-147
  0
TEXT
  5
F3DB
  8
0
 10
1.468683703905185
 20
0.3288413212380496
 30
0.0
 40
0.125
  1
1/2" x 9/16"
  0
TEXT
  5
F3DC
  8
0
 10
1.468683703905185
 20
0.1205079879047162
 30
0.0
 40
0.125
  1
800.66.TAGUE
  0
ENDBLK
  5
F3DE
  8
0
  0
BLOCK
  8
0
  2
*U87
 70
     1
 10
0.0
 20
0.0
 30
0.0
  3
*U87
  1

  0
TEXT
  5
F3E0
  8
0
 10
1.584020839760341
 20
0.6794303041602916
 30
0.0
 40
0.125
  1
Glass Bead
  0
TEXT
  5
F3E1
  8
0
 10
1.584020839760341
 20
0.4710969708269583
 30
0.0
 40
0.125
  1
TL-152
  0
TEXT
  5
F3E2
  8
0
 10
1.584020839760341
 20
0.262763637493625
 30
0.0
 40
0.125
  1
3/8" x 11/16"
  0
TEXT
  5
F3E3
  8
0
 10
1.584020839760341
 20
0.0544303041602916
 30
0.0
 40
0.125
  1
800.66.TAGUE
  0
ENDBLK
  5
F3E5
  8
0
  0
BLOCK
  8
0
  2
*U88
 70
     1
 10
0.0
 20
0.0
 30
0.0
  3
*U88
  1

  0
TEXT
  5
F3E7
  8
0
 10
1.3526095965341931
 20
0.7381811042487243
 30
0.0
 40
0.125
  1
Glass Bead
  0
TEXT
  5
F3E8
  8
0
 10
1.3526095965341931
 20
0.5298477709153912
 30
0.0
 40
0.125
  1
TL-2142
  0
TEXT
  5
F3E9
  8
0
 10
1.3526095965341931
 20
0.3215144375820577
 30
0.0
 40
0.125
  1
11/32" x 29/32"
  0
TEXT
  5
F3EA
  8
0
 10
1.3526095965341931
 20
0.1131811042487243
 30
0.0
 40
0.125
  1
800.66.TAGUE
  0
ENDBLK
  5
F3EC
  8
0
  0
BLOCK
  8
0
  2
*U89
 70
     1
 10
0.0
 20
0.0
 30
0.0
  3
*U89
  1

  0
TEXT
  5
F3EE
  8
0
 10
1.3435544091540801
 20
0.6794309539541246
 30
0.0
 40
0.125
  1
Glass Bead
  0
TEXT
  5
F3EF
  8
0
 10
1.3435544091540801
 20
0.4710976206207913
 30
0.0
 40
0.125
  1
TL-2149
  0
TEXT
  5
F3F0
  8
0
 10
1.3435544091540801
 20
0.2627642872874579
 30
0.0
 40
0.125
  1
3/8" x 1/2"
  0
TEXT
  5
F3F1
  8
0
 10
1.3435544091540801
 20
0.0544309539541246
 30
0.0
 40
0.125
  1
800.66.TAGUE
  0
ENDBLK
  5
F3F3
  8
0
  0
BLOCK
  8
0
  2
*U90
 70
     1
 10
0.0
 20
0.0
 30
0.0
  3
*U90
  1

  0
TEXT
  5
F3F5
  8
0
 10
1.488844305553698
 20
0.6807937379744545
 30
0.0
 40
0.125
  1
Glass Bead
  0
TEXT
  5
F3F6
  8
0
 10
1.488844305553698
 20
0.4724604046411212
 30
0.0
 40
0.125
  1
TL-2155
  0
TEXT
  5
F3F7
  8
0
 10
1.488844305553698
 20
0.2641270713077878
 30
0.0
 40
0.125
  1
1/2" x 13/16"
  0
TEXT
  5
F3F8
  8
0
 10
1.488844305553698
 20
0.0557937379744544
 30
0.0
 40
0.125
  1
800.66.TAGUE
  0
ENDBLK
  5
F3FA
  8
0
  0
BLOCK
  8
0
  2
*U91
 70
     1
 10
0.0
 20
0.0
 30
0.0
  3
*U91
  1

  0
TEXT
  5
F3FC
  8
0
 10
1.52304343587059
 20
0.6794307504626432
 30
0.0
 40
0.125
  1
Glass Bead
  0
TEXT
  5
F3FD
  8
0
 10
1.52304343587059
 20
0.4710974171293099
 30
0.0
 40
0.125
  1
TL-2218
  0
TEXT
  5
F3FE
  8
0
 10
1.52304343587059
 20
0.2627640837959765
 30
0.0
 40
0.125
  1
1/4" x 5/8"
  0
TEXT
  5
F3FF
  8
0
 10
1.52304343587059
 20
0.0544307504626431
 30
0.0
 40
0.125
  1
800.66.TAGUE
  0
ENDBLK
  5
F401
  8
0
  0
BLOCK
  8
0
  2
*U92
 70
     1
 10
0.0
 20
0.0
 30
0.0
  3
*U92
  1

  0
TEXT
  5
F403
  8
0
 10
2.8235364504146778
 20
0.7161662597191026
 30
0.0
 40
0.125
  1
Half Round
  0
TEXT
  5
F404
  8
0
 10
2.8235364504146778
 20
0.5078329263857692
 30
0.0
 40
0.125
  1
TL-6
  0
TEXT
  5
F405
  8
0
 10
2.8235364504146778
 20
0.2994995930524358
 30
0.0
 40
0.125
  1
7/8" x 1-3/4"
  0
TEXT
  5
F406
  8
0
 10
2.8235364504146778
 20
0.0911662597191025
 30
0.0
 40
0.125
  1
800.66.TAGUE
  0
ENDBLK
  5
F408
  8
0
  0
BLOCK
  8
0
  2
*U93
 70
     1
 10
0.0
 20
0.0
 30
0.0
  3
*U93
  1

  0
TEXT
  5
F40A
  8
0
 10
2.8316039409763221
 20
0.7222806133900122
 30
0.0
 40
0.125
  1
Half Round
  0
TEXT
  5
F40B
  8
0
 10
2.8316039409763221
 20
0.5139472800566788
 30
0.0
 40
0.125
  1
TL-7
  0
TEXT
  5
F40C
  8
0
 10
2.8316039409763221
 20
0.3056139467233454
 30
0.0
 40
0.125
  1
1" x 2"
  0
TEXT
  5
F40D
  8
0
 10
2.8316039409763221
 20
0.0972806133900122
 30
0.0
 40
0.125
  1
800.66.TAGUE
  0
ENDBLK
  5
F40F
  8
0
  0
BLOCK
  8
0
  2
*U94
 70
     1
 10
0.0
 20
0.0
 30
0.0
  3
*U94
  1

  0
TEXT
  5
F411
  8
0
 10
4.3092556456276148
 20
0.8292621657587915
 30
0.0
 40
0.125
  1
Half Round
  0
TEXT
  5
F412
  8
0
 10
4.3092556456276148
 20
0.6209288324254582
 30
0.0
 40
0.125
  1
TL-8
  0
TEXT
  5
F413
  8
0
 10
4.3092556456276148
 20
0.4125954990921248
 30
0.0
 40
0.125
  1
1-1/2" x 3"
  0
TEXT
  5
F414
  8
0
 10
4.3092556456276148
 20
0.2042621657587915
 30
0.0
 40
0.125
  1
800.66.TAGUE
  0
ENDBLK
  5
F416
  8
0
  0
BLOCK
  8
0
  2
*U95
 70
     1
 10
0.0
 20
0.0
 30
0.0
  3
*U95
  1

  0
TEXT
  5
F418
  8
0
 10
2.524104426630799
 20
0.6794299200373644
 30
0.0
 40
0.125
  1
Half Round
  0
TEXT
  5
F419
  8
0
 10
2.524104426630799
 20
0.471096586704031
 30
0.0
 40
0.125
  1
TL-116
  0
TEXT
  5
F41A
  8
0
 10
2.524104426630799
 20
0.2627632533706976
 30
0.0
 40
0.125
  1
3/4" x 1-1/2"
  0
TEXT
  5
F41B
  8
0
 10
2.524104426630799
 20
0.0544299200373644
 30
0.0
 40
0.125
  1
800.66.TAGUE
  0
ENDBLK
  5
F41D
  8
0
  0
BLOCK
  8
0
  2
*U96
 70
     1
 10
0.0
 20
0.0
 30
0.0
  3
*U96
  1

  0
TEXT
  5
F41F
  8
0
 10
2.4691699319003528
 20
0.6794301275302815
 30
0.0
 40
0.125
  1
Half Round
  0
TEXT
  5
F420
  8
0
 10
2.4691699319003528
 20
0.4710967941969481
 30
0.0
 40
0.125
  1
TL-119
  0
TEXT
  5
F421
  8
0
 10
2.4691699319003528
 20
0.2627634608636147
 30
0.0
 40
0.125
  1
5/8" x 1-1/4"
  0
TEXT
  5
F422
  8
0
 10
2.4691699319003528
 20
0.0544301275302814
 30
0.0
 40
0.125
  1
800.66.TAGUE
  0
ENDBLK
  5
F424
  8
0
  0
BLOCK
  8
0
  2
*U97
 70
     1
 10
0.0
 20
0.0
 30
0.0
  3
*U97
  1

  0
TEXT
  5
F426
  8
0
 10
1.96218194837894
 20
0.679429735423696
 30
0.0
 40
0.125
  1
Half Round
  0
TEXT
  5
F427
  8
0
 10
1.96218194837894
 20
0.4710964020903626
 30
0.0
 40
0.125
  1
TL-120
  0
TEXT
  5
F428
  8
0
 10
1.96218194837894
 20
0.2627630687570293
 30
0.0
 40
0.125
  1
1/2" x 1"
  0
TEXT
  5
F429
  8
0
 10
1.96218194837894
 20
0.054429735423696
 30
0.0
 40
0.125
  1
800.66.TAGUE
  0
ENDBLK
  5
F42B
  8
0
  0
BLOCK
  8
0
  2
*U98
 70
     1
 10
0.0
 20
0.0
 30
0.0
  3
*U98
  1

  0
TEXT
  5
F42D
  8
0
 10
1.51989036816559
 20
0.679429754589819
 30
0.0
 40
0.125
  1
Half Round
  0
TEXT
  5
F42E
  8
0
 10
1.51989036816559
 20
0.4710964212564856
 30
0.0
 40
0.125
  1
TL-122
  0
TEXT
  5
F42F
  8
0
 10
1.51989036816559
 20
0.2627630879231522
 30
0.0
 40
0.125
  1
11/32" x 11/16"
  0
TEXT
  5
F430
  8
0
 10
1.51989036816559
 20
0.0544297545898189
 30
0.0
 40
0.125
  1
800.66.TAGUE
  0
ENDBLK
  5
F432
  8
0
  0
BLOCK
  8
0
  2
*U99
 70
     1
 10
0.0
 20
0.0
 30
0.0
  3
*U99
  1

  0
TEXT
  5
F434
  8
0
 10
1.332760358760481
 20
0.6794306489528026
 30
0.0
 40
0.125
  1
Half Round
  0
TEXT
  5
F435
  8
0
 10
1.332760358760481
 20
0.4710973156194692
 30
0.0
 40
0.125
  1
TL-124
  0
TEXT
  5
F436
  8
0
 10
1.332760358760481
 20
0.2627639822861358
 30
0.0
 40
0.125
  1
1/4" x 1/2"
  0
TEXT
  5
F437
  8
0
 10
1.332760358760481
 20
0.0544306489528026
 30
0.0
 40
0.125
  1
800.66.TAGUE
  0
ENDBLK
  5
F439
  8
0
  0
BLOCK
  8
0
  2
*U100
 70
     1
 10
0.0
 20
0.0
 30
0.0
  3
*U100
  1

  0
TEXT
  5
F43B
  8
0
 10
2.6263646070054838
 20
2.827461056571678
 30
0.0
 40
0.125
  1
Hand Rail
  0
TEXT
  5
F43C
  8
0
 10
2.6263646070054838
 20
2.6191277232383441
 30
0.0
 40
0.125
  1
TL-14
  0
TEXT
  5
F43D
  8
0
 10
2.6263646070054838
 20
2.410794389905011
 30
0.0
 40
0.125
  1
1-5/8" x 5-1/4"
  0
TEXT
  5
F43E
  8
0
 10
2.6263646070054838
 20
2.202461056571678
 30
0.0
 40
0.125
  1
800.66.TAGUE
  0
ENDBLK
  5
F440
  8
0
  0
BLOCK
  8
0
  2
*U101
 70
     1
 10
0.0
 20
0.0
 30
0.0
  3
*U101
  1

  0
TEXT
  5
F442
  8
0
 10
2.2830209502855041
 20
2.755934710444194
 30
0.0
 40
0.125
  1
Hand Rail
  0
TEXT
  5
F443
  8
0
 10
2.2830209502855041
 20
2.5476013771108601
 30
0.0
 40
0.125
  1
TL-15
  0
TEXT
  5
F444
  8
0
 10
2.2830209502855041
 20
2.3392680437775271
 30
0.0
 40
0.125
  1
1-3/8" x 5-1/2"
  0
TEXT
  5
F445
  8
0
 10
2.2830209502855041
 20
2.130934710444194
 30
0.0
 40
0.125
  1
800.66.TAGUE
  0
ENDBLK
  5
F447
  8
0
  0
BLOCK
  8
0
  2
*U102
 70
     1
 10
0.0
 20
0.0
 30
0.0
  3
*U102
  1

  0
TEXT
  5
F449
  8
0
 10
3.5100871080940119
 20
1.046126857764647
 30
0.0
 40
0.125
  1
Hand Rail
  0
TEXT
  5
F44A
  8
0
 10
3.5100871080940119
 20
0.8377935244313146
 30
0.0
 40
0.125
  1
TL-96
  0
TEXT
  5
F44B
  8
0
 10
3.5100871080940119
 20
0.6294601910979814
 30
0.0
 40
0.125
  1
1-1/4" x 2-1/4"
  0
TEXT
  5
F44C
  8
0
 10
3.5100871080940119
 20
0.4211268577646479
 30
0.0
 40
0.125
  1
800.66.TAGUE
  0
ENDBLK
  5
F44E
  8
0
  0
BLOCK
  8
0
  2
*U103
 70
     1
 10
0.0
 20
0.0
 30
0.0
  3
*U103
  1

  0
TEXT
  5
F450
  8
0
 10
2.3417636350062589
 20
4.2171919217870482
 30
0.0
 40
0.125
  1
Hand Rail
  0
TEXT
  5
F451
  8
0
 10
2.3417636350062589
 20
4.0088585884537151
 30
0.0
 40
0.125
  1
TL-117
  0
TEXT
  5
F452
  8
0
 10
2.3417636350062589
 20
3.8005252551203812
 30
0.0
 40
0.125
  1
1-1/4" x 8-1/8"
  0
TEXT
  5
F453
  8
0
 10
2.3417636350062589
 20
3.5921919217870482
 30
0.0
 40
0.125
  1
800.66.TAGUE
  0
ENDBLK
  5
F455
  8
0
  0
BLOCK
  8
0
  2
*U104
 70
     1
 10
0.0
 20
0.0
 30
0.0
  3
*U104
  1

  0
TEXT
  5
F457
  8
0
 10
2.7125232555794119
 20
1.098442957172892
 30
0.0
 40
0.125
  1
Hand Rail
  0
TEXT
  5
F458
  8
0
 10
2.7125232555794119
 20
0.8901096238395592
 30
0.0
 40
0.125
  1
TL-231
  0
TEXT
  5
F459
  8
0
 10
2.7125232555794119
 20
0.6817762905062259
 30
0.0
 40
0.125
  1
1-1/2" x 1-11/16"
  0
TEXT
  5
F45A
  8
0
 10
2.7125232555794119
 20
0.4734429571728925
 30
0.0
 40
0.125
  1
800.66.TAGUE
  0
ENDBLK
  5
F45C
  8
0
  0
BLOCK
  8
0
  2
*U105
 70
     1
 10
0.0
 20
0.0
 30
0.0
  3
*U105
  1

  0
TEXT
  5
F45E
  8
0
 10
2.960252587020249
 20
0.6772989443436474
 30
0.0
 40
0.125
  1
Lattice
  0
TEXT
  5
F45F
  8
0
 10
2.960252587020249
 20
0.468965611010314
 30
0.0
 40
0.125
  1
TL-266
  0
TEXT
  5
F460
  8
0
 10
2.960252587020249
 20
0.2606322776769806
 30
0.0
 40
0.125
  1
1/4" x 1-5/8"
  0
TEXT
  5
F461
  8
0
 10
2.960252587020249
 20
0.0522989443436472
 30
0.0
 40
0.125
  1
800.66.TAGUE
  0
ENDBLK
  5
F463
  8
0
  0
BLOCK
  8
0
  2
*U106
 70
     1
 10
0.0
 20
0.0
 30
0.0
  3
*U106
  1

  0
TEXT
  5
F465
  8
0
 10
2.5177643903332401
 20
0.6772985360157691
 30
0.0
 40
0.125
  1
Lattice
  0
TEXT
  5
F466
  8
0
 10
2.5177643903332401
 20
0.4689652026824358
 30
0.0
 40
0.125
  1
TL-267
  0
TEXT
  5
F467
  8
0
 10
2.5177643903332401
 20
0.2606318693491024
 30
0.0
 40
0.125
  1
1/4" x 1-3/8"
  0
TEXT
  5
F468
  8
0
 10
2.5177643903332401
 20
0.0522985360157691
 30
0.0
 40
0.125
  1
800.66.TAGUE
  0
ENDBLK
  5
F46A
  8
0
  0
BLOCK
  8
0
  2
*U107
 70
     1
 10
0.0
 20
0.0
 30
0.0
  3
*U107
  1

  0
TEXT
  5
F46C
  8
0
 10
2.3872073702682419
 20
0.6772987437404936
 30
0.0
 40
0.125
  1
Lattice
  0
TEXT
  5
F46D
  8
0
 10
2.3872073702682419
 20
0.4689654104071603
 30
0.0
 40
0.125
  1
TL-268
  0
TEXT
  5
F46E
  8
0
 10
2.3872073702682419
 20
0.260632077073827
 30
0.0
 40
0.125
  1
1/4" x 1-1/8"
  0
TEXT
  5
F46F
  8
0
 10
2.3872073702682419
 20
0.0522987437404936
 30
0.0
 40
0.125
  1
800.66.TAGUE
  0
ENDBLK
  5
F471
  8
0
  0
BLOCK
  8
0
  2
*U108
 70
     1
 10
0.0
 20
0.0
 30
0.0
  3
*U108
  1

  0
TEXT
  5
F473
  8
0
 10
1.7198452767448771
 20
0.6772982915522335
 30
0.0
 40
0.125
  1
Lattice
  0
TEXT
  5
F474
  8
0
 10
1.7198452767448771
 20
0.4689649582189002
 30
0.0
 40
0.125
  1
TL-269
  0
TEXT
  5
F475
  8
0
 10
1.7198452767448771
 20
0.2606316248855668
 30
0.0
 40
0.125
  1
1/4" x 3/4"
  0
TEXT
  5
F476
  8
0
 10
1.7198452767448771
 20
0.0522982915522334
 30
0.0
 40
0.125
  1
800.66.TAGUE
  0
ENDBLK
  5
F478
  8
0
  0
BLOCK
  8
0
  2
*U109
 70
     1
 10
0.0
 20
0.0
 30
0.0
  3
*U109
  1

  0
TEXT
  5
F47A
  8
0
 10
2.0085733028087129
 20
0.6772989387914095
 30
0.0
 40
0.125
  1
Lattice
  0
TEXT
  5
F47B
  8
0
 10
2.0085733028087129
 20
0.4689656054580762
 30
0.0
 40
0.125
  1
TL-270
  0
TEXT
  5
F47C
  8
0
 10
2.0085733028087129
 20
0.2606322721247428
 30
0.0
 40
0.125
  1
1/4" x 7/8"
  0
TEXT
  5
F47D
  8
0
 10
2.0085733028087129
 20
0.0522989387914095
 30
0.0
 40
0.125
  1
800.66.TAGUE
  0
ENDBLK
  5
F47F
  8
0
  0
BLOCK
  8
0
  2
*U110
 70
     1
 10
0.0
 20
0.0
 30
0.0
  3
*U110
  1

  0
TEXT
  5
F481
  8
0
 10
2.940701223973178
 20
0.6772980715210224
 30
0.0
 40
0.125
  1
Lattice
  0
TEXT
  5
F482
  8
0
 10
2.940701223973178
 20
0.4689647381876891
 30
0.0
 40
0.125
  1
TL-962
  0
TEXT
  5
F483
  8
0
 10
2.940701223973178
 20
0.2606314048543558
 30
0.0
 40
0.125
  1
1/4" x 2"
  0
TEXT
  5
F484
  8
0
 10
2.940701223973178
 20
0.0522980715210224
 30
0.0
 40
0.125
  1
800.66.TAGUE
  0
ENDBLK
  5
F486
  8
0
  0
BLOCK
  8
0
  2
*U111
 70
     1
 10
0.0
 20
0.0
 30
0.0
  3
*U111
  1

  0
TEXT
  5
F488
  8
0
 10
1.983768624240724
 20
1.1498699559202801
 30
0.0
 40
0.125
  1
Lip Moulding
  0
TEXT
  5
F489
  8
0
 10
1.983768624240724
 20
0.9415366225869473
 30
0.0
 40
0.125
  1
TL-18
  0
TEXT
  5
F48A
  8
0
 10
1.983768624240724
 20
0.7332032892536139
 30
0.0
 40
0.125
  1
3/4" x 1-15/16"
  0
TEXT
  5
F48B
  8
0
 10
1.983768624240724
 20
0.5248699559202806
 30
0.0
 40
0.125
  1
800.66.TAGUE
  0
ENDBLK
  5
F48D
  8
0
  0
BLOCK
  8
0
  2
*U112
 70
     1
 10
0.0
 20
0.0
 30
0.0
  3
*U112
  1

  0
TEXT
  5
F48F
  8
0
 10
-386.4544954175621
 20
839.22585983980355
 30
0.0
 40
0.125
  1
Lip Moulding
  0
TEXT
  5
F490
  8
0
 10
-386.4544954175621
 20
839.01752650646995
 30
0.0
 40
0.125
  1
TL-18
  0
TEXT
  5
F491
  8
0
 10
-386.4544954175621
 20
838.8091931731368
 30
0.0
 40
0.125
  1
3/4" x 1-15/16"
  0
TEXT
  5
F492
  8
0
 10
-386.4544954175621
 20
838.60085983980332
 30
0.0
 40
0.125
  1
800.66.TAGUE
  0
ENDBLK
  5
F494
  8
0
  0
ENDSEC
  0
SECTION
  2
ENTITIES
  0
INSERT
  5
F31B
  8
0
  2
*U112
 10
0.0
 20
0.0
 30
0.0
  0
LINE
  5
F31C
  8
0
 10
-388.43826435811837
 20
838.51918146676189
 30
0.0
 11
-387.7323394830309
 21
838.28284504817952
 31
0.0
  0
LINE
  5
F31D
  8
0
 10
-388.43826435811837
 20
839.79606482938709
 30
0.0
 11
-388.43826435811837
 21
838.51918146676189
 31
0.0
  0
LINE
  5
F31E
  8
0
  6
CONTINUOUS
 10
-387.7323394830309
 20
838.10117525902206
 30
0.0
 11
-387.7323394830309
 21
838.28284504817952
 31
0.0
  0
POLYLINE
  8
0
  5
F495
  66
     1
 10
0.000000
 20
0.000000
 30
0.000000
  70
     8
  0
VERTEX
  8
0
  5
F496
 10
-388.438
 20
839.796
 30
0.000000
  70
    32
  0
VERTEX
  8
0
  5
F497
 10
-388.436
 20
839.795
 30
0.000000
  70
    32
  0
VERTEX
  8
0
  5
F498
 10
-388.433
 20
839.794
 30
0.000000
  70
    32
  0
VERTEX
  8
0
  5
F499
 10
-388.430
 20
839.793
 30
0.000000
  70
    32
  0
VERTEX
  8
0
  5
F49A
 10
-388.428
 20
839.792
 30
0.000000
  70
    32
  0
VERTEX
  8
0
  5
F49B
 10
-388.425
 20
839.791
 30
0.000000
  70
    32
  0
VERTEX
  8
0
  5
F49C
 10
-388.422
 20
839.790
 30
0.000000
  70
    32
  0
VERTEX
  8
0
  5
F49D
 10
-388.420
 20
839.789
 30
0.000000
  70
    32
  0
VERTEX
  8
0
  5
F49E
 10
-388.417
 20
839.788
 30
0.000000
  70
    32
  0
VERTEX
  8
0
  5
F49F
 10
-388.414
 20
839.787
 30
0.000000
  70
    32
  0
VERTEX
  8
0
  5
F4A0
 10
-388.412
 20
839.786
 30
0.000000
  70
    32
  0
VERTEX
  8
0
  5
F4A1
 10
-388.409
 20
839.785
 30
0.000000
  70
    32
  0
VERTEX
  8
0
  5
F4A2
 10
-388.406
 20
839.784
 30
0.000000
  70
    32
  0
VERTEX
  8
0
  5
F4A3
 10
-388.404
 20
839.783
 30
0.000000
  70
    32
  0
VERTEX
  8
0
  5
F4A4
 10
-388.401
 20
839.782
 30
0.000000
  70
    32
  0
VERTEX
  8
0
  5
F4A5
 10
-388.398
 20
839.781
 30
0.000000
  70
    32
  0
VERTEX
  8
0
  5
F4A6
 10
-388.396
 20
839.780
 30
0.000000
  70
    32
  0
VERTEX
  8
0
  5
F4A7
 10
-388.393
 20
839.779
 30
0.000000
  70
    32
  0
VERTEX
  8
0
  5
F4A8
 10
-388.390
 20
839.778
 30
0.000000
  70
    32
  0
VERTEX
  8
0
  5
F4A9
 10
-388.388
 20
839.777
 30
0.000000
  70
    32
  0
VERTEX
  8
0
  5
F4AA
 10
-388.385
 20
839.776
 30
0.000000
  70
    32
  0
VERTEX
  8
0
  5
F4AB
 10
-388.383
 20
839.774
 30
0.000000
  70
    32
  0
VERTEX
  8
0
  5
F4AC
 10
-388.380
 20
839.773
 30
0.000000
  70
    32
  0
VERTEX
  8
0
  5
F4AD
 10
-388.378
 20
839.772
 30
0.000000
  70
    32
  0
VERTEX
  8
0
  5
F4AE
 10
-388.375
 20
839.770
 30
0.000000
  70
    32
  0
VERTEX
  8
0
  5
F4AF
 10
-388.373
 20
839.769
 30
0.000000
  70
    32
  0
VERTEX
  8
0
  5
F4B0
 10
-388.371
 20
839.767
 30
0.000000
  70
    32
  0
VERTEX
  8
0
  5
F4B1
 10
-388.368
 20
839.766
 30
0.000000
  70
    32
  0
VERTEX
  8
0
  5
F4B2
 10
-388.366
 20
839.764
 30
0.000000
  70
    32
  0
VERTEX
  8
0
  5
F4B3
 10
-388.364
 20
839.762
 30
0.000000
  70
    32
  0
VERTEX
  8
0
  5
F4B4
 10
-388.361
 20
839.761
 30
0.000000
  70
    32
  0
VERTEX
  8
0
  5
F4B5
 10
-388.359
 20
839.759
 30
0.000000
  70
    32
  0
VERTEX
  8
0
  5
F4B6
 10
-388.357
 20
839.757
 30
0.000000
  70
    32
  0
VERTEX
  8
0
  5
F4B7
 10
-388.355
 20
839.755
 30
0.000000
  70
    32
  0
VERTEX
  8
0
  5
F4B8
 10
-388.353
 20
839.753
 30
0.000000
  70
    32
  0
VERTEX
  8
0
  5
F4B9
 10
-388.351
 20
839.751
 30
0.000000
  70
    32
  0
VERTEX
  8
0
  5
F4BA
 10
-388.349
 20
839.749
 30
0.000000
  70
    32
  0
VERTEX
  8
0
  5
F4BB
 10
-388.347
 20
839.747
 30
0.000000
  70
    32
  0
VERTEX
  8
0
  5
F4BC
 10
-388.345
 20
839.745
 30
0.000000
  70
    32
  0
VERTEX
  8
0
  5
F4BD
 10
-388.343
 20
839.743
 30
0.000000
  70
    32
  0
VERTEX
  8
0
  5
F4BE
 10
-388.341
 20
839.741
 30
0.000000
  70
    32
  0
VERTEX
  8
0
  5
F4BF
 10
-388.339
 20
839.739
 30
0.000000
  70
    32
  0
VERTEX
  8
0
  5
F4C0
 10
-388.337
 20
839.736
 30
0.000000
  70
    32
  0
VERTEX
  8
0
  5
F4C1
 10
-388.335
 20
839.734
 30
0.000000
  70
    32
  0
VERTEX
  8
0
  5
F4C2
 10
-388.333
 20
839.732
 30
0.000000
  70
    32
  0
VERTEX
  8
0
  5
F4C3
 10
-388.331
 20
839.729
 30
0.000000
  70
    32
  0
VERTEX
  8
0
  5
F4C4
 10
-388.330
 20
839.727
 30
0.000000
  70
    32
  0
VERTEX
  8
0
  5
F4C5
 10
-388.328
 20
839.725
 30
0.000000
  70
    32
  0
VERTEX
  8
0
  5
F4C6
 10
-388.326
 20
839.722
 30
0.000000
  70
    32
  0
VERTEX
  8
0
  5
F4C7
 10
-388.325
 20
839.720
 30
0.000000
  70
    32
  0
VERTEX
  8
0
  5
F4C8
 10
-388.323
 20
839.718
 30
0.000000
  70
    32
  0
VERTEX
  8
0
  5
F4C9
 10
-388.321
 20
839.715
 30
0.000000
  70
    32
  0
VERTEX
  8
0
  5
F4CA
 10
-388.320
 20
839.713
 30
0.000000
  70
    32
  0
VERTEX
  8
0
  5
F4CB
 10
-388.318
 20
839.710
 30
0.000000
  70
    32
  0
VERTEX
  8
0
  5
F4CC
 10
-388.317
 20
839.708
 30
0.000000
  70
    32
  0
VERTEX
  8
0
  5
F4CD
 10
-388.315
 20
839.705
 30
0.000000
  70
    32
  0
VERTEX
  8
0
  5
F4CE
 10
-388.314
 20
839.703
 30
0.000000
  70
    32
  0
VERTEX
  8
0
  5
F4CF
 10
-388.313
 20
839.700
 30
0.000000
  70
    32
  0
VERTEX
  8
0
  5
F4D0
 10
-388.311
 20
839.697
 30
0.000000
  70
    32
  0
VERTEX
  8
0
  5
F4D1
 10
-388.310
 20
839.695
 30
0.000000
  70
    32
  0
VERTEX
  8
0
  5
F4D2
 10
-388.309
 20
839.692
 30
0.000000
  70
    32
  0
VERTEX
  8
0
  5
F4D3
 10
-388.308
 20
839.690
 30
0.000000
  70
    32
  0
VERTEX
  8
0
  5
F4D4
 10
-388.306
 20
839.687
 30
0.000000
  70
    32
  0
VERTEX
  8
0
  5
F4D5
 10
-388.305
 20
839.685
 30
0.000000
  70
    32
  0
VERTEX
  8
0
  5
F4D6
 10
-388.304
 20
839.682
 30
0.000000
  70
    32
  0
VERTEX
  8
0
  5
F4D7
 10
-388.303
 20
839.679
 30
0.000000
  70
    32
  0
VERTEX
  8
0
  5
F4D8
 10
-388.302
 20
839.677
 30
0.000000
  70
    32
  0
VERTEX
  8
0
  5
F4D9
 10
-388.301
 20
839.674
 30
0.000000
  70
    32
  0
VERTEX
  8
0
  5
F4DA
 10
-388.300
 20
839.671
 30
0.000000
  70
    32
  0
VERTEX
  8
0
  5
F4DB
 10
-388.299
 20
839.669
 30
0.000000
  70
    32
  0
VERTEX
  8
0
  5
F4DC
 10
-388.298
 20
839.666
 30
0.000000
  70
    32
  0
VERTEX
  8
0
  5
F4DD
 10
-388.297
 20
839.663
 30
0.000000
  70
    32
  0
VERTEX
  8
0
  5
F4DE
 10
-388.296
 20
839.661
 30
0.000000
  70
    32
  0
VERTEX
  8
0
  5
F4DF
 10
-388.295
 20
839.658
 30
0.000000
  70
    32
  0
VERTEX
  8
0
  5
F4E0
 10
-388.294
 20
839.655
 30
0.000000
  70
    32
  0
VERTEX
  8
0
  5
F4E1
 10
-388.294
 20
839.653
 30
0.000000
  70
    32
  0
VERTEX
  8
0
  5
F4E2
 10
-388.293
 20
839.650
 30
0.000000
  70
    32
  0
VERTEX
  8
0
  5
F4E3
 10
-388.292
 20
839.647
 30
0.000000
  70
    32
  0
VERTEX
  8
0
  5
F4E4
 10
-388.291
 20
839.644
 30
0.000000
  70
    32
  0
VERTEX
  8
0
  5
F4E5
 10
-388.291
 20
839.642
 30
0.000000
  70
    32
  0
VERTEX
  8
0
  5
F4E6
 10
-388.290
 20
839.639
 30
0.000000
  70
    32
  0
VERTEX
  8
0
  5
F4E7
 10
-388.289
 20
839.636
 30
0.000000
  70
    32
  0
VERTEX
  8
0
  5
F4E8
 10
-388.288
 20
839.634
 30
0.000000
  70
    32
  0
VERTEX
  8
0
  5
F4E9
 10
-388.288
 20
839.631
 30
0.000000
  70
    32
  0
VERTEX
  8
0
  5
F4EA
 10
-388.287
 20
839.628
 30
0.000000
  70
    32
  0
VERTEX
  8
0
  5
F4EB
 10
-388.286
 20
839.625
 30
0.000000
  70
    32
  0
VERTEX
  8
0
  5
F4EC
 10
-388.286
 20
839.623
 30
0.000000
  70
    32
  0
VERTEX
  8
0
  5
F4ED
 10
-388.285
 20
839.620
 30
0.000000
  70
    32
  0
VERTEX
  8
0
  5
F4EE
 10
-388.284
 20
839.617
 30
0.000000
  70
    32
  0
VERTEX
  8
0
  5
F4EF
 10
-388.284
 20
839.614
 30
0.000000
  70
    32
  0
VERTEX
  8
0
  5
F4F0
 10
-388.283
 20
839.612
 30
0.000000
  70
    32
  0
VERTEX
  8
0
  5
F4F1
 10
-388.282
 20
839.609
 30
0.000000
  70
    32
  0
VERTEX
  8
0
  5
F4F2
 10
-388.282
 20
839.606
 30
0.000000
  70
    32
  0
VERTEX
  8
0
  5
F4F3
 10
-388.281
 20
839.603
 30
0.000000
  70
    32
  0
VERTEX
  8
0
  5
F4F4
 10
-388.280
 20
839.600
 30
0.000000
  70
    32
  0
VERTEX
  8
0
  5
F4F5
 10
-388.280
 20
839.598
 30
0.000000
  70
    32
  0
VERTEX
  8
0
  5
F4F6
 10
-388.279
 20
839.595
 30
0.000000
  70
    32
  0
VERTEX
  8
0
  5
F4F7
 10
-388.278
 20
839.592
 30
0.000000
  70
    32
  0
VERTEX
  8
0
  5
F4F8
 10
-388.278
 20
839.589
 30
0.000000
  70
    32
  0
VERTEX
  8
0
  5
F4F9
 10
-388.277
 20
839.587
 30
0.000000
  70
    32
  0
VERTEX
  8
0
  5
F4FA
 10
-388.276
 20
839.584
 30
0.000000
  70
    32
  0
VERTEX
  8
0
  5
F4FB
 10
-388.276
 20
839.581
 30
0.000000
  70
    32
  0
VERTEX
  8
0
  5
F4FC
 10
-388.275
 20
839.578
 30
0.000000
  70
    32
  0
VERTEX
  8
0
  5
F4FD
 10
-388.274
 20
839.576
 30
0.000000
  70
    32
  0
VERTEX
  8
0
  5
F4FE
 10
-388.274
 20
839.573
 30
0.000000
  70
    32
  0
VERTEX
  8
0
  5
F4FF
 10
-388.273
 20
839.570
 30
0.000000
  70
    32
  0
VERTEX
  8
0
  5
F500
 10
-388.272
 20
839.567
 30
0.000000
  70
    32
  0
VERTEX
  8
0
  5
F501
 10
-388.271
 20
839.564
 30
0.000000
  70
    32
  0
VERTEX
  8
0
  5
F502
 10
-388.271
 20
839.562
 30
0.000000
  70
    32
  0
VERTEX
  8
0
  5
F503
 10
-388.270
 20
839.559
 30
0.000000
  70
    32
  0
VERTEX
  8
0
  5
F504
 10
-388.269
 20
839.556
 30
0.000000
  70
    32
  0
VERTEX
  8
0
  5
F505
 10
-388.268
 20
839.553
 30
0.000000
  70
    32
  0
VERTEX
  8
0
  5
F506
 10
-388.268
 20
839.551
 30
0.000000
  70
    32
  0
VERTEX
  8
0
  5
F507
 10
-388.267
 20
839.548
 30
0.000000
  70
    32
  0
VERTEX
  8
0
  5
F508
 10
-388.266
 20
839.545
 30
0.000000
  70
    32
  0
VERTEX
  8
0
  5
F509
 10
-388.265
 20
839.542
 30
0.000000
  70
    32
  0
VERTEX
  8
0
  5
F50A
 10
-388.264
 20
839.540
 30
0.000000
  70
    32
  0
VERTEX
  8
0
  5
F50B
 10
-388.263
 20
839.537
 30
0.000000
  70
    32
  0
VERTEX
  8
0
  5
F50C
 10
-388.262
 20
839.534
 30
0.000000
  70
    32
  0
VERTEX
  8
0
  5
F50D
 10
-388.261
 20
839.532
 30
0.000000
  70
    32
  0
VERTEX
  8
0
  5
F50E
 10
-388.260
 20
839.529
 30
0.000000
  70
    32
  0
VERTEX
  8
0
  5
F50F
 10
-388.259
 20
839.526
 30
0.000000
  70
    32
  0
VERTEX
  8
0
  5
F510
 10
-388.258
 20
839.524
 30
0.000000
  70
    32
  0
VERTEX
  8
0
  5
F511
 10
-388.256
 20
839.521
 30
0.000000
  70
    32
  0
VERTEX
  8
0
  5
F512
 10
-388.255
 20
839.519
 30
0.000000
  70
    32
  0
VERTEX
  8
0
  5
F513
 10
-388.254
 20
839.516
 30
0.000000
  70
    32
  0
VERTEX
  8
0
  5
F514
 10
-388.253
 20
839.514
 30
0.000000
  70
    32
  0
VERTEX
  8
0
  5
F515
 10
-388.251
 20
839.511
 30
0.000000
  70
    32
  0
VERTEX
  8
0
  5
F516
 10
-388.250
 20
839.509
 30
0.000000
  70
    32
  0
VERTEX
  8
0
  5
F517
 10
-388.248
 20
839.506
 30
0.000000
  70
    32
  0
VERTEX
  8
0
  5
F518
 10
-388.247
 20
839.504
 30
0.000000
  70
    32
  0
VERTEX
  8
0
  5
F519
 10
-388.245
 20
839.502
 30
0.000000
  70
    32
  0
VERTEX
  8
0
  5
F51A
 10
-388.243
 20
839.499
 30
0.000000
  70
    32
  0
VERTEX
  8
0
  5
F51B
 10
-388.242
 20
839.497
 30
0.000000
  70
    32
  0
VERTEX
  8
0
  5
F51C
 10
-388.240
 20
839.495
 30
0.000000
  70
    32
  0
VERTEX
  8
0
  5
F51D
 10
-388.238
 20
839.493
 30
0.000000
  70
    32
  0
VERTEX
  8
0
  5
F51E
 10
-388.236
 20
839.491
 30
0.000000
  70
    32
  0
VERTEX
  8
0
  5
F51F
 10
-388.234
 20
839.489
 30
0.000000
  70
    32
  0
VERTEX
  8
0
  5
F520
 10
-388.232
 20
839.486
 30
0.000000
  70
    32
  0
VERTEX
  8
0
  5
F521
 10
-388.230
 20
839.484
 30
0.000000
  70
    32
  0
VERTEX
  8
0
  5
F522
 10
-388.228
 20
839.483
 30
0.000000
  70
    32
  0
VERTEX
  8
0
  5
F523
 10
-388.226
 20
839.481
 30
0.000000
  70
    32
  0
VERTEX
  8
0
  5
F524
 10
-388.224
 20
839.479
 30
0.000000
  70
    32
  0
VERTEX
  8
0
  5
F525
 10
-388.222
 20
839.477
 30
0.000000
  70
    32
  0
VERTEX
  8
0
  5
F526
 10
-388.219
 20
839.475
 30
0.000000
  70
    32
  0
VERTEX
  8
0
  5
F527
 10
-388.217
 20
839.474
 30
0.000000
  70
    32
  0
VERTEX
  8
0
  5
F528
 10
-388.215
 20
839.472
 30
0.000000
  70
    32
  0
VERTEX
  8
0
  5
F529
 10
-388.212
 20
839.470
 30
0.000000
  70
    32
  0
VERTEX
  8
0
  5
F52A
 10
-388.210
 20
839.469
 30
0.000000
  70
    32
  0
VERTEX
  8
0
  5
F52B
 10
-388.208
 20
839.467
 30
0.000000
  70
    32
  0
VERTEX
  8
0
  5
F52C
 10
-388.205
 20
839.466
 30
0.000000
  70
    32
  0
VERTEX
  8
0
  5
F52D
 10
-388.202
 20
839.465
 30
0.000000
  70
    32
  0
VERTEX
  8
0
  5
F52E
 10
-388.200
 20
839.463
 30
0.000000
  70
    32
  0
VERTEX
  8
0
  5
F52F
 10
-388.197
 20
839.462
 30
0.000000
  70
    32
  0
VERTEX
  8
0
  5
F530
 10
-388.195
 20
839.461
 30
0.000000
  70
    32
  0
VERTEX
  8
0
  5
F531
 10
-388.192
 20
839.460
 30
0.000000
  70
    32
  0
VERTEX
  8
0
  5
F532
 10
-388.189
 20
839.459
 30
0.000000
  70
    32
  0
VERTEX
  8
0
  5
F533
 10
-388.187
 20
839.458
 30
0.000000
  70
    32
  0
VERTEX
  8
0
  5
F534
 10
-388.184
 20
839.457
 30
0.000000
  70
    32
  0
VERTEX
  8
0
  5
F535
 10
-388.181
 20
839.456
 30
0.000000
  70
    32
  0
VERTEX
  8
0
  5
F536
 10
-388.179
 20
839.455
 30
0.000000
  70
    32
  0
VERTEX
  8
0
  5
F537
 10
-388.176
 20
839.455
 30
0.000000
  70
    32
  0
VERTEX
  8
0
  5
F538
 10
-388.173
 20
839.454
 30
0.000000
  70
    32
  0
VERTEX
  8
0
  5
F539
 10
-388.170
 20
839.454
 30
0.000000
  70
    32
  0
VERTEX
  8
0
  5
F53A
 10
-388.167
 20
839.453
 30
0.000000
  70
    32
  0
VERTEX
  8
0
  5
F53B
 10
-388.165
 20
839.453
 30
0.000000
  70
    32
  0
VERTEX
  8
0
  5
F53C
 10
-388.162
 20
839.453
 30
0.000000
  70
    32
  0
VERTEX
  8
0
  5
F53D
 10
-388.159
 20
839.452
 30
0.000000
  70
    32
  0
VERTEX
  8
0
  5
F53E
 10
-388.156
 20
839.452
 30
0.000000
  70
    32
  0
VERTEX
  8
0
  5
F53F
 10
-388.153
 20
839.452
 30
0.000000
  70
    32
  0
VERTEX
  8
0
  5
F540
 10
-388.150
 20
839.452
 30
0.000000
  70
    32
  0
VERTEX
  8
0
  5
F541
 10
-388.148
 20
839.452
 30
0.000000
  70
    32
  0
VERTEX
  8
0
  5
F542
 10
-388.145
 20
839.452
 30
0.000000
  70
    32
  0
VERTEX
  8
0
  5
F543
 10
-388.142
 20
839.452
 30
0.000000
  70
    32
  0
VERTEX
  8
0
  5
F544
 10
-388.139
 20
839.452
 30
0.000000
  70
    32
  0
VERTEX
  8
0
  5
F545
 10
-388.136
 20
839.452
 30
0.000000
  70
    32
  0
VERTEX
  8
0
  5
F546
 10
-388.133
 20
839.452
 30
0.000000
  70
    32
  0
VERTEX
  8
0
  5
F547
 10
-388.131
 20
839.452
 30
0.000000
  70
    32
  0
VERTEX
  8
0
  5
F548
 10
-388.128
 20
839.452
 30
0.000000
  70
    32
  0
VERTEX
  8
0
  5
F549
 10
-388.125
 20
839.452
 30
0.000000
  70
    32
  0
VERTEX
  8
0
  5
F54A
 10
-388.122
 20
839.451
 30
0.000000
  70
    32
  0
VERTEX
  8
0
  5
F54B
 10
-388.119
 20
839.451
 30
0.000000
  70
    32
  0
VERTEX
  8
0
  5
F54C
 10
-388.116
 20
839.451
 30
0.000000
  70
    32
  0
VERTEX
  8
0
  5
F54D
 10
-388.113
 20
839.451
 30
0.000000
  70
    32
  0
VERTEX
  8
0
  5
F54E
 10
-388.111
 20
839.451
 30
0.000000
  70
    32
  0
VERTEX
  8
0
  5
F54F
 10
-388.108
 20
839.451
 30
0.000000
  70
    32
  0
VERTEX
  8
0
  5
F550
 10
-388.105
 20
839.450
 30
0.000000
  70
    32
  0
VERTEX
  8
0
  5
F551
 10
-388.102
 20
839.450
 30
0.000000
  70
    32
  0
VERTEX
  8
0
  5
F552
 10
-388.099
 20
839.450
 30
0.000000
  70
    32
  0
VERTEX
  8
0
  5
F553
 10
-388.097
 20
839.449
 30
0.000000
  70
    32
  0
VERTEX
  8
0
  5
F554
 10
-388.094
 20
839.449
 30
0.000000
  70
    32
  0
VERTEX
  8
0
  5
F555
 10
-388.091
 20
839.448
 30
0.000000
  70
    32
  0
VERTEX
  8
0
  5
F556
 10
-388.088
 20
839.447
 30
0.000000
  70
    32
  0
VERTEX
  8
0
  5
F557
 10
-388.086
 20
839.447
 30
0.000000
  70
    32
  0
VERTEX
  8
0
  5
F558
 10
-388.083
 20
839.446
 30
0.000000
  70
    32
  0
VERTEX
  8
0
  5
F559
 10
-388.080
 20
839.445
 30
0.000000
  70
    32
  0
VERTEX
  8
0
  5
F55A
 10
-388.078
 20
839.444
 30
0.000000
  70
    32
  0
VERTEX
  8
0
  5
F55B
 10
-388.075
 20
839.443
 30
0.000000
  70
    32
  0
VERTEX
  8
0
  5
F55C
 10
-388.072
 20
839.442
 30
0.000000
  70
    32
  0
VERTEX
  8
0
  5
F55D
 10
-388.070
 20
839.441
 30
0.000000
  70
    32
  0
VERTEX
  8
0
  5
F55E
 10
-388.067
 20
839.439
 30
0.000000
  70
    32
  0
VERTEX
  8
0
  5
F55F
 10
-388.065
 20
839.438
 30
0.000000
  70
    32
  0
VERTEX
  8
0
  5
F560
 10
-388.062
 20
839.437
 30
0.000000
  70
    32
  0
VERTEX
  8
0
  5
F561
 10
-388.060
 20
839.435
 30
0.000000
  70
    32
  0
VERTEX
  8
0
  5
F562
 10
-388.057
 20
839.434
 30
0.000000
  70
    32
  0
VERTEX
  8
0
  5
F563
 10
-388.055
 20
839.432
 30
0.000000
  70
    32
  0
VERTEX
  8
0
  5
F564
 10
-388.052
 20
839.431
 30
0.000000
  70
    32
  0
VERTEX
  8
0
  5
F565
 10
-388.050
 20
839.429
 30
0.000000
  70
    32
  0
VERTEX
  8
0
  5
F566
 10
-388.047
 20
839.428
 30
0.000000
  70
    32
  0
VERTEX
  8
0
  5
F567
 10
-388.045
 20
839.426
 30
0.000000
  70
    32
  0
VERTEX
  8
0
  5
F568
 10
-388.043
 20
839.424
 30
0.000000
  70
    32
  0
VERTEX
  8
0
  5
F569
 10
-388.040
 20
839.423
 30
0.000000
  70
    32
  0
VERTEX
  8
0
  5
F56A
 10
-388.038
 20
839.421
 30
0.000000
  70
    32
  0
VERTEX
  8
0
  5
F56B
 10
-388.036
 20
839.419
 30
0.000000
  70
    32
  0
VERTEX
  8
0
  5
F56C
 10
-388.033
 20
839.417
 30
0.000000
  70
    32
  0
VERTEX
  8
0
  5
F56D
 10
-388.031
 20
839.415
 30
0.000000
  70
    32
  0
VERTEX
  8
0
  5
F56E
 10
-388.029
 20
839.413
 30
0.000000
  70
    32
  0
VERTEX
  8
0
  5
F56F
 10
-388.027
 20
839.411
 30
0.000000
  70
    32
  0
VERTEX
  8
0
  5
F570
 10
-388.025
 20
839.409
 30
0.000000
  70
    32
  0
VERTEX
  8
0
  5
F571
 10
-388.023
 20
839.407
 30
0.000000
  70
    32
  0
VERTEX
  8
0
  5
F572
 10
-388.021
 20
839.405
 30
0.000000
  70
    32
  0
VERTEX
  8
0
  5
F573
 10
-388.019
 20
839.403
 30
0.000000
  70
    32
  0
VERTEX
  8
0
  5
F574
 10
-388.017
 20
839.401
 30
0.000000
  70
    32
  0
VERTEX
  8
0
  5
F575
 10
-388.015
 20
839.399
 30
0.000000
  70
    32
  0
VERTEX
  8
0
  5
F576
 10
-388.013
 20
839.397
 30
0.000000
  70
    32
  0
VERTEX
  8
0
  5
F577
 10
-388.011
 20
839.395
 30
0.000000
  70
    32
  0
VERTEX
  8
0
  5
F578
 10
-388.010
 20
839.392
 30
0.000000
  70
    32
  0
VERTEX
  8
0
  5
F579
 10
-388.008
 20
839.390
 30
0.000000
  70
    32
  0
VERTEX
  8
0
  5
F57A
 10
-388.006
 20
839.388
 30
0.000000
  70
    32
  0
VERTEX
  8
0
  5
F57B
 10
-388.004
 20
839.386
 30
0.000000
  70
    32
  0
VERTEX
  8
0
  5
F57C
 10
-388.003
 20
839.384
 30
0.000000
  70
    32
  0
VERTEX
  8
0
  5
F57D
 10
-388.001
 20
839.381
 30
0.000000
  70
    32
  0
VERTEX
  8
0
  5
F57E
 10
-387.999
 20
839.379
 30
0.000000
  70
    32
  0
VERTEX
  8
0
  5
F57F
 10
-387.998
 20
839.377
 30
0.000000
  70
    32
  0
VERTEX
  8
0
  5
F580
 10
-387.996
 20
839.374
 30
0.000000
  70
    32
  0
VERTEX
  8
0
  5
F581
 10
-387.994
 20
839.372
 30
0.000000
  70
    32
  0
VERTEX
  8
0
  5
F582
 10
-387.993
 20
839.370
 30
0.000000
  70
    32
  0
VERTEX
  8
0
  5
F583
 10
-387.991
 20
839.367
 30
0.000000
  70
    32
  0
VERTEX
  8
0
  5
F584
 10
-387.990
 20
839.365
 30
0.000000
  70
    32
  0
VERTEX
  8
0
  5
F585
 10
-387.988
 20
839.362
 30
0.000000
  70
    32
  0
VERTEX
  8
0
  5
F586
 10
-387.987
 20
839.360
 30
0.000000
  70
    32
  0
VERTEX
  8
0
  5
F587
 10
-387.985
 20
839.358
 30
0.000000
  70
    32
  0
VERTEX
  8
0
  5
F588
 10
-387.984
 20
839.355
 30
0.000000
  70
    32
  0
VERTEX
  8
0
  5
F589
 10
-387.982
 20
839.353
 30
0.000000
  70
    32
  0
VERTEX
  8
0
  5
F58A
 10
-387.981
 20
839.350
 30
0.000000
  70
    32
  0
VERTEX
  8
0
  5
F58B
 10
-387.979
 20
839.348
 30
0.000000
  70
    32
  0
VERTEX
  8
0
  5
F58C
 10
-387.978
 20
839.345
 30
0.000000
  70
    32
  0
VERTEX
  8
0
  5
F58D
 10
-387.976
 20
839.343
 30
0.000000
  70
    32
  0
VERTEX
  8
0
  5
F58E
 10
-387.975
 20
839.341
 30
0.000000
  70
    32
  0
VERTEX
  8
0
  5
F58F
 10
-387.974
 20
839.338
 30
0.000000
  70
    32
  0
VERTEX
  8
0
  5
F590
 10
-387.972
 20
839.336
 30
0.000000
  70
    32
  0
VERTEX
  8
0
  5
F591
 10
-387.971
 20
839.333
 30
0.000000
  70
    32
  0
VERTEX
  8
0
  5
F592
 10
-387.970
 20
839.331
 30
0.000000
  70
    32
  0
VERTEX
  8
0
  5
F593
 10
-387.968
 20
839.328
 30
0.000000
  70
    32
  0
VERTEX
  8
0
  5
F594
 10
-387.967
 20
839.326
 30
0.000000
  70
    32
  0
VERTEX
  8
0
  5
F595
 10
-387.966
 20
839.323
 30
0.000000
  70
    32
  0
VERTEX
  8
0
  5
F596
 10
-387.964
 20
839.320
 30
0.000000
  70
    32
  0
VERTEX
  8
0
  5
F597
 10
-387.963
 20
839.318
 30
0.000000
  70
    32
  0
VERTEX
  8
0
  5
F598
 10
-387.962
 20
839.315
 30
0.000000
  70
    32
  0
VERTEX
  8
0
  5
F599
 10
-387.961
 20
839.313
 30
0.000000
  70
    32
  0
VERTEX
  8
0
  5
F59A
 10
-387.960
 20
839.310
 30
0.000000
  70
    32
  0
VERTEX
  8
0
  5
F59B
 10
-387.958
 20
839.308
 30
0.000000
  70
    32
  0
VERTEX
  8
0
  5
F59C
 10
-387.957
 20
839.305
 30
0.000000
  70
    32
  0
VERTEX
  8
0
  5
F59D
 10
-387.956
 20
839.302
 30
0.000000
  70
    32
  0
VERTEX
  8
0
  5
F59E
 10
-387.955
 20
839.300
 30
0.000000
  70
    32
  0
VERTEX
  8
0
  5
F59F
 10
-387.954
 20
839.297
 30
0.000000
  70
    32
  0
VERTEX
  8
0
  5
F5A0
 10
-387.953
 20
839.294
 30
0.000000
  70
    32
  0
VERTEX
  8
0
  5
F5A1
 10
-387.952
 20
839.292
 30
0.000000
  70
    32
  0
VERTEX
  8
0
  5
F5A2
 10
-387.951
 20
839.289
 30
0.000000
  70
    32
  0
VERTEX
  8
0
  5
F5A3
 10
-387.950
 20
839.286
 30
0.000000
  70
    32
  0
VERTEX
  8
0
  5
F5A4
 10
-387.949
 20
839.284
 30
0.000000
  70
    32
  0
VERTEX
  8
0
  5
F5A5
 10
-387.948
 20
839.281
 30
0.000000
  70
    32
  0
VERTEX
  8
0
  5
F5A6
 10
-387.947
 20
839.278
 30
0.000000
  70
    32
  0
VERTEX
  8
0
  5
F5A7
 10
-387.947
 20
839.276
 30
0.000000
  70
    32
  0
VERTEX
  8
0
  5
F5A8
 10
-387.946
 20
839.273
 30
0.000000
  70
    32
  0
VERTEX
  8
0
  5
F5A9
 10
-387.945
 20
839.270
 30
0.000000
  70
    32
  0
VERTEX
  8
0
  5
F5AA
 10
-387.944
 20
839.267
 30
0.000000
  70
    32
  0
VERTEX
  8
0
  5
F5AB
 10
-387.943
 20
839.265
 30
0.000000
  70
    32
  0
VERTEX
  8
0
  5
F5AC
 10
-387.943
 20
839.262
 30
0.000000
  70
    32
  0
VERTEX
  8
0
  5
F5AD
 10
-387.942
 20
839.259
 30
0.000000
  70
    32
  0
VERTEX
  8
0
  5
F5AE
 10
-387.941
 20
839.256
 30
0.000000
  70
    32
  0
VERTEX
  8
0
  5
F5AF
 10
-387.941
 20
839.253
 30
0.000000
  70
    32
  0
VERTEX
  8
0
  5
F5B0
 10
-387.940
 20
839.251
 30
0.000000
  70
    32
  0
VERTEX
  8
0
  5
F5B1
 10
-387.940
 20
839.248
 30
0.000000
  70
    32
  0
VERTEX
  8
0
  5
F5B2
 10
-387.939
 20
839.245
 30
0.000000
  70
    32
  0
VERTEX
  8
0
  5
F5B3
 10
-387.939
 20
839.242
 30
0.000000
  70
    32
  0
VERTEX
  8
0
  5
F5B4
 10
-387.938
 20
839.239
 30
0.000000
  70
    32
  0
VERTEX
  8
0
  5
F5B5
 10
-387.938
 20
839.237
 30
0.000000
  70
    32
  0
VERTEX
  8
0
  5
F5B6
 10
-387.938
 20
839.234
 30
0.000000
  70
    32
  0
VERTEX
  8
0
  5
F5B7
 10
-387.937
 20
839.231
 30
0.000000
  70
    32
  0
VERTEX
  8
0
  5
F5B8
 10
-387.937
 20
839.228
 30
0.000000
  70
    32
  0
VERTEX
  8
0
  5
F5B9
 10
-387.937
 20
839.225
 30
0.000000
  70
    32
  0
VERTEX
  8
0
  5
F5BA
 10
-387.937
 20
839.222
 30
0.000000
  70
    32
  0
VERTEX
  8
0
  5
F5BB
 10
-387.936
 20
839.219
 30
0.000000
  70
    32
  0
VERTEX
  8
0
  5
F5BC
 10
-387.936
 20
839.217
 30
0.000000
  70
    32
  0
VERTEX
  8
0
  5
F5BD
 10
-387.936
 20
839.214
 30
0.000000
  70
    32
  0
VERTEX
  8
0
  5
F5BE
 10
-387.936
 20
839.211
 30
0.000000
  70
    32
  0
VERTEX
  8
0
  5
F5BF
 10
-387.936
 20
839.208
 30
0.000000
  70
    32
  0
VERTEX
  8
0
  5
F5C0
 10
-387.936
 20
839.205
 30
0.000000
  70
    32
  0
VERTEX
  8
0
  5
F5C1
 10
-387.936
 20
839.202
 30
0.000000
  70
    32
  0
VERTEX
  8
0
  5
F5C2
 10
-387.936
 20
839.200
 30
0.000000
  70
    32
  0
VERTEX
  8
0
  5
F5C3
 10
-387.937
 20
839.197
 30
0.000000
  70
    32
  0
VERTEX
  8
0
  5
F5C4
 10
-387.937
 20
839.194
 30
0.000000
  70
    32
  0
VERTEX
  8
0
  5
F5C5
 10
-387.937
 20
839.191
 30
0.000000
  70
    32
  0
VERTEX
  8
0
  5
F5C6
 10
-387.938
 20
839.188
 30
0.000000
  70
    32
  0
VERTEX
  8
0
  5
F5C7
 10
-387.938
 20
839.186
 30
0.000000
  70
    32
  0
VERTEX
  8
0
  5
F5C8
 10
-387.938
 20
839.183
 30
0.000000
  70
    32
  0
VERTEX
  8
0
  5
F5C9
 10
-387.939
 20
839.180
 30
0.000000
  70
    32
  0
VERTEX
  8
0
  5
F5CA
 10
-387.939
 20
839.177
 30
0.000000
  70
    32
  0
VERTEX
  8
0
  5
F5CB
 10
-387.940
 20
839.174
 30
0.000000
  70
    32
  0
VERTEX
  8
0
  5
F5CC
 10
-387.940
 20
839.172
 30
0.000000
  70
    32
  0
VERTEX
  8
0
  5
F5CD
 10
-387.941
 20
839.169
 30
0.000000
  70
    32
  0
VERTEX
  8
0
  5
F5CE
 10
-387.942
 20
839.166
 30
0.000000
  70
    32
  0
VERTEX
  8
0
  5
F5CF
 10
-387.943
 20
839.163
 30
0.000000
  70
    32
  0
VERTEX
  8
0
  5
F5D0
 10
-387.943
 20
839.161
 30
0.000000
  70
    32
  0
VERTEX
  8
0
  5
F5D1
 10
-387.944
 20
839.158
 30
0.000000
  70
    32
  0
VERTEX
  8
0
  5
F5D2
 10
-387.945
 20
839.155
 30
0.000000
  70
    32
  0
VERTEX
  8
0
  5
F5D3
 10
-387.946
 20
839.153
 30
0.000000
  70
    32
  0
VERTEX
  8
0
  5
F5D4
 10
-387.947
 20
839.150
 30
0.000000
  70
    32
  0
VERTEX
  8
0
  5
F5D5
 10
-387.948
 20
839.147
 30
0.000000
  70
    32
  0
VERTEX
  8
0
  5
F5D6
 10
-387.949
 20
839.145
 30
0.000000
  70
    32
  0
VERTEX
  8
0
  5
F5D7
 10
-387.950
 20
839.142
 30
0.000000
  70
    32
  0
VERTEX
  8
0
  5
F5D8
 10
-387.951
 20
839.139
 30
0.000000
  70
    32
  0
VERTEX
  8
0
  5
F5D9
 10
-387.952
 20
839.137
 30
0.000000
  70
    32
  0
VERTEX
  8
0
  5
F5DA
 10
-387.953
 20
839.134
 30
0.000000
  70
    32
  0
VERTEX
  8
0
  5
F5DB
 10
-387.955
 20
839.131
 30
0.000000
  70
    32
  0
VERTEX
  8
0
  5
F5DC
 10
-387.956
 20
839.129
 30
0.000000
  70
    32
  0
VERTEX
  8
0
  5
F5DD
 10
-387.957
 20
839.126
 30
0.000000
  70
    32
  0
VERTEX
  8
0
  5
F5DE
 10
-387.959
 20
839.124
 30
0.000000
  70
    32
  0
VERTEX
  8
0
  5
F5DF
 10
-387.960
 20
839.121
 30
0.000000
  70
    32
  0
VERTEX
  8
0
  5
F5E0
 10
-387.961
 20
839.118
 30
0.000000
  70
    32
  0
VERTEX
  8
0
  5
F5E1
 10
-387.963
 20
839.116
 30
0.000000
  70
    32
  0
VERTEX
  8
0
  5
F5E2
 10
-387.964
 20
839.113
 30
0.000000
  70
    32
  0
VERTEX
  8
0
  5
F5E3
 10
-387.966
 20
839.111
 30
0.000000
  70
    32
  0
VERTEX
  8
0
  5
F5E4
 10
-387.967
 20
839.108
 30
0.000000
  70
    32
  0
VERTEX
  8
0
  5
F5E5
 10
-387.968
 20
839.106
 30
0.000000
  70
    32
  0
VERTEX
  8
0
  5
F5E6
 10
-387.970
 20
839.103
 30
0.000000
  70
    32
  0
VERTEX
  8
0
  5
F5E7
 10
-387.971
 20
839.100
 30
0.000000
  70
    32
  0
VERTEX
  8
0
  5
F5E8
 10
-387.973
 20
839.098
 30
0.000000
  70
    32
  0
VERTEX
  8
0
  5
F5E9
 10
-387.974
 20
839.095
 30
0.000000
  70
    32
  0
VERTEX
  8
0
  5
F5EA
 10
-387.975
 20
839.093
 30
0.000000
  70
    32
  0
VERTEX
  8
0
  5
F5EB
 10
-387.976
 20
839.090
 30
0.000000
  70
    32
  0
VERTEX
  8
0
  5
F5EC
 10
-387.977
 20
839.087
 30
0.000000
  70
    32
  0
VERTEX
  8
0
  5
F5ED
 10
-387.979
 20
839.085
 30
0.000000
  70
    32
  0
VERTEX
  8
0
  5
F5EE
 10
-387.980
 20
839.082
 30
0.000000
  70
    32
  0
VERTEX
  8
0
  5
F5EF
 10
-387.980
 20
839.080
 30
0.000000
  70
    32
  0
VERTEX
  8
0
  5
F5F0
 10
-387.981
 20
839.077
 30
0.000000
  70
    32
  0
VERTEX
  8
0
  5
F5F1
 10
-387.982
 20
839.074
 30
0.000000
  70
    32
  0
VERTEX
  8
0
  5
F5F2
 10
-387.983
 20
839.072
 30
0.000000
  70
    32
  0
VERTEX
  8
0
  5
F5F3
 10
-387.983
 20
839.069
 30
0.000000
  70
    32
  0
VERTEX
  8
0
  5
F5F4
 10
-387.984
 20
839.066
 30
0.000000
  70
    32
  0
VERTEX
  8
0
  5
F5F5
 10
-387.984
 20
839.064
 30
0.000000
  70
    32
  0
VERTEX
  8
0
  5
F5F6
 10
-387.984
 20
839.061
 30
0.000000
  70
    32
  0
VERTEX
  8
0
  5
F5F7
 10
-387.984
 20
839.058
 30
0.000000
  70
    32
  0
VERTEX
  8
0
  5
F5F8
 10
-387.984
 20
839.055
 30
0.000000
  70
    32
  0
VERTEX
  8
0
  5
F5F9
 10
-387.984
 20
839.052
 30
0.000000
  70
    32
  0
VERTEX
  8
0
  5
F5FA
 10
-387.983
 20
839.050
 30
0.000000
  70
    32
  0
VERTEX
  8
0
  5
F5FB
 10
-387.983
 20
839.047
 30
0.000000
  70
    32
  0
VERTEX
  8
0
  5
F5FC
 10
-387.982
 20
839.044
 30
0.000000
  70
    32
  0
VERTEX
  8
0
  5
F5FD
 10
-387.982
 20
839.041
 30
0.000000
  70
    32
  0
VERTEX
  8
0
  5
F5FE
 10
-387.981
 20
839.038
 30
0.000000
  70
    32
  0
VERTEX
  8
0
  5
F5FF
 10
-387.980
 20
839.036
 30
0.000000
  70
    32
  0
VERTEX
  8
0
  5
F600
 10
-387.979
 20
839.033
 30
0.000000
  70
    32
  0
VERTEX
  8
0
  5
F601
 10
-387.978
 20
839.030
 30
0.000000
  70
    32
  0
VERTEX
  8
0
  5
F602
 10
-387.977
 20
839.027
 30
0.000000
  70
    32
  0
VERTEX
  8
0
  5
F603
 10
-387.976
 20
839.025
 30
0.000000
  70
    32
  0
VERTEX
  8
0
  5
F604
 10
-387.974
 20
839.022
 30
0.000000
  70
    32
  0
VERTEX
  8
0
  5
F605
 10
-387.973
 20
839.019
 30
0.000000
  70
    32
  0
VERTEX
  8
0
  5
F606
 10
-387.972
 20
839.017
 30
0.000000
  70
    32
  0
VERTEX
  8
0
  5
F607
 10
-387.970
 20
839.014
 30
0.000000
  70
    32
  0
VERTEX
  8
0
  5
F608
 10
-387.969
 20
839.012
 30
0.000000
  70
    32
  0
VERTEX
  8
0
  5
F609
 10
-387.967
 20
839.009
 30
0.000000
  70
    32
  0
VERTEX
  8
0
  5
F60A
 10
-387.965
 20
839.007
 30
0.000000
  70
    32
  0
VERTEX
  8
0
  5
F60B
 10
-387.964
 20
839.004
 30
0.000000
  70
    32
  0
VERTEX
  8
0
  5
F60C
 10
-387.962
 20
839.002
 30
0.000000
  70
    32
  0
VERTEX
  8
0
  5
F60D
 10
-387.960
 20
839.000
 30
0.000000
  70
    32
  0
VERTEX
  8
0
  5
F60E
 10
-387.958
 20
838.998
 30
0.000000
  70
    32
  0
VERTEX
  8
0
  5
F60F
 10
-387.957
 20
838.996
 30
0.000000
  70
    32
  0
VERTEX
  8
0
  5
F610
 10
-387.955
 20
838.993
 30
0.000000
  70
    32
  0
VERTEX
  8
0
  5
F611
 10
-387.953
 20
838.991
 30
0.000000
  70
    32
  0
VERTEX
  8
0
  5
F612
 10
-387.951
 20
838.989
 30
0.000000
  70
    32
  0
VERTEX
  8
0
  5
F613
 10
-387.949
 20
838.987
 30
0.000000
  70
    32
  0
VERTEX
  8
0
  5
F614
 10
-387.947
 20
838.985
 30
0.000000
  70
    32
  0
VERTEX
  8
0
  5
F615
 10
-387.945
 20
838.983
 30
0.000000
  70
    32
  0
VERTEX
  8
0
  5
F616
 10
-387.942
 20
838.982
 30
0.000000
  70
    32
  0
VERTEX
  8
0
  5
F617
 10
-387.940
 20
838.980
 30
0.000000
  70
    32
  0
VERTEX
  8
0
  5
F618
 10
-387.938
 20
838.978
 30
0.000000
  70
    32
  0
VERTEX
  8
0
  5
F619
 10
-387.936
 20
838.976
 30
0.000000
  70
    32
  0
VERTEX
  8
0
  5
F61A
 10
-387.934
 20
838.974
 30
0.000000
  70
    32
  0
VERTEX
  8
0
  5
F61B
 10
-387.931
 20
838.972
 30
0.000000
  70
    32
  0
VERTEX
  8
0
  5
F61C
 10
-387.929
 20
838.971
 30
0.000000
  70
    32
  0
VERTEX
  8
0
  5
F61D
 10
-387.927
 20
838.969
 30
0.000000
  70
    32
  0
VERTEX
  8
0
  5
F61E
 10
-387.925
 20
838.967
 30
0.000000
  70
    32
  0
VERTEX
  8
0
  5
F61F
 10
-387.922
 20
838.966
 30
0.000000
  70
    32
  0
VERTEX
  8
0
  5
F620
 10
-387.920
 20
838.964
 30
0.000000
  70
    32
  0
VERTEX
  8
0
  5
F621
 10
-387.918
 20
838.962
 30
0.000000
  70
    32
  0
VERTEX
  8
0
  5
F622
 10
-387.916
 20
838.961
 30
0.000000
  70
    32
  0
VERTEX
  8
0
  5
F623
 10
-387.913
 20
838.959
 30
0.000000
  70
    32
  0
VERTEX
  8
0
  5
F624
 10
-387.911
 20
838.957
 30
0.000000
  70
    32
  0
VERTEX
  8
0
  5
F625
 10
-387.909
 20
838.956
 30
0.000000
  70
    32
  0
VERTEX
  8
0
  5
F626
 10
-387.906
 20
838.954
 30
0.000000
  70
    32
  0
VERTEX
  8
0
  5
F627
 10
-387.904
 20
838.953
 30
0.000000
  70
    32
  0
VERTEX
  8
0
  5
F628
 10
-387.901
 20
838.951
 30
0.000000
  70
    32
  0
VERTEX
  8
0
  5
F629
 10
-387.899
 20
838.950
 30
0.000000
  70
    32
  0
VERTEX
  8
0
  5
F62A
 10
-387.897
 20
838.948
 30
0.000000
  70
    32
  0
VERTEX
  8
0
  5
F62B
 10
-387.894
 20
838.946
 30
0.000000
  70
    32
  0
VERTEX
  8
0
  5
F62C
 10
-387.892
 20
838.945
 30
0.000000
  70
    32
  0
VERTEX
  8
0
  5
F62D
 10
-387.890
 20
838.943
 30
0.000000
  70
    32
  0
VERTEX
  8
0
  5
F62E
 10
-387.887
 20
838.942
 30
0.000000
  70
    32
  0
VERTEX
  8
0
  5
F62F
 10
-387.885
 20
838.940
 30
0.000000
  70
    32
  0
VERTEX
  8
0
  5
F630
 10
-387.882
 20
838.939
 30
0.000000
  70
    32
  0
VERTEX
  8
0
  5
F631
 10
-387.880
 20
838.937
 30
0.000000
  70
    32
  0
VERTEX
  8
0
  5
F632
 10
-387.878
 20
838.936
 30
0.000000
  70
    32
  0
VERTEX
  8
0
  5
F633
 10
-387.875
 20
838.934
 30
0.000000
  70
    32
  0
VERTEX
  8
0
  5
F634
 10
-387.873
 20
838.933
 30
0.000000
  70
    32
  0
VERTEX
  8
0
  5
F635
 10
-387.870
 20
838.931
 30
0.000000
  70
    32
  0
VERTEX
  8
0
  5
F636
 10
-387.868
 20
838.930
 30
0.000000
  70
    32
  0
VERTEX
  8
0
  5
F637
 10
-387.865
 20
838.928
 30
0.000000
  70
    32
  0
VERTEX
  8
0
  5
F638
 10
-387.863
 20
838.927
 30
0.000000
  70
    32
  0
VERTEX
  8
0
  5
F639
 10
-387.861
 20
838.926
 30
0.000000
  70
    32
  0
VERTEX
  8
0
  5
F63A
 10
-387.858
 20
838.924
 30
0.000000
  70
    32
  0
VERTEX
  8
0
  5
F63B
 10
-387.856
 20
838.923
 30
0.000000
  70
    32
  0
VERTEX
  8
0
  5
F63C
 10
-387.853
 20
838.921
 30
0.000000
  70
    32
  0
VERTEX
  8
0
  5
F63D
 10
-387.851
 20
838.920
 30
0.000000
  70
    32
  0
VERTEX
  8
0
  5
F63E
 10
-387.848
 20
838.918
 30
0.000000
  70
    32
  0
VERTEX
  8
0
  5
F63F
 10
-387.846
 20
838.917
 30
0.000000
  70
    32
  0
VERTEX
  8
0
  5
F640
 10
-387.843
 20
838.916
 30
0.000000
  70
    32
  0
VERTEX
  8
0
  5
F641
 10
-387.841
 20
838.914
 30
0.000000
  70
    32
  0
VERTEX
  8
0
  5
F642
 10
-387.838
 20
838.913
 30
0.000000
  70
    32
  0
VERTEX
  8
0
  5
F643
 10
-387.836
 20
838.912
 30
0.000000
  70
    32
  0
VERTEX
  8
0
  5
F644
 10
-387.833
 20
838.910
 30
0.000000
  70
    32
  0
VERTEX
  8
0
  5
F645
 10
-387.831
 20
838.909
 30
0.000000
  70
    32
  0
VERTEX
  8
0
  5
F646
 10
-387.828
 20
838.907
 30
0.000000
  70
    32
  0
VERTEX
  8
0
  5
F647
 10
-387.826
 20
838.906
 30
0.000000
  70
    32
  0
VERTEX
  8
0
  5
F648
 10
-387.823
 20
838.905
 30
0.000000
  70
    32
  0
VERTEX
  8
0
  5
F649
 10
-387.821
 20
838.903
 30
0.000000
  70
    32
  0
VERTEX
  8
0
  5
F64A
 10
-387.818
 20
838.902
 30
0.000000
  70
    32
  0
VERTEX
  8
0
  5
F64B
 10
-387.816
 20
838.901
 30
0.000000
  70
    32
  0
VERTEX
  8
0
  5
F64C
 10
-387.813
 20
838.899
 30
0.000000
  70
    32
  0
VERTEX
  8
0
  5
F64D
 10
-387.811
 20
838.898
 30
0.000000
  70
    32
  0
VERTEX
  8
0
  5
F64E
 10
-387.808
 20
838.897
 30
0.000000
  70
    32
  0
VERTEX
  8
0
  5
F64F
 10
-387.806
 20
838.895
 30
0.000000
  70
    32
  0
VERTEX
  8
0
  5
F650
 10
-387.803
 20
838.894
 30
0.000000
  70
    32
  0
VERTEX
  8
0
  5
F651
 10
-387.801
 20
838.893
 30
0.000000
  70
    32
  0
VERTEX
  8
0
  5
F652
 10
-387.798
 20
838.892
 30
0.000000
  70
    32
  0
VERTEX
  8
0
  5
F653
 10
-387.796
 20
838.890
 30
0.000000
  70
    32
  0
VERTEX
  8
0
  5
F654
 10
-387.793
 20
838.889
 30
0.000000
  70
    32
  0
VERTEX
  8
0
  5
F655
 10
-387.791
 20
838.888
 30
0.000000
  70
    32
  0
VERTEX
  8
0
  5
F656
 10
-387.788
 20
838.886
 30
0.000000
  70
    32
  0
VERTEX
  8
0
  5
F657
 10
-387.786
 20
838.885
 30
0.000000
  70
    32
  0
VERTEX
  8
0
  5
F658
 10
-387.783
 20
838.884
 30
0.000000
  70
    32
  0
VERTEX
  8
0
  5
F659
 10
-387.781
 20
838.883
 30
0.000000
  70
    32
  0
VERTEX
  8
0
  5
F65A
 10
-387.778
 20
838.881
 30
0.000000
  70
    32
  0
VERTEX
  8
0
  5
F65B
 10
-387.776
 20
838.880
 30
0.000000
  70
    32
  0
VERTEX
  8
0
  5
F65C
 10
-387.773
 20
838.879
 30
0.000000
  70
    32
  0
VERTEX
  8
0
  5
F65D
 10
-387.771
 20
838.877
 30
0.000000
  70
    32
  0
VERTEX
  8
0
  5
F65E
 10
-387.768
 20
838.876
 30
0.000000
  70
    32
  0
VERTEX
  8
0
  5
F65F
 10
-387.765
 20
838.875
 30
0.000000
  70
    32
  0
VERTEX
  8
0
  5
F660
 10
-387.763
 20
838.874
 30
0.000000
  70
    32
  0
VERTEX
  8
0
  5
F661
 10
-387.760
 20
838.872
 30
0.000000
  70
    32
  0
VERTEX
  8
0
  5
F662
 10
-387.758
 20
838.871
 30
0.000000
  70
    32
  0
VERTEX
  8
0
  5
F663
 10
-387.755
 20
838.870
 30
0.000000
  70
    32
  0
VERTEX
  8
0
  5
F664
 10
-387.753
 20
838.869
 30
0.000000
  70
    32
  0
VERTEX
  8
0
  5
F665
 10
-387.750
 20
838.867
 30
0.000000
  70
    32
  0
VERTEX
  8
0
  5
F666
 10
-387.748
 20
838.866
 30
0.000000
  70
    32
  0
VERTEX
  8
0
  5
F667
 10
-387.745
 20
838.865
 30
0.000000
  70
    32
  0
VERTEX
  8
0
  5
F668
 10
-387.743
 20
838.864
 30
0.000000
  70
    32
  0
VERTEX
  8
0
  5
F669
 10
-387.740
 20
838.862
 30
0.000000
  70
    32
  0
VERTEX
  8
0
  5
F66A
 10
-387.738
 20
838.861
 30
0.000000
  70
    32
  0
VERTEX
  8
0
  5
F66B
 10
-387.735
 20
838.860
 30
0.000000
  70
    32
  0
VERTEX
  8
0
  5
F66C
 10
-387.732
 20
838.859
 30
0.000000
  70
    32
  0
VERTEX
  8
0
  5
F66D
 10
-387.730
 20
838.857
 30
0.000000
  70
    32
  0
VERTEX
  8
0
  5
F66E
 10
-387.727
 20
838.856
 30
0.000000
  70
    32
  0
VERTEX
  8
0
  5
F66F
 10
-387.725
 20
838.855
 30
0.000000
  70
    32
  0
VERTEX
  8
0
  5
F670
 10
-387.722
 20
838.854
 30
0.000000
  70
    32
  0
VERTEX
  8
0
  5
F671
 10
-387.720
 20
838.852
 30
0.000000
  70
    32
  0
VERTEX
  8
0
  5
F672
 10
-387.717
 20
838.851
 30
0.000000
  70
    32
  0
VERTEX
  8
0
  5
F673
 10
-387.715
 20
838.850
 30
0.000000
  70
    32
  0
VERTEX
  8
0
  5
F674
 10
-387.712
 20
838.849
 30
0.000000
  70
    32
  0
VERTEX
  8
0
  5
F675
 10
-387.710
 20
838.848
 30
0.000000
  70
    32
  0
VERTEX
  8
0
  5
F676
 10
-387.707
 20
838.846
 30
0.000000
  70
    32
  0
VERTEX
  8
0
  5
F677
 10
-387.704
 20
838.845
 30
0.000000
  70
    32
  0
VERTEX
  8
0
  5
F678
 10
-387.702
 20
838.844
 30
0.000000
  70
    32
  0
VERTEX
  8
0
  5
F679
 10
-387.699
 20
838.843
 30
0.000000
  70
    32
  0
VERTEX
  8
0
  5
F67A
 10
-387.697
 20
838.841
 30
0.000000
  70
    32
  0
VERTEX
  8
0
  5
F67B
 10
-387.694
 20
838.840
 30
0.000000
  70
    32
  0
VERTEX
  8
0
  5
F67C
 10
-387.692
 20
838.839
 30
0.000000
  70
    32
  0
VERTEX
  8
0
  5
F67D
 10
-387.689
 20
838.838
 30
0.000000
  70
    32
  0
VERTEX
  8
0
  5
F67E
 10
-387.687
 20
838.836
 30
0.000000
  70
    32
  0
VERTEX
  8
0
  5
F67F
 10
-387.684
 20
838.835
 30
0.000000
  70
    32
  0
VERTEX
  8
0
  5
F680
 10
-387.682
 20
838.834
 30
0.000000
  70
    32
  0
VERTEX
  8
0
  5
F681
 10
-387.679
 20
838.833
 30
0.000000
  70
    32
  0
VERTEX
  8
0
  5
F682
 10
-387.676
 20
838.831
 30
0.000000
  70
    32
  0
VERTEX
  8
0
  5
F683
 10
-387.674
 20
838.830
 30
0.000000
  70
    32
  0
VERTEX
  8
0
  5
F684
 10
-387.671
 20
838.829
 30
0.000000
  70
    32
  0
VERTEX
  8
0
  5
F685
 10
-387.669
 20
838.828
 30
0.000000
  70
    32
  0
VERTEX
  8
0
  5
F686
 10
-387.666
 20
838.827
 30
0.000000
  70
    32
  0
VERTEX
  8
0
  5
F687
 10
-387.664
 20
838.825
 30
0.000000
  70
    32
  0
VERTEX
  8
0
  5
F688
 10
-387.661
 20
838.824
 30
0.000000
  70
    32
  0
VERTEX
  8
0
  5
F689
 10
-387.659
 20
838.823
 30
0.000000
  70
    32
  0
VERTEX
  8
0
  5
F68A
 10
-387.656
 20
838.822
 30
0.000000
  70
    32
  0
VERTEX
  8
0
  5
F68B
 10
-387.654
 20
838.820
 30
0.000000
  70
    32
  0
VERTEX
  8
0
  5
F68C
 10
-387.651
 20
838.819
 30
0.000000
  70
    32
  0
VERTEX
  8
0
  5
F68D
 10
-387.649
 20
838.818
 30
0.000000
  70
    32
  0
VERTEX
  8
0
  5
F68E
 10
-387.646
 20
838.817
 30
0.000000
  70
    32
  0
VERTEX
  8
0
  5
F68F
 10
-387.643
 20
838.815
 30
0.000000
  70
    32
  0
VERTEX
  8
0
  5
F690
 10
-387.641
 20
838.814
 30
0.000000
  70
    32
  0
VERTEX
  8
0
  5
F691
 10
-387.638
 20
838.813
 30
0.000000
  70
    32
  0
VERTEX
  8
0
  5
F692
 10
-387.636
 20
838.811
 30
0.000000
  70
    32
  0
VERTEX
  8
0
  5
F693
 10
-387.633
 20
838.810
 30
0.000000
  70
    32
  0
VERTEX
  8
0
  5
F694
 10
-387.631
 20
838.809
 30
0.000000
  70
    32
  0
VERTEX
  8
0
  5
F695
 10
-387.628
 20
838.808
 30
0.000000
  70
    32
  0
VERTEX
  8
0
  5
F696
 10
-387.626
 20
838.806
 30
0.000000
  70
    32
  0
VERTEX
  8
0
  5
F697
 10
-387.623
 20
838.805
 30
0.000000
  70
    32
  0
VERTEX
  8
0
  5
F698
 10
-387.621
 20
838.804
 30
0.000000
  70
    32
  0
VERTEX
  8
0
  5
F699
 10
-387.618
 20
838.803
 30
0.000000
  70
    32
  0
VERTEX
  8
0
  5
F69A
 10
-387.616
 20
838.801
 30
0.000000
  70
    32
  0
VERTEX
  8
0
  5
F69B
 10
-387.613
 20
838.800
 30
0.000000
  70
    32
  0
VERTEX
  8
0
  5
F69C
 10
-387.610
 20
838.799
 30
0.000000
  70
    32
  0
VERTEX
  8
0
  5
F69D
 10
-387.608
 20
838.797
 30
0.000000
  70
    32
  0
VERTEX
  8
0
  5
F69E
 10
-387.605
 20
838.796
 30
0.000000
  70
    32
  0
VERTEX
  8
0
  5
F69F
 10
-387.603
 20
838.795
 30
0.000000
  70
    32
  0
VERTEX
  8
0
  5
F6A0
 10
-387.600
 20
838.793
 30
0.000000
  70
    32
  0
VERTEX
  8
0
  5
F6A1
 10
-387.598
 20
838.792
 30
0.000000
  70
    32
  0
VERTEX
  8
0
  5
F6A2
 10
-387.595
 20
838.791
 30
0.000000
  70
    32
  0
VERTEX
  8
0
  5
F6A3
 10
-387.593
 20
838.789
 30
0.000000
  70
    32
  0
VERTEX
  8
0
  5
F6A4
 10
-387.590
 20
838.788
 30
0.000000
  70
    32
  0
VERTEX
  8
0
  5
F6A5
 10
-387.588
 20
838.787
 30
0.000000
  70
    32
  0
VERTEX
  8
0
  5
F6A6
 10
-387.585
 20
838.785
 30
0.000000
  70
    32
  0
VERTEX
  8
0
  5
F6A7
 10
-387.583
 20
838.784
 30
0.000000
  70
    32
  0
VERTEX
  8
0
  5
F6A8
 10
-387.580
 20
838.783
 30
0.000000
  70
    32
  0
VERTEX
  8
0
  5
F6A9
 10
-387.578
 20
838.781
 30
0.000000
  70
    32
  0
VERTEX
  8
0
  5
F6AA
 10
-387.575
 20
838.780
 30
0.000000
  70
    32
  0
VERTEX
  8
0
  5
F6AB
 10
-387.572
 20
838.779
 30
0.000000
  70
    32
  0
VERTEX
  8
0
  5
F6AC
 10
-387.570
 20
838.777
 30
0.000000
  70
    32
  0
VERTEX
  8
0
  5
F6AD
 10
-387.567
 20
838.776
 30
0.000000
  70
    32
  0
VERTEX
  8
0
  5
F6AE
 10
-387.565
 20
838.775
 30
0.000000
  70
    32
  0
VERTEX
  8
0
  5
F6AF
 10
-387.562
 20
838.773
 30
0.000000
  70
    32
  0
VERTEX
  8
0
  5
F6B0
 10
-387.560
 20
838.772
 30
0.000000
  70
    32
  0
VERTEX
  8
0
  5
F6B1
 10
-387.557
 20
838.770
 30
0.000000
  70
    32
  0
VERTEX
  8
0
  5
F6B2
 10
-387.555
 20
838.769
 30
0.000000
  70
    32
  0
VERTEX
  8
0
  5
F6B3
 10
-387.552
 20
838.768
 30
0.000000
  70
    32
  0
VERTEX
  8
0
  5
F6B4
 10
-387.550
 20
838.766
 30
0.000000
  70
    32
  0
VERTEX
  8
0
  5
F6B5
 10
-387.548
 20
838.765
 30
0.000000
  70
    32
  0
VERTEX
  8
0
  5
F6B6
 10
-387.545
 20
838.763
 30
0.000000
  70
    32
  0
VERTEX
  8
0
  5
F6B7
 10
-387.543
 20
838.762
 30
0.000000
  70
    32
  0
VERTEX
  8
0
  5
F6B8
 10
-387.540
 20
838.760
 30
0.000000
  70
    32
  0
VERTEX
  8
0
  5
F6B9
 10
-387.538
 20
838.759
 30
0.000000
  70
    32
  0
VERTEX
  8
0
  5
F6BA
 10
-387.535
 20
838.757
 30
0.000000
  70
    32
  0
VERTEX
  8
0
  5
F6BB
 10
-387.533
 20
838.756
 30
0.000000
  70
    32
  0
VERTEX
  8
0
  5
F6BC
 10
-387.530
 20
838.754
 30
0.000000
  70
    32
  0
VERTEX
  8
0
  5
F6BD
 10
-387.528
 20
838.753
 30
0.000000
  70
    32
  0
VERTEX
  8
0
  5
F6BE
 10
-387.526
 20
838.751
 30
0.000000
  70
    32
  0
VERTEX
  8
0
  5
F6BF
 10
-387.523
 20
838.750
 30
0.000000
  70
    32
  0
VERTEX
  8
0
  5
F6C0
 10
-387.521
 20
838.748
 30
0.000000
  70
    32
  0
VERTEX
  8
0
  5
F6C1
 10
-387.518
 20
838.747
 30
0.000000
  70
    32
  0
VERTEX
  8
0
  5
F6C2
 10
-387.516
 20
838.745
 30
0.000000
  70
    32
  0
VERTEX
  8
0
  5
F6C3
 10
-387.514
 20
838.744
 30
0.000000
  70
    32
  0
VERTEX
  8
0
  5
F6C4
 10
-387.511
 20
838.742
 30
0.000000
  70
    32
  0
VERTEX
  8
0
  5
F6C5
 10
-387.509
 20
838.740
 30
0.000000
  70
    32
  0
VERTEX
  8
0
  5
F6C6
 10
-387.507
 20
838.739
 30
0.000000
  70
    32
  0
VERTEX
  8
0
  5
F6C7
 10
-387.504
 20
838.737
 30
0.000000
  70
    32
  0
VERTEX
  8
0
  5
F6C8
 10
-387.502
 20
838.735
 30
0.000000
  70
    32
  0
VERTEX
  8
0
  5
F6C9
 10
-387.500
 20
838.734
 30
0.000000
  70
    32
  0
VERTEX
  8
0
  5
F6CA
 10
-387.498
 20
838.732
 30
0.000000
  70
    32
  0
VERTEX
  8
0
  5
F6CB
 10
-387.495
 20
838.730
 30
0.000000
  70
    32
  0
VERTEX
  8
0
  5
F6CC
 10
-387.493
 20
838.729
 30
0.000000
  70
    32
  0
VERTEX
  8
0
  5
F6CD
 10
-387.491
 20
838.727
 30
0.000000
  70
    32
  0
VERTEX
  8
0
  5
F6CE
 10
-387.489
 20
838.725
 30
0.000000
  70
    32
  0
VERTEX
  8
0
  5
F6CF
 10
-387.486
 20
838.723
 30
0.000000
  70
    32
  0
VERTEX
  8
0
  5
F6D0
 10
-387.484
 20
838.721
 30
0.000000
  70
    32
  0
VERTEX
  8
0
  5
F6D1
 10
-387.482
 20
838.720
 30
0.000000
  70
    32
  0
VERTEX
  8
0
  5
F6D2
 10
-387.480
 20
838.718
 30
0.000000
  70
    32
  0
VERTEX
  8
0
  5
F6D3
 10
-387.478
 20
838.716
 30
0.000000
  70
    32
  0
VERTEX
  8
0
  5
F6D4
 10
-387.476
 20
838.714
 30
0.000000
  70
    32
  0
VERTEX
  8
0
  5
F6D5
 10
-387.473
 20
838.712
 30
0.000000
  70
    32
  0
VERTEX
  8
0
  5
F6D6
 10
-387.471
 20
838.710
 30
0.000000
  70
    32
  0
VERTEX
  8
0
  5
F6D7
 10
-387.469
 20
838.708
 30
0.000000
  70
    32
  0
VERTEX
  8
0
  5
F6D8
 10
-387.467
 20
838.706
 30
0.000000
  70
    32
  0
VERTEX
  8
0
  5
F6D9
 10
-387.465
 20
838.705
 30
0.000000
  70
    32
  0
VERTEX
  8
0
  5
F6DA
 10
-387.463
 20
838.703
 30
0.000000
  70
    32
  0
VERTEX
  8
0
  5
F6DB
 10
-387.461
 20
838.701
 30
0.000000
  70
    32
  0
VERTEX
  8
0
  5
F6DC
 10
-387.459
 20
838.699
 30
0.000000
  70
    32
  0
VERTEX
  8
0
  5
F6DD
 10
-387.457
 20
838.696
 30
0.000000
  70
    32
  0
VERTEX
  8
0
  5
F6DE
 10
-387.455
 20
838.694
 30
0.000000
  70
    32
  0
VERTEX
  8
0
  5
F6DF
 10
-387.453
 20
838.692
 30
0.000000
  70
    32
  0
VERTEX
  8
0
  5
F6E0
 10
-387.451
 20
838.690
 30
0.000000
  70
    32
  0
VERTEX
  8
0
  5
F6E1
 10
-387.450
 20
838.688
 30
0.000000
  70
    32
  0
VERTEX
  8
0
  5
F6E2
 10
-387.448
 20
838.686
 30
0.000000
  70
    32
  0
VERTEX
  8
0
  5
F6E3
 10
-387.446
 20
838.684
 30
0.000000
  70
    32
  0
VERTEX
  8
0
  5
F6E4
 10
-387.444
 20
838.682
 30
0.000000
  70
    32
  0
VERTEX
  8
0
  5
F6E5
 10
-387.442
 20
838.679
 30
0.000000
  70
    32
  0
VERTEX
  8
0
  5
F6E6
 10
-387.440
 20
838.677
 30
0.000000
  70
    32
  0
VERTEX
  8
0
  5
F6E7
 10
-387.439
 20
838.675
 30
0.000000
  70
    32
  0
VERTEX
  8
0
  5
F6E8
 10
-387.437
 20
838.673
 30
0.000000
  70
    32
  0
VERTEX
  8
0
  5
F6E9
 10
-387.435
 20
838.671
 30
0.000000
  70
    32
  0
VERTEX
  8
0
  5
F6EA
 10
-387.433
 20
838.668
 30
0.000000
  70
    32
  0
VERTEX
  8
0
  5
F6EB
 10
-387.432
 20
838.666
 30
0.000000
  70
    32
  0
VERTEX
  8
0
  5
F6EC
 10
-387.430
 20
838.664
 30
0.000000
  70
    32
  0
VERTEX
  8
0
  5
F6ED
 10
-387.428
 20
838.661
 30
0.000000
  70
    32
  0
VERTEX
  8
0
  5
F6EE
 10
-387.427
 20
838.659
 30
0.000000
  70
    32
  0
VERTEX
  8
0
  5
F6EF
 10
-387.425
 20
838.657
 30
0.000000
  70
    32
  0
VERTEX
  8
0
  5
F6F0
 10
-387.424
 20
838.654
 30
0.000000
  70
    32
  0
VERTEX
  8
0
  5
F6F1
 10
-387.422
 20
838.652
 30
0.000000
  70
    32
  0
VERTEX
  8
0
  5
F6F2
 10
-387.420
 20
838.649
 30
0.000000
  70
    32
  0
VERTEX
  8
0
  5
F6F3
 10
-387.419
 20
838.647
 30
0.000000
  70
    32
  0
VERTEX
  8
0
  5
F6F4
 10
-387.417
 20
838.645
 30
0.000000
  70
    32
  0
VERTEX
  8
0
  5
F6F5
 10
-387.416
 20
838.642
 30
0.000000
  70
    32
  0
VERTEX
  8
0
  5
F6F6
 10
-387.414
 20
838.640
 30
0.000000
  70
    32
  0
VERTEX
  8
0
  5
F6F7
 10
-387.413
 20
838.637
 30
0.000000
  70
    32
  0
VERTEX
  8
0
  5
F6F8
 10
-387.412
 20
838.635
 30
0.000000
  70
    32
  0
VERTEX
  8
0
  5
F6F9
 10
-387.410
 20
838.632
 30
0.000000
  70
    32
  0
VERTEX
  8
0
  5
F6FA
 10
-387.409
 20
838.630
 30
0.000000
  70
    32
  0
VERTEX
  8
0
  5
F6FB
 10
-387.408
 20
838.627
 30
0.000000
  70
    32
  0
VERTEX
  8
0
  5
F6FC
 10
-387.406
 20
838.625
 30
0.000000
  70
    32
  0
VERTEX
  8
0
  5
F6FD
 10
-387.405
 20
838.622
 30
0.000000
  70
    32
  0
VERTEX
  8
0
  5
F6FE
 10
-387.404
 20
838.620
 30
0.000000
  70
    32
  0
VERTEX
  8
0
  5
F6FF
 10
-387.402
 20
838.617
 30
0.000000
  70
    32
  0
VERTEX
  8
0
  5
F700
 10
-387.401
 20
838.614
 30
0.000000
  70
    32
  0
VERTEX
  8
0
  5
F701
 10
-387.400
 20
838.612
 30
0.000000
  70
    32
  0
VERTEX
  8
0
  5
F702
 10
-387.399
 20
838.609
 30
0.000000
  70
    32
  0
VERTEX
  8
0
  5
F703
 10
-387.397
 20
838.607
 30
0.000000
  70
    32
  0
VERTEX
  8
0
  5
F704
 10
-387.396
 20
838.604
 30
0.000000
  70
    32
  0
VERTEX
  8
0
  5
F705
 10
-387.395
 20
838.601
 30
0.000000
  70
    32
  0
VERTEX
  8
0
  5
F706
 10
-387.394
 20
838.599
 30
0.000000
  70
    32
  0
VERTEX
  8
0
  5
F707
 10
-387.393
 20
838.596
 30
0.000000
  70
    32
  0
VERTEX
  8
0
  5
F708
 10
-387.392
 20
838.594
 30
0.000000
  70
    32
  0
VERTEX
  8
0
  5
F709
 10
-387.391
 20
838.591
 30
0.000000
  70
    32
  0
VERTEX
  8
0
  5
F70A
 10
-387.390
 20
838.588
 30
0.000000
  70
    32
  0
VERTEX
  8
0
  5
F70B
 10
-387.389
 20
838.586
 30
0.000000
  70
    32
  0
VERTEX
  8
0
  5
F70C
 10
-387.388
 20
838.583
 30
0.000000
  70
    32
  0
VERTEX
  8
0
  5
F70D
 10
-387.387
 20
838.580
 30
0.000000
  70
    32
  0
VERTEX
  8
0
  5
F70E
 10
-387.386
 20
838.578
 30
0.000000
  70
    32
  0
VERTEX
  8
0
  5
F70F
 10
-387.385
 20
838.575
 30
0.000000
  70
    32
  0
VERTEX
  8
0
  5
F710
 10
-387.384
 20
838.572
 30
0.000000
  70
    32
  0
VERTEX
  8
0
  5
F711
 10
-387.383
 20
838.569
 30
0.000000
  70
    32
  0
VERTEX
  8
0
  5
F712
 10
-387.382
 20
838.567
 30
0.000000
  70
    32
  0
VERTEX
  8
0
  5
F713
 10
-387.382
 20
838.564
 30
0.000000
  70
    32
  0
VERTEX
  8
0
  5
F714
 10
-387.381
 20
838.561
 30
0.000000
  70
    32
  0
VERTEX
  8
0
  5
F715
 10
-387.380
 20
838.559
 30
0.000000
  70
    32
  0
VERTEX
  8
0
  5
F716
 10
-387.379
 20
838.556
 30
0.000000
  70
    32
  0
VERTEX
  8
0
  5
F717
 10
-387.378
 20
838.553
 30
0.000000
  70
    32
  0
VERTEX
  8
0
  5
F718
 10
-387.378
 20
838.550
 30
0.000000
  70
    32
  0
VERTEX
  8
0
  5
F719
 10
-387.377
 20
838.548
 30
0.000000
  70
    32
  0
VERTEX
  8
0
  5
F71A
 10
-387.376
 20
838.545
 30
0.000000
  70
    32
  0
VERTEX
  8
0
  5
F71B
 10
-387.376
 20
838.542
 30
0.000000
  70
    32
  0
VERTEX
  8
0
  5
F71C
 10
-387.375
 20
838.539
 30
0.000000
  70
    32
  0
VERTEX
  8
0
  5
F71D
 10
-387.374
 20
838.537
 30
0.000000
  70
    32
  0
VERTEX
  8
0
  5
F71E
 10
-387.374
 20
838.534
 30
0.000000
  70
    32
  0
VERTEX
  8
0
  5
F71F
 10
-387.373
 20
838.531
 30
0.000000
  70
    32
  0
VERTEX
  8
0
  5
F720
 10
-387.373
 20
838.528
 30
0.000000
  70
    32
  0
VERTEX
  8
0
  5
F721
 10
-387.372
 20
838.525
 30
0.000000
  70
    32
  0
VERTEX
  8
0
  5
F722
 10
-387.372
 20
838.523
 30
0.000000
  70
    32
  0
VERTEX
  8
0
  5
F723
 10
-387.371
 20
838.520
 30
0.000000
  70
    32
  0
VERTEX
  8
0
  5
F724
 10
-387.371
 20
838.517
 30
0.000000
  70
    32
  0
VERTEX
  8
0
  5
F725
 10
-387.370
 20
838.514
 30
0.000000
  70
    32
  0
VERTEX
  8
0
  5
F726
 10
-387.370
 20
838.511
 30
0.000000
  70
    32
  0
VERTEX
  8
0
  5
F727
 10
-387.369
 20
838.509
 30
0.000000
  70
    32
  0
VERTEX
  8
0
  5
F728
 10
-387.369
 20
838.506
 30
0.000000
  70
    32
  0
VERTEX
  8
0
  5
F729
 10
-387.368
 20
838.503
 30
0.000000
  70
    32
  0
VERTEX
  8
0
  5
F72A
 10
-387.368
 20
838.500
 30
0.000000
  70
    32
  0
VERTEX
  8
0
  5
F72B
 10
-387.368
 20
838.497
 30
0.000000
  70
    32
  0
VERTEX
  8
0
  5
F72C
 10
-387.367
 20
838.494
 30
0.000000
  70
    32
  0
VERTEX
  8
0
  5
F72D
 10
-387.367
 20
838.492
 30
0.000000
  70
    32
  0
VERTEX
  8
0
  5
F72E
 10
-387.367
 20
838.489
 30
0.000000
  70
    32
  0
VERTEX
  8
0
  5
F72F
 10
-387.366
 20
838.486
 30
0.000000
  70
    32
  0
VERTEX
  8
0
  5
F730
 10
-387.366
 20
838.483
 30
0.000000
  70
    32
  0
VERTEX
  8
0
  5
F731
 10
-387.366
 20
838.480
 30
0.000000
  70
    32
  0
VERTEX
  8
0
  5
F732
 10
-387.366
 20
838.477
 30
0.000000
  70
    32
  0
VERTEX
  8
0
  5
F733
 10
-387.365
 20
838.475
 30
0.000000
  70
    32
  0
VERTEX
  8
0
  5
F734
 10
-387.365
 20
838.472
 30
0.000000
  70
    32
  0
VERTEX
  8
0
  5
F735
 10
-387.365
 20
838.469
 30
0.000000
  70
    32
  0
VERTEX
  8
0
  5
F736
 10
-387.365
 20
838.466
 30
0.000000
  70
    32
  0
VERTEX
  8
0
  5
F737
 10
-387.365
 20
838.463
 30
0.000000
  70
    32
  0
VERTEX
  8
0
  5
F738
 10
-387.364
 20
838.460
 30
0.000000
  70
    32
  0
VERTEX
  8
0
  5
F739
 10
-387.364
 20
838.457
 30
0.000000
  70
    32
  0
VERTEX
  8
0
  5
F73A
 10
-387.364
 20
838.455
 30
0.000000
  70
    32
  0
VERTEX
  8
0
  5
F73B
 10
-387.364
 20
838.452
 30
0.000000
  70
    32
  0
VERTEX
  8
0
  5
F73C
 10
-387.364
 20
838.449
 30
0.000000
  70
    32
  0
VERTEX
  8
0
  5
F73D
 10
-387.364
 20
838.446
 30
0.000000
  70
    32
  0
VERTEX
  8
0
  5
F73E
 10
-387.364
 20
838.443
 30
0.000000
  70
    32
  0
VERTEX
  8
0
  5
F73F
 10
-387.364
 20
838.440
 30
0.000000
  70
    32
  0
VERTEX
  8
0
  5
F740
 10
-387.364
 20
838.437
 30
0.000000
  70
    32
  0
VERTEX
  8
0
  5
F741
 10
-387.364
 20
838.435
 30
0.000000
  70
    32
  0
VERTEX
  8
0
  5
F742
 10
-387.364
 20
838.432
 30
0.000000
  70
    32
  0
VERTEX
  8
0
  5
F743
 10
-387.364
 20
838.429
 30
0.000000
  70
    32
  0
VERTEX
  8
0
  5
F744
 10
-387.364
 20
838.426
 30
0.000000
  70
    32
  0
VERTEX
  8
0
  5
F745
 10
-387.364
 20
838.423
 30
0.000000
  70
    32
  0
VERTEX
  8
0
  5
F746
 10
-387.364
 20
838.420
 30
0.000000
  70
    32
  0
VERTEX
  8
0
  5
F747
 10
-387.364
 20
838.417
 30
0.000000
  70
    32
  0
VERTEX
  8
0
  5
F748
 10
-387.364
 20
838.414
 30
0.000000
  70
    32
  0
VERTEX
  8
0
  5
F749
 10
-387.364
 20
838.412
 30
0.000000
  70
    32
  0
VERTEX
  8
0
  5
F74A
 10
-387.364
 20
838.409
 30
0.000000
  70
    32
  0
VERTEX
  8
0
  5
F74B
 10
-387.364
 20
838.406
 30
0.000000
  70
    32
  0
VERTEX
  8
0
  5
F74C
 10
-387.364
 20
838.403
 30
0.000000
  70
    32
  0
VERTEX
  8
0
  5
F74D
 10
-387.365
 20
838.400
 30
0.000000
  70
    32
  0
VERTEX
  8
0
  5
F74E
 10
-387.365
 20
838.397
 30
0.000000
  70
    32
  0
VERTEX
  8
0
  5
F74F
 10
-387.365
 20
838.394
 30
0.000000
  70
    32
  0
VERTEX
  8
0
  5
F750
 10
-387.365
 20
838.392
 30
0.000000
  70
    32
  0
VERTEX
  8
0
  5
F751
 10
-387.365
 20
838.389
 30
0.000000
  70
    32
  0
VERTEX
  8
0
  5
F752
 10
-387.366
 20
838.386
 30
0.000000
  70
    32
  0
VERTEX
  8
0
  5
F753
 10
-387.366
 20
838.383
 30
0.000000
  70
    32
  0
VERTEX
  8
0
  5
F754
 10
-387.366
 20
838.380
 30
0.000000
  70
    32
  0
VERTEX
  8
0
  5
F755
 10
-387.367
 20
838.377
 30
0.000000
  70
    32
  0
VERTEX
  8
0
  5
F756
 10
-387.367
 20
838.375
 30
0.000000
  70
    32
  0
VERTEX
  8
0
  5
F757
 10
-387.367
 20
838.372
 30
0.000000
  70
    32
  0
VERTEX
  8
0
  5
F758
 10
-387.368
 20
838.369
 30
0.000000
  70
    32
  0
VERTEX
  8
0
  5
F759
 10
-387.368
 20
838.366
 30
0.000000
  70
    32
  0
VERTEX
  8
0
  5
F75A
 10
-387.368
 20
838.363
 30
0.000000
  70
    32
  0
VERTEX
  8
0
  5
F75B
 10
-387.369
 20
838.360
 30
0.000000
  70
    32
  0
VERTEX
  8
0
  5
F75C
 10
-387.369
 20
838.358
 30
0.000000
  70
    32
  0
VERTEX
  8
0
  5
F75D
 10
-387.370
 20
838.355
 30
0.000000
  70
    32
  0
VERTEX
  8
0
  5
F75E
 10
-387.370
 20
838.352
 30
0.000000
  70
    32
  0
VERTEX
  8
0
  5
F75F
 10
-387.371
 20
838.349
 30
0.000000
  70
    32
  0
VERTEX
  8
0
  5
F760
 10
-387.371
 20
838.347
 30
0.000000
  70
    32
  0
VERTEX
  8
0
  5
F761
 10
-387.372
 20
838.344
 30
0.000000
  70
    32
  0
VERTEX
  8
0
  5
F762
 10
-387.373
 20
838.341
 30
0.000000
  70
    32
  0
VERTEX
  8
0
  5
F763
 10
-387.373
 20
838.338
 30
0.000000
  70
    32
  0
VERTEX
  8
0
  5
F764
 10
-387.374
 20
838.335
 30
0.000000
  70
    32
  0
VERTEX
  8
0
  5
F765
 10
-387.374
 20
838.333
 30
0.000000
  70
    32
  0
VERTEX
  8
0
  5
F766
 10
-387.375
 20
838.330
 30
0.000000
  70
    32
  0
VERTEX
  8
0
  5
F767
 10
-387.376
 20
838.327
 30
0.000000
  70
    32
  0
VERTEX
  8
0
  5
F768
 10
-387.377
 20
838.324
 30
0.000000
  70
    32
  0
VERTEX
  8
0
  5
F769
 10
-387.377
 20
838.322
 30
0.000000
  70
    32
  0
VERTEX
  8
0
  5
F76A
 10
-387.378
 20
838.319
 30
0.000000
  70
    32
  0
VERTEX
  8
0
  5
F76B
 10
-387.379
 20
838.316
 30
0.000000
  70
    32
  0
VERTEX
  8
0
  5
F76C
 10
-387.380
 20
838.314
 30
0.000000
  70
    32
  0
VERTEX
  8
0
  5
F76D
 10
-387.381
 20
838.311
 30
0.000000
  70
    32
  0
VERTEX
  8
0
  5
F76E
 10
-387.381
 20
838.308
 30
0.000000
  70
    32
  0
VERTEX
  8
0
  5
F76F
 10
-387.382
 20
838.306
 30
0.000000
  70
    32
  0
VERTEX
  8
0
  5
F770
 10
-387.383
 20
838.303
 30
0.000000
  70
    32
  0
VERTEX
  8
0
  5
F771
 10
-387.384
 20
838.300
 30
0.000000
  70
    32
  0
VERTEX
  8
0
  5
F772
 10
-387.385
 20
838.298
 30
0.000000
  70
    32
  0
VERTEX
  8
0
  5
F773
 10
-387.386
 20
838.295
 30
0.000000
  70
    32
  0
VERTEX
  8
0
  5
F774
 10
-387.387
 20
838.292
 30
0.000000
  70
    32
  0
VERTEX
  8
0
  5
F775
 10
-387.388
 20
838.290
 30
0.000000
  70
    32
  0
VERTEX
  8
0
  5
F776
 10
-387.389
 20
838.287
 30
0.000000
  70
    32
  0
VERTEX
  8
0
  5
F777
 10
-387.390
 20
838.284
 30
0.000000
  70
    32
  0
VERTEX
  8
0
  5
F778
 10
-387.391
 20
838.282
 30
0.000000
  70
    32
  0
VERTEX
  8
0
  5
F779
 10
-387.393
 20
838.279
 30
0.000000
  70
    32
  0
VERTEX
  8
0
  5
F77A
 10
-387.394
 20
838.277
 30
0.000000
  70
    32
  0
VERTEX
  8
0
  5
F77B
 10
-387.395
 20
838.274
 30
0.000000
  70
    32
  0
VERTEX
  8
0
  5
F77C
 10
-387.396
 20
838.272
 30
0.000000
  70
    32
  0
VERTEX
  8
0
  5
F77D
 10
-387.397
 20
838.269
 30
0.000000
  70
    32
  0
VERTEX
  8
0
  5
F77E
 10
-387.398
 20
838.266
 30
0.000000
  70
    32
  0
VERTEX
  8
0
  5
F77F
 10
-387.400
 20
838.264
 30
0.000000
  70
    32
  0
VERTEX
  8
0
  5
F780
 10
-387.401
 20
838.261
 30
0.000000
  70
    32
  0
VERTEX
  8
0
  5
F781
 10
-387.402
 20
838.259
 30
0.000000
  70
    32
  0
VERTEX
  8
0
  5
F782
 10
-387.404
 20
838.256
 30
0.000000
  70
    32
  0
VERTEX
  8
0
  5
F783
 10
-387.405
 20
838.254
 30
0.000000
  70
    32
  0
VERTEX
  8
0
  5
F784
 10
-387.406
 20
838.251
 30
0.000000
  70
    32
  0
VERTEX
  8
0
  5
F785
 10
-387.408
 20
838.249
 30
0.000000
  70
    32
  0
VERTEX
  8
0
  5
F786
 10
-387.409
 20
838.246
 30
0.000000
  70
    32
  0
VERTEX
  8
0
  5
F787
 10
-387.411
 20
838.244
 30
0.000000
  70
    32
  0
VERTEX
  8
0
  5
F788
 10
-387.412
 20
838.241
 30
0.000000
  70
    32
  0
VERTEX
  8
0
  5
F789
 10
-387.413
 20
838.239
 30
0.000000
  70
    32
  0
VERTEX
  8
0
  5
F78A
 10
-387.415
 20
838.237
 30
0.000000
  70
    32
  0
VERTEX
  8
0
  5
F78B
 10
-387.416
 20
838.234
 30
0.000000
  70
    32
  0
VERTEX
  8
0
  5
F78C
 10
-387.418
 20
838.232
 30
0.000000
  70
    32
  0
VERTEX
  8
0
  5
F78D
 10
-387.419
 20
838.229
 30
0.000000
  70
    32
  0
VERTEX
  8
0
  5
F78E
 10
-387.421
 20
838.227
 30
0.000000
  70
    32
  0
VERTEX
  8
0
  5
F78F
 10
-387.423
 20
838.224
 30
0.000000
  70
    32
  0
VERTEX
  8
0
  5
F790
 10
-387.424
 20
838.222
 30
0.000000
  70
    32
  0
VERTEX
  8
0
  5
F791
 10
-387.426
 20
838.220
 30
0.000000
  70
    32
  0
VERTEX
  8
0
  5
F792
 10
-387.427
 20
838.217
 30
0.000000
  70
    32
  0
VERTEX
  8
0
  5
F793
 10
-387.429
 20
838.215
 30
0.000000
  70
    32
  0
VERTEX
  8
0
  5
F794
 10
-387.431
 20
838.213
 30
0.000000
  70
    32
  0
VERTEX
  8
0
  5
F795
 10
-387.432
 20
838.210
 30
0.000000
  70
    32
  0
VERTEX
  8
0
  5
F796
 10
-387.434
 20
838.208
 30
0.000000
  70
    32
  0
VERTEX
  8
0
  5
F797
 10
-387.436
 20
838.206
 30
0.000000
  70
    32
  0
VERTEX
  8
0
  5
F798
 10
-387.437
 20
838.203
 30
0.000000
  70
    32
  0
VERTEX
  8
0
  5
F799
 10
-387.439
 20
838.201
 30
0.000000
  70
    32
  0
VERTEX
  8
0
  5
F79A
 10
-387.441
 20
838.199
 30
0.000000
  70
    32
  0
VERTEX
  8
0
  5
F79B
 10
-387.443
 20
838.196
 30
0.000000
  70
    32
  0
VERTEX
  8
0
  5
F79C
 10
-387.444
 20
838.194
 30
0.000000
  70
    32
  0
VERTEX
  8
0
  5
F79D
 10
-387.446
 20
838.192
 30
0.000000
  70
    32
  0
VERTEX
  8
0
  5
F79E
 10
-387.448
 20
838.190
 30
0.000000
  70
    32
  0
VERTEX
  8
0
  5
F79F
 10
-387.450
 20
838.187
 30
0.000000
  70
    32
  0
VERTEX
  8
0
  5
F7A0
 10
-387.452
 20
838.185
 30
0.000000
  70
    32
  0
VERTEX
  8
0
  5
F7A1
 10
-387.453
 20
838.183
 30
0.000000
  70
    32
  0
VERTEX
  8
0
  5
F7A2
 10
-387.455
 20
838.181
 30
0.000000
  70
    32
  0
VERTEX
  8
0
  5
F7A3
 10
-387.457
 20
838.179
 30
0.000000
  70
    32
  0
VERTEX
  8
0
  5
F7A4
 10
-387.459
 20
838.176
 30
0.000000
  70
    32
  0
VERTEX
  8
0
  5
F7A5
 10
-387.461
 20
838.174
 30
0.000000
  70
    32
  0
VERTEX
  8
0
  5
F7A6
 10
-387.463
 20
838.172
 30
0.000000
  70
    32
  0
VERTEX
  8
0
  5
F7A7
 10
-387.465
 20
838.170
 30
0.000000
  70
    32
  0
VERTEX
  8
0
  5
F7A8
 10
-387.467
 20
838.168
 30
0.000000
  70
    32
  0
VERTEX
  8
0
  5
F7A9
 10
-387.469
 20
838.166
 30
0.000000
  70
    32
  0
VERTEX
  8
0
  5
F7AA
 10
-387.471
 20
838.163
 30
0.000000
  70
    32
  0
VERTEX
  8
0
  5
F7AB
 10
-387.473
 20
838.161
 30
0.000000
  70
    32
  0
VERTEX
  8
0
  5
F7AC
 10
-387.475
 20
838.159
 30
0.000000
  70
    32
  0
VERTEX
  8
0
  5
F7AD
 10
-387.476
 20
838.157
 30
0.000000
  70
    32
  0
VERTEX
  8
0
  5
F7AE
 10
-387.478
 20
838.155
 30
0.000000
  70
    32
  0
VERTEX
  8
0
  5
F7AF
 10
-387.481
 20
838.153
 30
0.000000
  70
    32
  0
VERTEX
  8
0
  5
F7B0
 10
-387.483
 20
838.151
 30
0.000000
  70
    32
  0
VERTEX
  8
0
  5
F7B1
 10
-387.485
 20
838.149
 30
0.000000
  70
    32
  0
VERTEX
  8
0
  5
F7B2
 10
-387.487
 20
838.147
 30
0.000000
  70
    32
  0
VERTEX
  8
0
  5
F7B3
 10
-387.489
 20
838.145
 30
0.000000
  70
    32
  0
VERTEX
  8
0
  5
F7B4
 10
-387.491
 20
838.143
 30
0.000000
  70
    32
  0
VERTEX
  8
0
  5
F7B5
 10
-387.493
 20
838.141
 30
0.000000
  70
    32
  0
VERTEX
  8
0
  5
F7B6
 10
-387.495
 20
838.139
 30
0.000000
  70
    32
  0
VERTEX
  8
0
  5
F7B7
 10
-387.497
 20
838.137
 30
0.000000
  70
    32
  0
VERTEX
  8
0
  5
F7B8
 10
-387.499
 20
838.135
 30
0.000000
  70
    32
  0
VERTEX
  8
0
  5
F7B9
 10
-387.501
 20
838.133
 30
0.000000
  70
    32
  0
VERTEX
  8
0
  5
F7BA
 10
-387.503
 20
838.131
 30
0.000000
  70
    32
  0
VERTEX
  8
0
  5
F7BB
 10
-387.506
 20
838.129
 30
0.000000
  70
    32
  0
VERTEX
  8
0
  5
F7BC
 10
-387.508
 20
838.127
 30
0.000000
  70
    32
  0
VERTEX
  8
0
  5
F7BD
 10
-387.510
 20
838.125
 30
0.000000
  70
    32
  0
VERTEX
  8
0
  5
F7BE
 10
-387.512
 20
838.124
 30
0.000000
  70
    32
  0
VERTEX
  8
0
  5
F7BF
 10
-387.514
 20
838.122
 30
0.000000
  70
    32
  0
VERTEX
  8
0
  5
F7C0
 10
-387.516
 20
838.120
 30
0.000000
  70
    32
  0
VERTEX
  8
0
  5
F7C1
 10
-387.519
 20
838.118
 30
0.000000
  70
    32
  0
VERTEX
  8
0
  5
F7C2
 10
-387.521
 20
838.116
 30
0.000000
  70
    32
  0
VERTEX
  8
0
  5
F7C3
 10
-387.523
 20
838.115
 30
0.000000
  70
    32
  0
VERTEX
  8
0
  5
F7C4
 10
-387.525
 20
838.113
 30
0.000000
  70
    32
  0
VERTEX
  8
0
  5
F7C5
 10
-387.528
 20
838.111
 30
0.000000
  70
    32
  0
VERTEX
  8
0
  5
F7C6
 10
-387.530
 20
838.109
 30
0.000000
  70
    32
  0
VERTEX
  8
0
  5
F7C7
 10
-387.532
 20
838.108
 30
0.000000
  70
    32
  0
VERTEX
  8
0
  5
F7C8
 10
-387.534
 20
838.106
 30
0.000000
  70
    32
  0
VERTEX
  8
0
  5
F7C9
 10
-387.537
 20
838.104
 30
0.000000
  70
    32
  0
VERTEX
  8
0
  5
F7CA
 10
-387.539
 20
838.103
 30
0.000000
  70
    32
  0
VERTEX
  8
0
  5
F7CB
 10
-387.541
 20
838.101
 30
0.000000
  70
    32
  0
VERTEX
  8
0
  5
F7CC
 10
-387.544
 20
838.100
 30
0.000000
  70
    32
  0
VERTEX
  8
0
  5
F7CD
 10
-387.546
 20
838.098
 30
0.000000
  70
    32
  0
VERTEX
  8
0
  5
F7CE
 10
-387.549
 20
838.096
 30
0.000000
  70
    32
  0
VERTEX
  8
0
  5
F7CF
 10
-387.551
 20
838.095
 30
0.000000
  70
    32
  0
VERTEX
  8
0
  5
F7D0
 10
-387.553
 20
838.093
 30
0.000000
  70
    32
  0
VERTEX
  8
0
  5
F7D1
 10
-387.556
 20
838.092
 30
0.000000
  70
    32
  0
VERTEX
  8
0
  5
F7D2
 10
-387.558
 20
838.090
 30
0.000000
  70
    32
  0
VERTEX
  8
0
  5
F7D3
 10
-387.561
 20
838.089
 30
0.000000
  70
    32
  0
VERTEX
  8
0
  5
F7D4
 10
-387.563
 20
838.088
 30
0.000000
  70
    32
  0
VERTEX
  8
0
  5
F7D5
 10
-387.565
 20
838.086
 30
0.000000
  70
    32
  0
VERTEX
  8
0
  5
F7D6
 10
-387.568
 20
838.085
 30
0.000000
  70
    32
  0
VERTEX
  8
0
  5
F7D7
 10
-387.570
 20
838.084
 30
0.000000
  70
    32
  0
VERTEX
  8
0
  5
F7D8
 10
-387.573
 20
838.082
 30
0.000000
  70
    32
  0
VERTEX
  8
0
  5
F7D9
 10
-387.575
 20
838.081
 30
0.000000
  70
    32
  0
VERTEX
  8
0
  5
F7DA
 10
-387.578
 20
838.080
 30
0.000000
  70
    32
  0
VERTEX
  8
0
  5
F7DB
 10
-387.580
 20
838.078
 30
0.000000
  70
    32
  0
VERTEX
  8
0
  5
F7DC
 10
-387.583
 20
838.077
 30
0.000000
  70
    32
  0
VERTEX
  8
0
  5
F7DD
 10
-387.585
 20
838.076
 30
0.000000
  70
    32
  0
VERTEX
  8
0
  5
F7DE
 10
-387.588
 20
838.075
 30
0.000000
  70
    32
  0
VERTEX
  8
0
  5
F7DF
 10
-387.590
 20
838.074
 30
0.000000
  70
    32
  0
VERTEX
  8
0
  5
F7E0
 10
-387.593
 20
838.073
 30
0.000000
  70
    32
  0
VERTEX
  8
0
  5
F7E1
 10
-387.596
 20
838.072
 30
0.000000
  70
    32
  0
VERTEX
  8
0
  5
F7E2
 10
-387.598
 20
838.071
 30
0.000000
  70
    32
  0
VERTEX
  8
0
  5
F7E3
 10
-387.601
 20
838.070
 30
0.000000
  70
    32
  0
VERTEX
  8
0
  5
F7E4
 10
-387.604
 20
838.069
 30
0.000000
  70
    32
  0
VERTEX
  8
0
  5
F7E5
 10
-387.606
 20
838.068
 30
0.000000
  70
    32
  0
VERTEX
  8
0
  5
F7E6
 10
-387.609
 20
838.067
 30
0.000000
  70
    32
  0
VERTEX
  8
0
  5
F7E7
 10
-387.612
 20
838.066
 30
0.000000
  70
    32
  0
VERTEX
  8
0
  5
F7E8
 10
-387.614
 20
838.065
 30
0.000000
  70
    32
  0
VERTEX
  8
0
  5
F7E9
 10
-387.617
 20
838.065
 30
0.000000
  70
    32
  0
VERTEX
  8
0
  5
F7EA
 10
-387.620
 20
838.064
 30
0.000000
  70
    32
  0
VERTEX
  8
0
  5
F7EB
 10
-387.623
 20
838.063
 30
0.000000
  70
    32
  0
VERTEX
  8
0
  5
F7EC
 10
-387.625
 20
838.063
 30
0.000000
  70
    32
  0
VERTEX
  8
0
  5
F7ED
 10
-387.628
 20
838.062
 30
0.000000
  70
    32
  0
VERTEX
  8
0
  5
F7EE
 10
-387.631
 20
838.062
 30
0.000000
  70
    32
  0
VERTEX
  8
0
  5
F7EF
 10
-387.634
 20
838.061
 30
0.000000
  70
    32
  0
VERTEX
  8
0
  5
F7F0
 10
-387.637
 20
838.061
 30
0.000000
  70
    32
  0
VERTEX
  8
0
  5
F7F1
 10
-387.640
 20
838.061
 30
0.000000
  70
    32
  0
VERTEX
  8
0
  5
F7F2
 10
-387.643
 20
838.061
 30
0.000000
  70
    32
  0
VERTEX
  8
0
  5
F7F3
 10
-387.646
 20
838.060
 30
0.000000
  70
    32
  0
VERTEX
  8
0
  5
F7F4
 10
-387.649
 20
838.060
 30
0.000000
  70
    32
  0
VERTEX
  8
0
  5
F7F5
 10
-387.652
 20
838.060
 30
0.000000
  70
    32
  0
VERTEX
  8
0
  5
F7F6
 10
-387.655
 20
838.060
 30
0.000000
  70
    32
  0
VERTEX
  8
0
  5
F7F7
 10
-387.658
 20
838.060
 30
0.000000
  70
    32
  0
VERTEX
  8
0
  5
F7F8
 10
-387.661
 20
838.061
 30
0.000000
  70
    32
  0
VERTEX
  8
0
  5
F7F9
 10
-387.664
 20
838.061
 30
0.000000
  70
    32
  0
VERTEX
  8
0
  5
F7FA
 10
-387.667
 20
838.061
 30
0.000000
  70
    32
  0
VERTEX
  8
0
  5
F7FB
 10
-387.670
 20
838.062
 30
0.000000
  70
    32
  0
VERTEX
  8
0
  5
F7FC
 10
-387.673
 20
838.062
 30
0.000000
  70
    32
  0
VERTEX
  8
0
  5
F7FD
 10
-387.676
 20
838.063
 30
0.000000
  70
    32
  0
VERTEX
  8
0
  5
F7FE
 10
-387.680
 20
838.063
 30
0.000000
  70
    32
  0
VERTEX
  8
0
  5
F7FF
 10
-387.683
 20
838.064
 30
0.000000
  70
    32
  0
VERTEX
  8
0
  5
F800
 10
-387.686
 20
838.065
 30
0.000000
  70
    32
  0
VERTEX
  8
0
  5
F801
 10
-387.689
 20
838.066
 30
0.000000
  70
    32
  0
VERTEX
  8
0
  5
F802
 10
-387.692
 20
838.067
 30
0.000000
  70
    32
  0
VERTEX
  8
0
  5
F803
 10
-387.695
 20
838.068
 30
0.000000
  70
    32
  0
VERTEX
  8
0
  5
F804
 10
-387.698
 20
838.069
 30
0.000000
  70
    32
  0
VERTEX
  8
0
  5
F805
 10
-387.701
 20
838.070
 30
0.000000
  70
    32
  0
VERTEX
  8
0
  5
F806
 10
-387.703
 20
838.071
 30
0.000000
  70
    32
  0
VERTEX
  8
0
  5
F807
 10
-387.706
 20
838.073
 30
0.000000
  70
    32
  0
VERTEX
  8
0
  5
F808
 10
-387.709
 20
838.074
 30
0.000000
  70
    32
  0
VERTEX
  8
0
  5
F809
 10
-387.711
 20
838.076
 30
0.000000
  70
    32
  0
VERTEX
  8
0
  5
F80A
 10
-387.714
 20
838.077
 30
0.000000
  70
    32
  0
VERTEX
  8
0
  5
F80B
 10
-387.716
 20
838.079
 30
0.000000
  70
    32
  0
VERTEX
  8
0
  5
F80C
 10
-387.718
 20
838.081
 30
0.000000
  70
    32
  0
VERTEX
  8
0
  5
F80D
 10
-387.720
 20
838.083
 30
0.000000
  70
    32
  0
VERTEX
  8
0
  5
F80E
 10
-387.722
 20
838.085
 30
0.000000
  70
    32
  0
VERTEX
  8
0
  5
F80F
 10
-387.724
 20
838.087
 30
0.000000
  70
    32
  0
VERTEX
  8
0
  5
F810
 10
-387.726
 20
838.089
 30
0.000000
  70
    32
  0
VERTEX
  8
0
  5
F811
 10
-387.727
 20
838.091
 30
0.000000
  70
    32
  0
VERTEX
  8
0
  5
F812
 10
-387.729
 20
838.094
 30
0.000000
  70
    32
  0
VERTEX
  8
0
  5
F813
 10
-387.730
 20
838.096
 30
0.000000
  70
    32
  0
VERTEX
  8
0
  5
F814
 10
-387.731
 20
838.099
 30
0.000000
  70
    32
  0
VERTEX
  8
0
  5
F815
 10
-387.732
 20
838.101
 30
0.000000
  70
    32
  0
SEQEND
  8
0
  5
F816
  0
VIEWPORT
  5
BADA
 67
     1
  8
0
 10
5.249999665167528
 20
4.016860864854312
 30
0.0
 40
16.259362384438411
 41
8.0158201110956853
 68
     2
 69
     1
1001
ACAD
1000
MVIEW
1002
{
1070
    16
1010
0.0
1020
0.0
1030
0.0
1010
0.0
1020
0.0
1030
1.0
1040
0.0
1040
8.0158201110956853
1040
5.249999665167528
1040
4.016860864854312
1040
50.0
1040
0.0
1040
0.0
1070
     0
1070
   100
1070
     1
1070
     1
1070
     0
1070
     0
1070
     0
1070
     0
1040
0.0
1040
0.0
1040
0.0
1040
0.5
1040
0.5
1040
0.5
1040
0.5
1070
     0
1002
{
1002
}
1002
}
  0
VIEWPORT
  5
BADD
 67
     1
  8
0
 10
5.249999629487192
 20
4.0166741807634683
 30
0.0
 40
10.44245679893058
 41
7.8813805131999892
 68
     1
 69
     2
1001
ACAD
1000
MVIEW
1002
{
1070
    16
1010
0.0
1020
0.0
1030
0.0
1010
0.0
1020
0.0
1030
1.0
1040
0.0
1040
7.8813805131999892
1040
-386.95948185412709
1040
838.98450758524882
1040
50.0
1040
0.0
1040
0.0
1070
     0
1070
   100
1070
     1
1070
     2
1070
     0
1070
     0
1070
     0
1070
     0
1040
0.0
1040
0.0
1040
0.0
1040
0.5
1040
0.5
1040
0.5
1040
0.5
1070
     0
1002
{
1002
}
1002
}
  0
ENDSEC
  0
EOF
