  0
SECTION
  2
HEADER
  9
$ACADVER
  1
AC1009
  9
$INSBASE
 10
0.0
 20
0.0
 30
0.0
  9
$EXTMIN
 10
-389.93991053657271
 20
834.65667183693085
 30
0.0
  9
$EXTMAX
 10
-383.9430257495203
 20
841.95209850612559
 30
0.0
  9
$LIMMIN
 10
0.0
 20
0.0
  9
$LIMMAX
 10
1500.0
 20
1500.0
  9
$ORTHOMODE
 70
     0
  9
$REGENMODE
 70
     1
  9
$FILLMODE
 70
     1
  9
$QTEXTMODE
 70
     0
  9
$MIRRTEXT
 70
     1
  9
$DRAGMODE
 70
     2
  9
$LTSCALE
 40
1.0
  9
$OSMODE
 70
    37
  9
$ATTMODE
 70
     1
  9
$TEXTSIZE
 40
1.5
  9
$TRACEWID
 40
0.05
  9
$TEXTSTYLE
  7
STANDARD
  9
$CLAYER
  8
0
  9
$CELTYPE
  6
BYLAYER
  9
$CECOLOR
 62
   256
  9
$DIMSCALE
 40
1.0
  9
$DIMASZ
 40
0.75
  9
$DIMEXO
 40
1.5
  9
$DIMDLI
 40
2.0
  9
$DIMRND
 40
0.0
  9
$DIMDLE
 40
0.0
  9
$DIMEXE
 40
1.0
  9
$DIMTP
 40
0.0
  9
$DIMTM
 40
0.0
  9
$DIMTXT
 40
1.5
  9
$DIMCEN
 40
2.0
  9
$DIMTSZ
 40
0.0
  9
$DIMTOL
 70
     0
  9
$DIMLIM
 70
     0
  9
$DIMTIH
 70
     0
  9
$DIMTOH
 70
     0
  9
$DIMSE1
 70
     0
  9
$DIMSE2
 70
     0
  9
$DIMTAD
 70
     1
  9
$DIMZIN
 70
     0
  9
$DIMBLK
  1
ARCHTICK
  9
$DIMASO
 70
     1
  9
$DIMSHO
 70
     1
  9
$DIMPOST
  1
"
  9
$DIMAPOST
  1

  9
$DIMALT
 70
     0
  9
$DIMALTD
 70
     2
  9
$DIMALTF
 40
25.399999999999999
  9
$DIMLFAC
 40
1.0
  9
$DIMTOFL
 70
     0
  9
$DIMTVP
 40
0.0
  9
$DIMTIX
 70
     1
  9
$DIMSOXD
 70
     0
  9
$DIMSAH
 70
     0
  9
$DIMBLK1
  1

  9
$DIMBLK2
  1

  9
$DIMSTYLE
  2
THREE_QUARTER_INCH_SCALE
  9
$DIMCLRD
 70
     0
  9
$DIMCLRE
 70
     0
  9
$DIMCLRT
 70
     0
  9
$DIMTFAC
 40
1.0
  9
$DIMGAP
 40
1.0
  9
$LUNITS
 70
     2
  9
$LUPREC
 70
     4
  9
$SKETCHINC
 40
0.1
  9
$FILLETRAD
 40
0.0
  9
$AUNITS
 70
     0
  9
$AUPREC
 70
     0
  9
$MENU
  1
.
  9
$ELEVATION
 40
0.0
  9
$PELEVATION
 40
0.0
  9
$THICKNESS
 40
0.0
  9
$LIMCHECK
 70
     0
  9
$BLIPMODE
 70
     0
  9
$CHAMFERA
 40
0.5
  9
$CHAMFERB
 40
0.5
  9
$SKPOLY
 70
     0
  9
$TDCREATE
 40
2452089.395738773
  9
$TDUPDATE
 40
2453612.3325142819
  9
$TDINDWG
 40
1.0138826272999999
  9
$TDUSRTIMER
 40
1.0138822685
  9
$USRTIMER
 70
     1
  9
$ANGBASE
 50
0.0
  9
$ANGDIR
 70
     0
  9
$PDMODE
 70
     0
  9
$PDSIZE
 40
10.0
  9
$PLINEWID
 40
0.0
  9
$COORDS
 70
     1
  9
$SPLFRAME
 70
     0
  9
$SPLINETYPE
 70
     6
  9
$SPLINESEGS
 70
     8
  9
$ATTDIA
 70
     0
  9
$ATTREQ
 70
     1
  9
$HANDLING
 70
     1
  9
$HANDSEED
  5
E75D
  9
$SURFTAB1
 70
     6
  9
$SURFTAB2
 70
     6
  9
$SURFTYPE
 70
     6
  9
$SURFU
 70
     6
  9
$SURFV
 70
     6
  9
$UCSNAME
  2

  9
$UCSORG
 10
0.0
 20
0.0
 30
0.0
  9
$UCSXDIR
 10
1.0
 20
0.0
 30
0.0
  9
$UCSYDIR
 10
0.0
 20
1.0
 30
0.0
  9
$PUCSNAME
  2

  9
$PUCSORG
 10
0.0
 20
0.0
 30
0.0
  9
$PUCSXDIR
 10
1.0
 20
0.0
 30
0.0
  9
$PUCSYDIR
 10
0.0
 20
1.0
 30
0.0
  9
$USERI1
 70
     0
  9
$USERI2
 70
     0
  9
$USERI3
 70
     0
  9
$USERI4
 70
     0
  9
$USERI5
 70
     0
  9
$USERR1
 40
0.0
  9
$USERR2
 40
0.0
  9
$USERR3
 40
0.0
  9
$USERR4
 40
0.0
  9
$USERR5
 40
0.0
  9
$WORLDVIEW
 70
     1
  9
$SHADEDGE
 70
     3
  9
$SHADEDIF
 70
    70
  9
$TILEMODE
 70
     0
  9
$MAXACTVP
 70
    64
  9
$PLIMCHECK
 70
     0
  9
$PEXTMIN
 10
0.0282895744820628
 20
0.0759353784799721
 30
-0.0015258207003583
  9
$PEXTMAX
 10
10.47170975585299
 20
7.9577863512286546
 30
0.0000000349246037
  9
$PLIMMIN
 10
-0.1682389550263349
 20
-0.2033427855578579
  9
$PLIMMAX
 10
10.754640548407011
 20
8.2370640492290015
  9
$UNITMODE
 70
     0
  9
$VISRETAIN
 70
     1
  9
$PLINEGEN
 70
     0
  9
$PSLTSCALE
 70
     1
  0
ENDSEC
  0
SECTION
  2
TABLES
  0
TABLE
  2
VPORT
 70
     1
  0
VPORT
  2
*ACTIVE
 70
     0
 10
0.0
 20
0.0
 11
1.0
 21
1.0
 12
-386.52380251144001
 22
838.09204166179234
 13
0.0
 23
0.0
 14
0.5
 24
0.5
 15
0.5
 25
0.5
 16
0.0
 26
0.0
 36
1.0
 17
0.0
 27
0.0
 37
0.0
 40
3.930952126162941
 41
2.0226628895184122
 42
50.0
 43
0.0
 44
0.0
 50
0.0
 51
0.0
 71
     0
 72
   100
 73
     1
 74
     2
 75
     0
 76
     0
 77
     0
 78
     0
  0
ENDTAB
  0
TABLE
  2
LTYPE
 70
     1
  0
LTYPE
  2
CONTINUOUS
 70
     0
  3
Solid line
 72
    65
 73
     0
 40
0.0
  0
ENDTAB
  0
TABLE
  2
LAYER
 70
    10
  0
LAYER
  2
0
 70
     0
 62
     7
  6
CONTINUOUS
  0
LAYER
  2
DEFPOINTS
 70
     0
 62
     7
  6
CONTINUOUS
  0
LAYER
  2
FRAME_200
 70
     0
 62
     8
  6
CONTINUOUS
  0
LAYER
  2
FRAME_070
 70
     0
 62
     5
  6
CONTINUOUS
  0
LAYER
  2
FRAME_050
 70
     0
 62
     6
  6
CONTINUOUS
  0
LAYER
  2
TITLE_BLOCK
 70
     0
 62
     7
  6
CONTINUOUS
  0
LAYER
  2
FRAME_025
 70
     0
 62
     7
  6
CONTINUOUS
  0
LAYER
  2
VIEWPORT
 70
     0
 62
     7
  6
CONTINUOUS
  0
LAYER
  2
PROF
 70
     0
 62
     7
  6
CONTINUOUS
  0
LAYER
  2
PROFILE
 70
     0
 62
     7
  6
CONTINUOUS
  0
ENDTAB
  0
TABLE
  2
STYLE
 70
     2
  0
STYLE
  2
STANDARD
 70
     0
 40
0.0
 41
1.0
 50
0.0
 71
     0
 42
1.5
  3
txt
  4

  0
STYLE
  2
ISO_PROPORTIONAL
 70
     0
 40
0.0
 41
1.0
 50
0.0
 71
     0
 42
2.5
  3
isocp.shx
  4

  0
ENDTAB
  0
TABLE
  2
VIEW
 70
     0
  0
ENDTAB
  0
TABLE
  2
UCS
 70
     0
  0
ENDTAB
  0
TABLE
  2
APPID
 70
     6
  0
APPID
  2
ACAD
 70
     0
  0
APPID
  2
DCO15
 70
     0
  0
APPID
  2
ACAD_EXEMPT_FROM_CAD_STANDARDS
 70
     0
  0
APPID
  2
ACAD_PSEXT
 70
     0
  0
APPID
  2
CONTENTBLOCKDESCRIPTION
 70
     0
  0
APPID
  2
CONTENTBLOCKICON
 70
     0
  0
ENDTAB
  0
TABLE
  2
DIMSTYLE
 70
    10
  0
DIMSTYLE
  2
FULL_SCALE
 70
     0
  3
"
  4

  5

  6

  7

 40
1.0
 41
0.046875
 42
0.09375
 43
0.125
 44
0.0625
 45
0.0
 46
0.0
 47
0.0
 48
0.0
140
0.125
141
0.125
142
0.0
143
25.399999999999999
144
1.0
145
0.0
146
1.0
147
0.0625
 71
     0
 72
     0
 73
     0
 74
     0
 75
     0
 76
     0
 77
     1
 78
     0
170
     0
171
     2
172
     0
173
     0
174
     1
175
     0
176
     0
177
     0
178
     0
  0
DIMSTYLE
  2
HALF_SCALE
 70
     0
  3
"
  4

  5

  6

  7

 40
1.0
 41
0.09375
 42
0.1875
 43
0.25
 44
0.125
 45
0.0
 46
0.0
 47
0.0
 48
0.0
140
0.25
141
0.25
142
0.0
143
25.399999999999999
144
1.0
145
0.0
146
1.0
147
0.125
 71
     0
 72
     0
 73
     0
 74
     0
 75
     0
 76
     0
 77
     1
 78
     0
170
     0
171
     2
172
     0
173
     0
174
     1
175
     0
176
     0
177
     0
178
     0
  0
DIMSTYLE
  2
INCH_SCALE
 70
     0
  3
"
  4

  5

  6

  7

 40
1.0
 41
0.5625
 42
1.125
 43
1.5
 44
0.75
 45
0.0
 46
0.0
 47
0.0
 48
0.0
140
1.125
141
1.5
142
0.0
143
25.399999999999999
144
1.0
145
0.0
146
1.0
147
0.75
 71
     0
 72
     0
 73
     0
 74
     0
 75
     0
 76
     0
 77
     1
 78
     0
170
     0
171
     2
172
     0
173
     0
174
     1
175
     0
176
     0
177
     0
178
     0
  0
DIMSTYLE
  2
THREE_QUARTER_INCH_SCALE
 70
     0
  3
"
  4

  5

  6

  7

 40
1.0
 41
0.75
 42
1.5
 43
2.0
 44
1.0
 45
0.0
 46
0.0
 47
0.0
 48
0.0
140
1.5
141
2.0
142
0.0
143
25.399999999999999
144
1.0
145
0.0
146
1.0
147
1.0
 71
     0
 72
     0
 73
     0
 74
     0
 75
     0
 76
     0
 77
     1
 78
     0
170
     0
171
     2
172
     0
173
     0
174
     1
175
     0
176
     0
177
     0
178
     0
  0
DIMSTYLE
  2
ZHALF_INCH_SCALE
 70
     0
  3
"
  4

  5

  6

  7

 40
1.0
 41
1.125
 42
2.25
 43
3.0
 44
1.5
 45
0.0
 46
0.0
 47
0.0
 48
0.0
140
2.25
141
3.0
142
0.0
143
25.399999999999999
144
1.0
145
0.0
146
1.0
147
1.5
 71
     0
 72
     0
 73
     0
 74
     0
 75
     0
 76
     0
 77
     1
 78
     0
170
     0
171
     2
172
     0
173
     0
174
     1
175
     0
176
     0
177
     0
178
     0
  0
DIMSTYLE
  2
FULL_SCALE0
 70
     0
  3
"
  4

  5
ARCHTICK
  6

  7

 40
1.0
 41
0.046875
 42
0.09375
 43
0.125
 44
0.0625
 45
0.0
 46
0.0
 47
0.0
 48
0.0
140
0.125
141
0.125
142
0.0
143
25.399999999999999
144
1.0
145
0.0
146
1.0
147
0.0625
 71
     0
 72
     0
 73
     0
 74
     0
 75
     0
 76
     0
 77
     1
 78
     0
170
     0
171
     2
172
     0
173
     0
174
     1
175
     0
176
     0
177
     0
178
     0
  0
DIMSTYLE
  2
HALF_SCALE0
 70
     0
  3
"
  4

  5
ARCHTICK
  6

  7

 40
1.0
 41
0.09375
 42
0.1875
 43
0.25
 44
0.125
 45
0.0
 46
0.0
 47
0.0
 48
0.0
140
0.25
141
0.25
142
0.0
143
25.399999999999999
144
1.0
145
0.0
146
1.0
147
0.125
 71
     0
 72
     0
 73
     0
 74
     0
 75
     0
 76
     0
 77
     1
 78
     0
170
     0
171
     2
172
     0
173
     0
174
     1
175
     0
176
     0
177
     0
178
     0
  0
DIMSTYLE
  2
INCH_SCALE0
 70
     0
  3
"
  4

  5
ARCHTICK
  6

  7

 40
1.0
 41
0.5625
 42
1.125
 43
1.5
 44
0.75
 45
0.0
 46
0.0
 47
0.0
 48
0.0
140
1.125
141
1.5
142
0.0
143
25.399999999999999
144
1.0
145
0.0
146
1.0
147
0.75
 71
     0
 72
     0
 73
     0
 74
     0
 75
     0
 76
     0
 77
     1
 78
     0
170
     0
171
     2
172
     0
173
     0
174
     1
175
     0
176
     0
177
     0
178
     0
  0
DIMSTYLE
  2
THREE_QUARTER_INCH_SCALE0
 70
     0
  3
"
  4

  5
ARCHTICK
  6

  7

 40
1.0
 41
0.75
 42
1.5
 43
2.0
 44
1.0
 45
0.0
 46
0.0
 47
0.0
 48
0.0
140
1.5
141
2.0
142
0.0
143
25.399999999999999
144
1.0
145
0.0
146
1.0
147
1.0
 71
     0
 72
     0
 73
     0
 74
     0
 75
     0
 76
     0
 77
     1
 78
     0
170
     0
171
     2
172
     0
173
     0
174
     1
175
     0
176
     0
177
     0
178
     0
  0
DIMSTYLE
  2
ZHALF_INCH_SCALE0
 70
     0
  3
"
  4

  5
ARCHTICK
  6

  7

 40
1.0
 41
1.125
 42
2.25
 43
3.0
 44
1.5
 45
0.0
 46
0.0
 47
0.0
 48
0.0
140
2.25
141
3.0
142
0.0
143
25.399999999999999
144
1.0
145
0.0
146
1.0
147
1.5
 71
     0
 72
     0
 73
     0
 74
     0
 75
     0
 76
     0
 77
     1
 78
     0
170
     0
171
     2
172
     0
173
     0
174
     1
175
     0
176
     0
177
     0
178
     0
  0
ENDTAB
  0
ENDSEC
  0
SECTION
  2
BLOCKS
  0
BLOCK
  8
0
  2
$MODEL_SPACE
 70
     0
 10
0.0
 20
0.0
 30
0.0
  3
$MODEL_SPACE
  1

  0
ENDBLK
  5
C9DC
  8
0
  0
BLOCK
 67
     1
  8
0
  2
$PAPER_SPACE
 70
     0
 10
0.0
 20
0.0
 30
0.0
  3
$PAPER_SPACE
  1

  0
ENDBLK
  5
C9D8
 67
     1
  8
0
  0
BLOCK
  8
0
  2
_ARCHTICK
 70
     0
 10
0.0
 20
0.0
 30
0.0
  3
_ARCHTICK
  1

  0
POLYLINE
  5
158
  8
0
  6
BYBLOCK
 62
     0
 66
     1
 10
0.0
 20
0.0
 30
0.0
 40
0.15
 41
0.15
  0
VERTEX
  5
E433
  8
0
  6
BYBLOCK
 62
     0
 10
-0.5
 20
-0.5
 30
0.0
  0
VERTEX
  5
E434
  8
0
  6
BYBLOCK
 62
     0
 10
0.5
 20
0.5
 30
0.0
  0
SEQEND
  5
E435
  8
0
  6
BYBLOCK
 62
     0
  0
ENDBLK
  5
15A
  8
0
  0
BLOCK
  8
0
  2
_OPEN30
 70
     0
 10
0.0
 20
0.0
 30
0.0
  3
_OPEN30
  1

  0
LINE
  5
15C
  8
0
  6
BYBLOCK
 62
     0
 10
-1.0
 20
0.26794919
 30
0.0
 11
0.0
 21
0.0
 31
0.0
  0
LINE
  5
15D
  8
0
  6
BYBLOCK
 62
     0
 10
0.0
 20
0.0
 30
0.0
 11
-1.0
 21
-0.26794919
 31
0.0
  0
LINE
  5
15E
  8
0
  6
BYBLOCK
 62
     0
 10
0.0
 20
0.0
 30
0.0
 11
-1.0
 21
0.0
 31
0.0
  0
ENDBLK
  5
160
  8
0
  0
BLOCK
  8
0
  2
ISO_A2_TITLE_BLOCK
 70
     2
 10
0.0
 20
0.0
 30
0.0
  3
ISO_A2_TITLE_BLOCK
  1

  0
LINE
  5
BDD
  8
FRAME_050
 10
299.5
 20
12.5
 30
0.0
 11
297.0
 21
7.5
 31
0.0
  0
LINE
  5
BDE
  8
FRAME_050
 10
294.5
 20
12.5
 30
0.0
 11
299.5
 21
12.5
 31
0.0
  0
LINE
  5
BDF
  8
FRAME_050
 10
247.0
 20
5.0
 30
0.0
 11
347.0
 21
5.0
 31
0.0
  0
LINE
  5
BE0
  8
FRAME_070
 10
584.0
 20
410.0
 30
0.0
 11
10.0
 21
410.0
 31
0.0
  0
LINE
  5
BE1
  8
FRAME_070
 10
10.0
 20
10.0
 30
0.0
 11
584.0
 21
10.0
 31
0.0
  0
LINE
  5
BE2
  8
FRAME_050
 10
12.5
 20
207.5
 30
0.0
 11
7.5
 21
210.0
 31
0.0
  0
LINE
  5
BE3
  8
FRAME_050
 10
12.5
 20
212.5
 30
0.0
 11
12.5
 21
207.5
 31
0.0
  0
LINE
  5
BE4
  8
FRAME_070
 10
10.0
 20
410.0
 30
0.0
 11
10.0
 21
10.0
 31
0.0
  0
LINE
  5
BE5
  8
FRAME_200
 10
0.0
 20
0.0
 30
0.0
 11
0.0
 21
10.0
 31
0.0
  0
LINE
  5
BE6
  8
FRAME_200
 10
0.0
 20
0.0
 30
0.0
 11
10.0
 21
0.0
 31
0.0
  0
TEXT
  5
BE7
  8
FRAME_050
 10
5.9000000000000004
 20
35.0
 30
0.0
 40
4.0
  1
H
  7
ISO_PROPORTIONAL
 72
     4
 11
7.5
 21
37.0
 31
0.0
  0
LINE
  5
BE8
  8
FRAME_050
 10
10.0
 20
60.0
 30
0.0
 11
5.0
 21
60.0
 31
0.0
  0
LINE
  5
BE9
  8
FRAME_050
 10
81.75
 20
5.0
 30
0.0
 11
81.75
 21
10.0
 31
0.0
  0
TEXT
  5
BEA
  8
FRAME_050
 10
44.874999999999993
 20
5.5
 30
0.0
 40
4.0
  1
1
  7
ISO_PROPORTIONAL
 72
     4
 11
45.875
 21
7.5
 31
0.0
  0
TEXT
  5
BEB
  8
FRAME_050
 10
6.0035533905932743
 20
85.0
 30
0.0
 40
4.0
  1
G
  7
ISO_PROPORTIONAL
 72
     4
 11
7.5
 21
87.0
 31
0.0
  0
LINE
  5
BEC
  8
FRAME_050
 10
10.0
 20
110.0
 30
0.0
 11
5.0
 21
110.0
 31
0.0
  0
TEXT
  5
BED
  8
FRAME_050
 10
6.0999999999999988
 20
135.0
 30
0.0
 40
4.0
  1
F
  7
ISO_PROPORTIONAL
 72
     4
 11
7.5
 21
137.0
 31
0.0
  0
LINE
  5
BEE
  8
FRAME_050
 10
10.0
 20
160.0
 30
0.0
 11
5.0
 21
160.0
 31
0.0
  0
TEXT
  5
BEF
  8
FRAME_050
 10
6.0999999999999988
 20
185.0
 30
0.0
 40
4.0
  1
E
  7
ISO_PROPORTIONAL
 72
     4
 11
7.5
 21
187.0
 31
0.0
  0
LINE
  5
BF0
  8
FRAME_050
 10
153.5
 20
5.0
 30
0.0
 11
153.5
 21
10.0
 31
0.0
  0
TEXT
  5
BF1
  8
FRAME_050
 10
116.1556692913386
 20
5.3996062992125982
 30
0.0
 40
4.0
  1
2
  7
ISO_PROPORTIONAL
 72
     4
 11
117.625
 21
7.5
 31
0.0
  0
TEXT
  5
BF2
  8
FRAME_050
 10
187.89215728752529
 20
5.5828427124746138
 30
0.0
 40
4.0
  1
3
  7
ISO_PROPORTIONAL
 72
     4
 11
189.375
 21
7.5
 31
0.0
  0
LINE
  5
BF3
  8
FRAME_050
 10
225.25
 20
5.0
 30
0.0
 11
225.25
 21
10.0
 31
0.0
  0
LINE
  5
BF4
  8
FRAME_050
 10
297.0
 20
7.5
 30
0.0
 11
294.5
 21
12.5
 31
0.0
  0
LINE
  5
BF5
  8
FRAME_050
 10
287.0
 20
5.0
 30
0.0
 11
287.0
 21
10.0
 31
0.0
  0
LINE
  5
BF6
  8
FRAME_050
 10
277.0
 20
5.0
 30
0.0
 11
277.0
 21
10.0
 31
0.0
  0
LINE
  5
BF7
  8
FRAME_050
 10
267.0
 20
5.0
 30
0.0
 11
267.0
 21
10.0
 31
0.0
  0
LINE
  5
BF8
  8
FRAME_050
 10
257.0
 20
5.0
 30
0.0
 11
257.0
 21
10.0
 31
0.0
  0
LINE
  5
BF9
  8
FRAME_050
 10
247.0
 20
5.0
 30
0.0
 11
247.0
 21
10.0
 31
0.0
  0
LINE
  5
BFA
  8
FRAME_050
 10
297.0
 20
10.0
 30
0.0
 11
297.0
 21
5.0
 31
0.0
  0
LINE
  5
BFB
  8
FRAME_050
 10
297.0
 20
10.0
 30
0.0
 11
297.0
 21
15.0
 31
0.0
  0
LINE
  5
BFC
  8
FRAME_050
 10
5.0
 20
210.0
 30
0.0
 11
15.0
 21
210.0
 31
0.0
  0
LINE
  5
BFD
  8
FRAME_050
 10
7.5
 20
210.0
 30
0.0
 11
12.5
 21
212.5
 31
0.0
  0
TEXT
  5
BFE
  8
FRAME_050
 10
5.7860912703473977
 20
235.0
 30
0.0
 40
4.0
  1
D
  7
ISO_PROPORTIONAL
 72
     4
 11
7.5
 21
237.0
 31
0.0
  0
LINE
  5
BFF
  8
FRAME_050
 10
10.0
 20
260.0
 30
0.0
 11
5.0
 21
260.0
 31
0.0
  0
TEXT
  5
C00
  8
FRAME_050
 10
6.1931980515339466
 20
285.0
 30
0.0
 40
4.0
  1
C
  7
ISO_PROPORTIONAL
 72
     4
 11
7.5
 21
287.0
 31
0.0
  0
LINE
  5
C01
  8
FRAME_050
 10
10.0
 20
310.0
 30
0.0
 11
5.0
 21
310.0
 31
0.0
  0
TEXT
  5
C02
  8
FRAME_050
 10
5.8999999999999959
 20
335.0
 30
0.0
 40
4.0
  1
B
  7
ISO_PROPORTIONAL
 72
     4
 11
7.5
 21
337.0
 31
0.0
  0
LINE
  5
C03
  8
FRAME_050
 10
10.0
 20
360.0
 30
0.0
 11
5.0
 21
360.0
 31
0.0
  0
TEXT
  5
C04
  8
FRAME_050
 10
5.6999999999999993
 20
385.0
 30
0.0
 40
4.0
  1
A
  7
ISO_PROPORTIONAL
 72
     4
 11
7.5
 21
387.0
 31
0.0
  0
LINE
  5
C05
  8
FRAME_200
 10
10.0
 20
420.0
 30
0.0
 11
0.0
 21
420.0
 31
0.0
  0
LINE
  5
C06
  8
FRAME_200
 10
0.0
 20
420.0
 30
0.0
 11
0.0
 21
410.0
 31
0.0
  0
TEXT
  5
C07
  8
FRAME_050
 10
44.874999999999993
 20
410.5
 30
0.0
 40
4.0
  1
1
  7
ISO_PROPORTIONAL
 72
     4
 11
45.875
 21
412.5
 31
0.0
  0
LINE
  5
C08
  8
FRAME_050
 10
81.75
 20
410.0
 30
0.0
 11
81.75
 21
415.0
 31
0.0
  0
TEXT
  5
C09
  8
FRAME_050
 10
116.1556692913386
 20
410.39960629921262
 30
0.0
 40
4.0
  1
2
  7
ISO_PROPORTIONAL
 72
     4
 11
117.625
 21
412.5
 31
0.0
  0
LINE
  5
C0A
  8
FRAME_050
 10
153.5
 20
410.0
 30
0.0
 11
153.5
 21
415.0
 31
0.0
  0
TEXT
  5
C0B
  8
FRAME_050
 10
187.89215728752529
 20
410.58284271247459
 30
0.0
 40
4.0
  1
3
  7
ISO_PROPORTIONAL
 72
     4
 11
189.375
 21
412.5
 31
0.0
  0
LINE
  5
C0C
  8
FRAME_050
 10
297.0
 20
405.0
 30
0.0
 11
297.0
 21
415.0
 31
0.0
  0
LINE
  5
C0D
  8
FRAME_050
 10
225.25
 20
410.0
 30
0.0
 11
225.25
 21
415.0
 31
0.0
  0
TEXT
  5
C0E
  8
FRAME_050
 10
259.52499999999998
 20
410.5
 30
0.0
 40
4.0
  1
4
  7
ISO_PROPORTIONAL
 72
     4
 11
261.125
 21
412.5
 31
0.0
  0
LINE
  5
C0F
  8
FRAME_070
 10
584.0
 20
10.0
 30
0.0
 11
584.0
 21
410.0
 31
0.0
  0
ATTDEF
  5
C10
  8
FRAME_025
 10
473.0
 20
31.75
 30
0.0
 40
2.5
  1
XXX - 00/00/00
  7
ISO_PROPORTIONAL
 11
473.0
 21
33.0
 31
0.0
  3
Approved by - Date
  2
APPROVED_BY_DATE
 70
     8
 74
     2
  0
TEXT
  5
C11
  8
FRAME_025
 10
448.0
 20
41.749999999999993
 30
0.0
 40
2.5
  1
Title/Name, designation, material, dimension etc
  7
ISO_PROPORTIONAL
 11
448.0
 21
43.0
 31
0.0
 73
     2
  0
TEXT
  5
C12
  8
FRAME_025
 10
473.0
 20
35.75
 30
0.0
 40
2.5
  1
Approved by - date
  7
ISO_PROPORTIONAL
 11
473.0
 21
37.0
 31
0.0
 73
     2
  0
LINE
  5
C13
  8
FRAME_070
 10
414.0
 20
46.0
 30
0.0
 11
584.0
 21
46.0
 31
0.0
  0
LINE
  5
C14
  8
FRAME_070
 10
414.0
 20
40.0
 30
0.0
 11
584.0
 21
40.0
 31
0.0
  0
LINE
  5
C15
  8
FRAME_070
 10
414.0
 20
30.0
 30
0.0
 11
584.0
 21
30.0
 31
0.0
  0
LINE
  5
C16
  8
FRAME_050
 10
368.75
 20
5.0
 30
0.0
 11
368.75
 21
10.0
 31
0.0
  0
LINE
  5
C17
  8
FRAME_050
 10
337.0
 20
5.0
 30
0.0
 11
337.0
 21
10.0
 31
0.0
  0
LINE
  5
C18
  8
FRAME_050
 10
327.0
 20
5.0
 30
0.0
 11
327.0
 21
10.0
 31
0.0
  0
LINE
  5
C19
  8
FRAME_050
 10
317.0
 20
5.0
 30
0.0
 11
317.0
 21
10.0
 31
0.0
  0
LINE
  5
C1A
  8
FRAME_050
 10
307.0
 20
5.0
 30
0.0
 11
307.0
 21
10.0
 31
0.0
  0
LINE
  5
C1B
  8
FRAME_050
 10
347.0
 20
5.0
 30
0.0
 11
347.0
 21
10.0
 31
0.0
  0
LINE
  5
C1C
  8
FRAME_050
 10
440.5
 20
5.0
 30
0.0
 11
440.5
 21
10.0
 31
0.0
  0
TEXT
  5
C1D
  8
FRAME_050
 10
403.24547244094481
 20
5.4102362204724406
 30
0.0
 40
4.0
  1
6
  7
ISO_PROPORTIONAL
 72
     4
 11
404.62499999999989
 21
7.5
 31
0.0
  0
TEXT
  5
C1E
  8
FRAME_050
 10
474.97499999999991
 20
5.5
 30
0.0
 40
4.0
  1
7
  7
ISO_PROPORTIONAL
 72
     4
 11
476.37499999999989
 21
7.5
 31
0.0
  0
TEXT
  5
C1F
  8
FRAME_025
 10
431.0
 20
41.749999999999993
 30
0.0
 40
2.5
  1
Quantity
  7
ISO_PROPORTIONAL
 11
431.0
 21
43.0
 31
0.0
 73
     2
  0
TEXT
  5
C20
  8
FRAME_025
 10
416.0
 20
41.749999999999993
 30
0.0
 40
2.5
  1
Itemref
  7
ISO_PROPORTIONAL
 11
416.0
 21
43.0
 31
0.0
 73
     2
  0
LINE
  5
C21
  8
FRAME_070
 10
414.0
 20
40.0
 30
0.0
 11
414.0
 21
46.0
 31
0.0
  0
LINE
  5
C22
  8
FRAME_070
 10
429.0
 20
40.0
 30
0.0
 11
429.0
 21
46.0
 31
0.0
  0
LINE
  5
C23
  8
FRAME_070
 10
414.0
 20
10.0
 30
0.0
 11
414.0
 21
40.0
 31
0.0
  0
ATTDEF
  5
C24
  8
FRAME_025
 10
416.0
 20
31.75
 30
0.0
 40
2.5
  1
XXX
  7
ISO_PROPORTIONAL
 11
416.0
 21
33.0
 31
0.0
  3
Designed by
  2
DESIGNED_BY
 70
     8
 74
     2
  0
TEXT
  5
C25
  8
FRAME_025
 10
416.0
 20
35.75
 30
0.0
 40
2.5
  1
Designed by
  7
ISO_PROPORTIONAL
 11
416.0
 21
37.0
 31
0.0
 73
     2
  0
LINE
  5
C26
  8
FRAME_070
 10
446.0
 20
40.0
 30
0.0
 11
446.0
 21
46.0
 31
0.0
  0
ATTDEF
  5
C27
  8
FRAME_025
 10
448.0
 20
31.75
 30
0.0
 40
2.5
  1
XXX
  7
ISO_PROPORTIONAL
 11
448.0
 21
33.0
 31
0.0
  3
Checked by
  2
CHECKED_BY
 70
     8
 74
     2
  0
TEXT
  5
C28
  8
FRAME_025
 10
448.0
 20
35.75
 30
0.0
 40
2.5
  1
Checked by
  7
ISO_PROPORTIONAL
 11
448.0
 21
37.0
 31
0.0
 73
     2
  0
ATTDEF
  5
C29
  8
FRAME_050
 10
444.74999999999989
 20
17.5
 30
0.0
 40
5.0
  1
XXX
  7
ISO_PROPORTIONAL
 72
     4
 11
451.49999999999989
 21
20.0
 31
0.0
  3
Owner
  2
OWNER
 70
     8
  0
LINE
  5
C2A
  8
FRAME_070
 10
446.0
 20
30.0
 30
0.0
 11
446.0
 21
40.0
 31
0.0
  0
LINE
  5
C2B
  8
FRAME_070
 10
471.0
 20
30.0
 30
0.0
 11
471.0
 21
40.0
 31
0.0
  0
LINE
  5
C2C
  8
FRAME_070
 10
489.0
 20
20.0
 30
0.0
 11
584.0
 21
20.0
 31
0.0
  0
LINE
  5
C2D
  8
FRAME_050
 10
512.25
 20
5.0
 30
0.0
 11
512.25
 21
10.0
 31
0.0
  0
TEXT
  5
C2E
  8
FRAME_050
 10
546.72499999999991
 20
5.5
 30
0.0
 40
4.0
  1
8
  7
ISO_PROPORTIONAL
 72
     4
 11
548.125
 21
7.5
 31
0.0
  0
ATTDEF
  5
C2F
  8
FRAME_050
 10
517.64999999999986
 20
13.5
 30
0.0
 40
3.0
  1
X
  7
ISO_PROPORTIONAL
 72
     4
 11
519.0
 21
15.0
 31
0.0
  3
Drawing number
  2
DRAWING_NUMBER
 70
     8
  0
ATTDEF
  5
C30
  8
FRAME_050
 10
529.75
 20
22.5
 30
0.0
 40
5.0
  1
XXX
  7
ISO_PROPORTIONAL
 72
     4
 11
536.5
 21
25.0
 31
0.0
  3
Title / Name
  2
TITLE
 70
     8
  0
LINE
  5
C31
  8
FRAME_070
 10
489.0
 20
10.0
 30
0.0
 11
489.0
 21
30.0
 31
0.0
  0
ATTDEF
  5
C32
  8
FRAME_025
 10
511.0
 20
31.75
 30
0.0
 40
2.5
  1
XXX
  7
ISO_PROPORTIONAL
 11
511.0
 21
33.0
 31
0.0
  3
Filename
  2
FILENAME
 70
     8
 74
     2
  0
TEXT
  5
C33
  8
FRAME_025
 10
511.0
 20
35.75
 30
0.0
 40
2.5
  1
Filename
  7
ISO_PROPORTIONAL
 11
511.0
 21
37.0
 31
0.0
 73
     2
  0
LINE
  5
C34
  8
FRAME_070
 10
509.0
 20
30.0
 30
0.0
 11
509.0
 21
40.0
 31
0.0
  0
TEXT
  5
C35
  8
FRAME_025
 10
536.0
 20
41.749999999999993
 30
0.0
 40
2.5
  1
Article No./Reference
  7
ISO_PROPORTIONAL
 11
536.0
 21
43.0
 31
0.0
 73
     2
  0
LINE
  5
C36
  8
FRAME_070
 10
534.0
 20
40.0
 30
0.0
 11
534.0
 21
46.0
 31
0.0
  0
ATTDEF
  5
C37
  8
FRAME_025
 10
551.0
 20
11.75
 30
0.0
 40
2.5
  1
0
  7
ISO_PROPORTIONAL
 11
551.0
 21
13.0
 31
0.0
  3
Edition
  2
EDITION
 70
     8
 74
     2
  0
TEXT
  5
C38
  8
FRAME_025
 10
551.0
 20
15.75
 30
0.0
 40
2.5
  1
Edition
  7
ISO_PROPORTIONAL
 11
551.0
 21
17.0
 31
0.0
 73
     2
  0
LINE
  5
C39
  8
FRAME_070
 10
549.0
 20
10.0
 30
0.0
 11
549.0
 21
20.0
 31
0.0
  0
ATTDEF
  5
C3A
  8
FRAME_025
 10
536.0
 20
31.75
 30
0.0
 40
2.5
  1
00/00/00
  7
ISO_PROPORTIONAL
 11
536.0
 21
33.0
 31
0.0
  3
Date
  2
DATE
 70
     8
 74
     2
  0
TEXT
  5
C3B
  8
FRAME_025
 10
536.0
 20
35.75
 30
0.0
 40
2.5
  1
Date
  7
ISO_PROPORTIONAL
 11
536.0
 21
37.0
 31
0.0
 73
     2
  0
LINE
  5
C3C
  8
FRAME_070
 10
534.0
 20
30.0
 30
0.0
 11
534.0
 21
40.0
 31
0.0
  0
ATTDEF
  5
C3D
  8
FRAME_025
 10
566.0
 20
11.75
 30
0.0
 40
2.5
  1
1/1
  7
ISO_PROPORTIONAL
 11
566.0
 21
13.0
 31
0.0
  3
Sheet
  2
SHEET
 70
     8
 74
     2
  0
TEXT
  5
C3E
  8
FRAME_025
 10
566.0
 20
15.75
 30
0.0
 40
2.5
  1
Sheet
  7
ISO_PROPORTIONAL
 11
566.0
 21
17.0
 31
0.0
 73
     2
  0
LINE
  5
C3F
  8
FRAME_070
 10
564.0
 20
10.0
 30
0.0
 11
564.0
 21
20.0
 31
0.0
  0
ATTDEF
  5
C40
  8
FRAME_025
 10
566.0
 20
31.75
 30
0.0
 40
2.5
  1
1:1
  7
ISO_PROPORTIONAL
 11
566.0
 21
33.0
 31
0.0
  3
Scale
  2
SCALE
 70
     8
 74
     2
  0
TEXT
  5
C41
  8
FRAME_025
 10
566.0
 20
35.75
 30
0.0
 40
2.5
  1
Scale
  7
ISO_PROPORTIONAL
 11
566.0
 21
37.0
 31
0.0
 73
     2
  0
LINE
  5
C42
  8
FRAME_070
 10
564.0
 20
30.0
 30
0.0
 11
564.0
 21
40.0
 31
0.0
  0
LINE
  5
C43
  8
FRAME_200
 10
594.0
 20
0.0
 30
0.0
 11
594.0
 21
10.0
 31
0.0
  0
LINE
  5
C44
  8
FRAME_200
 10
594.0
 20
0.0
 30
0.0
 11
584.0
 21
0.0
 31
0.0
  0
TEXT
  5
C45
  8
FRAME_050
 10
584.89999999999998
 20
35.0
 30
0.0
 40
4.0
  1
H
  7
ISO_PROPORTIONAL
 72
     4
 11
586.5
 21
37.0
 31
0.0
  0
LINE
  5
C46
  8
FRAME_050
 10
589.0
 20
60.0
 30
0.0
 11
584.0
 21
60.0
 31
0.0
  0
TEXT
  5
C47
  8
FRAME_050
 10
585.0035533905932
 20
85.0
 30
0.0
 40
4.0
  1
G
  7
ISO_PROPORTIONAL
 72
     4
 11
586.5
 21
87.0
 31
0.0
  0
LINE
  5
C48
  8
FRAME_050
 10
589.0
 20
110.0
 30
0.0
 11
584.0
 21
110.0
 31
0.0
  0
TEXT
  5
C49
  8
FRAME_050
 10
585.09999999999991
 20
135.0
 30
0.0
 40
4.0
  1
F
  7
ISO_PROPORTIONAL
 72
     4
 11
586.5
 21
137.0
 31
0.0
  0
LINE
  5
C4A
  8
FRAME_050
 10
589.0
 20
160.0
 30
0.0
 11
584.0
 21
160.0
 31
0.0
  0
TEXT
  5
C4B
  8
FRAME_050
 10
585.09999999999991
 20
185.0
 30
0.0
 40
4.0
  1
E
  7
ISO_PROPORTIONAL
 72
     4
 11
586.5
 21
187.0
 31
0.0
  0
LINE
  5
C4C
  8
FRAME_070
 10
414.0
 20
404.0
 30
0.0
 11
584.0
 21
404.0
 31
0.0
  0
TEXT
  5
C4D
  8
FRAME_050
 10
331.39215728752538
 20
410.58284271247459
 30
0.0
 40
4.0
  1
5
  7
ISO_PROPORTIONAL
 72
     4
 11
332.875
 21
412.5
 31
0.0
  0
LINE
  5
C4E
  8
FRAME_050
 10
368.75
 20
410.0
 30
0.0
 11
368.75
 21
415.0
 31
0.0
  0
TEXT
  5
C4F
  8
FRAME_025
 10
428.0
 20
405.75
 30
0.0
 40
2.5
  1
Revision note
  7
ISO_PROPORTIONAL
 11
428.0
 21
407.0
 31
0.0
 73
     2
  0
TEXT
  5
C50
  8
FRAME_025
 10
416.0
 20
405.75
 30
0.0
 40
2.5
  1
RevNo
  7
ISO_PROPORTIONAL
 11
416.0
 21
407.0
 31
0.0
 73
     2
  0
LINE
  5
C51
  8
FRAME_070
 10
426.0
 20
404.0
 30
0.0
 11
426.0
 21
410.0
 31
0.0
  0
LINE
  5
C52
  8
FRAME_070
 10
414.0
 20
404.0
 30
0.0
 11
414.0
 21
410.0
 31
0.0
  0
TEXT
  5
C53
  8
FRAME_050
 10
403.24547244094481
 20
410.41023622047243
 30
0.0
 40
4.0
  1
6
  7
ISO_PROPORTIONAL
 72
     4
 11
404.62499999999989
 21
412.5
 31
0.0
  0
LINE
  5
C54
  8
FRAME_050
 10
440.5
 20
410.0
 30
0.0
 11
440.5
 21
415.0
 31
0.0
  0
TEXT
  5
C55
  8
FRAME_050
 10
474.97499999999991
 20
410.5
 30
0.0
 40
4.0
  1
7
  7
ISO_PROPORTIONAL
 72
     4
 11
476.37499999999989
 21
412.5
 31
0.0
  0
LINE
  5
C56
  8
FRAME_050
 10
579.0
 20
210.0
 30
0.0
 11
589.0
 21
210.0
 31
0.0
  0
TEXT
  5
C57
  8
FRAME_050
 10
584.78609127034736
 20
235.0
 30
0.0
 40
4.0
  1
D
  7
ISO_PROPORTIONAL
 72
     4
 11
586.5
 21
237.0
 31
0.0
  0
LINE
  5
C58
  8
FRAME_050
 10
589.0
 20
260.0
 30
0.0
 11
584.0
 21
260.0
 31
0.0
  0
TEXT
  5
C59
  8
FRAME_050
 10
585.19319805153395
 20
285.0
 30
0.0
 40
4.0
  1
C
  7
ISO_PROPORTIONAL
 72
     4
 11
586.5
 21
287.0
 31
0.0
  0
LINE
  5
C5A
  8
FRAME_050
 10
589.0
 20
310.0
 30
0.0
 11
584.0
 21
310.0
 31
0.0
  0
TEXT
  5
C5B
  8
FRAME_050
 10
584.89999999999998
 20
335.0
 30
0.0
 40
4.0
  1
B
  7
ISO_PROPORTIONAL
 72
     4
 11
586.5
 21
337.0
 31
0.0
  0
TEXT
  5
C5C
  8
FRAME_025
 10
571.08299391850551
 20
405.75
 30
0.0
 40
2.5
  1
Checked
  7
ISO_PROPORTIONAL
 11
571.08299391850551
 21
407.0
 31
0.0
 73
     2
  0
TEXT
  5
C5D
  8
FRAME_025
 10
555.36099797283521
 20
405.75
 30
0.0
 40
2.5
  1
Signature
  7
ISO_PROPORTIONAL
 11
555.36099797283521
 21
407.0
 31
0.0
 73
     2
  0
TEXT
  5
C5E
  8
FRAME_025
 10
537.0
 20
405.75
 30
0.0
 40
2.5
  1
Date
  7
ISO_PROPORTIONAL
 11
537.0
 21
407.0
 31
0.0
 73
     2
  0
LINE
  5
C5F
  8
FRAME_070
 10
570.0
 20
404.0
 30
0.0
 11
570.0
 21
410.0
 31
0.0
  0
LINE
  5
C60
  8
FRAME_070
 10
555.0
 20
404.0
 30
0.0
 11
555.0
 21
410.0
 31
0.0
  0
LINE
  5
C61
  8
FRAME_070
 10
535.0
 20
404.0
 30
0.0
 11
535.0
 21
410.0
 31
0.0
  0
LINE
  5
C62
  8
FRAME_050
 10
512.25
 20
410.0
 30
0.0
 11
512.25
 21
415.0
 31
0.0
  0
TEXT
  5
C63
  8
FRAME_050
 10
546.72499999999991
 20
410.5
 30
0.0
 40
4.0
  1
8
  7
ISO_PROPORTIONAL
 72
     4
 11
548.125
 21
412.5
 31
0.0
  0
LINE
  5
C64
  8
FRAME_050
 10
589.0
 20
360.0
 30
0.0
 11
584.0
 21
360.0
 31
0.0
  0
TEXT
  5
C65
  8
FRAME_050
 10
584.70000000000005
 20
385.0
 30
0.0
 40
4.0
  1
A
  7
ISO_PROPORTIONAL
 72
     4
 11
586.5
 21
387.0
 31
0.0
  0
LINE
  5
C66
  8
FRAME_200
 10
594.0
 20
420.0
 30
0.0
 11
584.0
 21
420.0
 31
0.0
  0
LINE
  5
C67
  8
FRAME_200
 10
594.0
 20
410.0
 30
0.0
 11
594.0
 21
420.0
 31
0.0
  0
ENDBLK
  5
C69
  8
0
  0
BLOCK
  8
0
  2
WOBB001END
 70
     0
 10
0.0
 20
0.0
 30
0.0
  3
WOBB001END
  1

  0
LINE
  5
4D66
  8
0
  6
CONTINUOUS
 10
0.0
 20
0.0
 30
0.0
 11
0.8749999999999998
 21
0.0
 31
0.0
  0
ARC
  5
4D67
  8
0
  6
CONTINUOUS
 10
0.0331648379439287
 20
-0.5087238935900234
 30
0.0
 40
0.8790130605592325
 50
284.06490243660443
 51
312.19222981924361
  0
ARC
  5
4D68
  8
0
  6
CONTINUOUS
 10
0.2841534338796767
 20
-1.510548310625538
 30
0.0
 40
0.1537731892806598
 50
104.0649024366044
 51
179.4721730735024
  0
LINE
  5
4D69
  8
0
  6
CONTINUOUS
 10
0.0
 20
0.0
 30
0.0
 11
-0.0000000000000003
 21
-1.7501564476661911
 31
0.0
  0
ARC
  5
4D6A
  8
0
  6
CONTINUOUS
 10
0.1404622019506122
 20
-1.630313718354619
 30
0.0
 40
0.1198427293115722
 50
275.0
 51
85.000000000000057
  0
LINE
  5
4D6B
  8
0
  6
CONTINUOUS
 10
-0.0000000000000003
 20
-1.7501564476661911
 30
0.0
 11
0.1456946485130855
 21
-1.7501564476661911
 31
0.0
  0
LINE
  5
4D6C
  8
0
  6
CONTINUOUS
 10
0.1377603739254348
 20
-1.7508506067459131
 30
0.0
 11
0.150907184036669
 21
-1.7497004098996509
 31
0.0
  0
LINE
  5
4D6D
  8
0
  6
CONTINUOUS
 10
0.1303867696719884
 20
-1.5091317231818231
 30
0.0
 11
0.1509071840366689
 21
-1.510927026809586
 31
0.0
  0
LINE
  5
4D6E
  8
0
  6
CONTINUOUS
 10
0.8749999999999998
 20
0.0
 30
0.0
 11
0.8749999999999996
 21
-0.8649327026588228
 31
0.0
  0
LINE
  5
4D6F
  8
0
  6
CONTINUOUS
 10
0.727014513830997
 20
-0.872688293355061
 30
0.0
 11
0.727014513830997
 21
-0.9264923397184784
 31
0.0
  0
ARC
  5
4D70
  8
0
  6
CONTINUOUS
 10
0.41187090827646
 20
-0.9264923397184784
 30
0.0
 40
0.3151436055545369
 50
312.19222981924361
 51
0.0
  0
LINE
  5
4D71
  8
0
  6
CONTINUOUS
 10
0.727014513830997
 20
-0.872688293355061
 30
0.0
 11
0.8749999999999996
 21
-0.8649327026588228
 31
0.0
  0
ENDBLK
  5
4D72
  8
0
  0
BLOCK
  8
0
  2
A$C0A61123B
 70
     0
 10
0.0
 20
0.0
 30
0.0
  3
A$C0A61123B
  1

  0
LINE
  5
C0AD
  8
PROF
  6
CONTINUOUS
 10
4.9012016798694162
 20
13.325025853350891
 30
0.0000000000000002
 11
4.9012016798694162
 21
12.88585218805485
 31
0.0000000000000003
  0
INSERT
  5
C0AE
  8
0
  2
*U7
 10
0.0
 20
0.0
 30
0.0
  0
LINE
  5
C0AF
  8
PROF
 10
4.519857503186925
 20
12.72227734589444
 30
0.0000000000000001
 11
4.519857503186925
 21
12.88585218805485
 31
0.0000000000000001
  0
LINE
  5
C0B0
  8
PROF
  6
CONTINUOUS
 10
3.6306271195888362
 20
13.325025853350891
 30
0.0000000000000002
 11
4.9012016798694162
 21
13.325025853350891
 31
0.0000000000000002
  0
LINE
  5
C0B1
  8
PROF
 10
1.9750295148747341
 20
10.37671325491794
 30
0.0000000000000002
 11
1.9750295148747341
 21
10.11391186758919
 31
0.0000000000000002
  0
LINE
  5
C0B2
  8
PROF
 10
1.6079673357556299
 20
10.11391186758919
 30
0.0000000000000001
 11
1.9750295148747341
 21
10.11391186758919
 31
0.0000000000000001
  0
LINE
  5
C0B3
  8
PROF
 10
1.9750295148747341
 20
10.11391186758919
 30
0.0000000000000001
 11
1.944958486898144
 21
10.11391186758919
 31
0.0000000000000001
  0
LINE
  5
C0B4
  8
PROF
 10
1.9750295148747341
 20
10.11391186758919
 30
0.0000000000000001
 11
1.944958486898144
 21
10.11391186758919
 31
0.0000000000000001
  0
LINE
  5
C0B5
  8
PROF
 10
0.3222605517169654
 20
7.5247473351056451
 30
-0.0000000000000002
 11
-0.0000008570117416
 21
7.5247473351056451
 31
0.0
  0
LINE
  5
C0B6
  8
PROF
 10
-0.0000008570117416
 20
7.5247473351056451
 30
0.0
 11
-0.0000008570117416
 21
9.1943336957369848
 31
0.0
  0
POLYLINE
  5
C0B7
  8
PROF
 66
     1
 10
0.0
 20
0.0
 30
0.0000000000000001
 70
     4
 75
     6
  0
VERTEX
  5
C0B8
  8
PROF
 10
1.6079673357556299
 20
10.11391186758919
 30
0.0000000000000001
 70
    16
  0
VERTEX
  5
C0B9
  8
PROF
 10
1.6079673357556299
 20
10.11391186758919
 30
0.0000000000000001
 70
     8
  0
VERTEX
  5
C0BA
  8
PROF
 10
1.6468132326485809
 20
10.02198069336111
 30
0.0000000000000001
 70
     8
  0
VERTEX
  5
C0BB
  8
PROF
 10
1.67335966680929
 20
9.9344134163010231
 30
0.0000000000000001
 70
     8
  0
VERTEX
  5
C0BC
  8
PROF
 10
1.6890086400463229
 20
9.8512576644480951
 30
0.0000000000000001
 70
     8
  0
VERTEX
  5
C0BD
  8
PROF
 10
1.6951621541682571
 20
9.7725610658417281
 30
0.0000000000000001
 70
     8
  0
VERTEX
  5
C0BE
  8
PROF
 10
1.693222210983605
 20
9.6983712485214237
 30
0.0000000000000001
 70
     8
  0
VERTEX
  5
C0BF
  8
PROF
 10
1.6845908123009961
 20
9.6287358405263603
 30
0.0000000000000001
 70
     8
  0
VERTEX
  5
C0C0
  8
PROF
 10
1.670669959928885
 20
9.5637024698960431
 30
0.0000000000000001
 70
     8
  0
VERTEX
  5
C0C1
  8
PROF
 10
1.6528616556759621
 20
9.5033187646697552
 30
0.0000000000000001
 70
     8
  0
VERTEX
  5
C0C2
  8
PROF
 10
1.632356299273054
 20
9.4475843259650691
 30
0.0000000000000001
 70
     8
  0
VERTEX
  5
C0C3
  8
PROF
 10
1.609497882140658
 20
9.3963066472123273
 30
0.0000000000000001
 70
     8
  0
VERTEX
  5
C0C4
  8
PROF
 10
1.584418793621637
 20
9.3492451949202842
 30
0.0000000000000001
 70
     8
  0
VERTEX
  5
C0C5
  8
PROF
 10
1.5572514230587431
 20
9.3061594355972357
 30
0.0000000000000001
 70
     8
  0
VERTEX
  5
C0C6
  8
PROF
 10
1.5281281597949601
 20
9.2668088357519274
 30
0.0000000000000001
 70
     8
  0
VERTEX
  5
C0C7
  8
PROF
 10
1.497181393172978
 20
9.2309528618929981
 30
0.0000000000000001
 70
     8
  0
VERTEX
  5
C0C8
  8
PROF
 10
1.4645435125357249
 20
9.1983509805288541
 30
0.0000000000000001
 70
     8
  0
VERTEX
  5
C0C9
  8
PROF
 10
1.4303469072260091
 20
9.1687626581682462
 30
0.0000000000000001
 70
     8
  0
VERTEX
  5
C0CA
  8
PROF
 10
1.394736033257401
 20
9.1419547918675335
 30
0.0000000000000001
 70
     8
  0
VERTEX
  5
C0CB
  8
PROF
 10
1.3579036133264131
 20
9.1177240008747713
 30
0.0000000000000001
 70
     8
  0
VERTEX
  5
C0CC
  8
PROF
 10
1.3200544368004321
 20
9.0958743349860924
 30
0.0000000000000001
 70
     8
  0
VERTEX
  5
C0CD
  8
PROF
 10
1.281393293046676
 20
9.0762098439975034
 30
0.0000000000000001
 70
     8
  0
VERTEX
  5
C0CE
  8
PROF
 10
1.2421249714324161
 20
9.0585345777049042
 30
0.0000000000000001
 70
     8
  0
VERTEX
  5
C0CF
  8
PROF
 10
1.202454261324986
 20
9.0426525859044187
 30
0.0000000000000001
 70
     8
  0
VERTEX
  5
C0D0
  8
PROF
 10
1.162585952091659
 20
9.0283679183919503
 30
0.0000000000000001
 70
     8
  0
VERTEX
  5
C0D1
  8
PROF
 10
1.1227248330997091
 20
9.0154846249635021
 30
0.0000000000000001
 70
     8
  0
VERTEX
  5
C0D2
  8
PROF
 10
1.0829726247361
 20
9.0034643862466055
 30
0.0000000000000001
 70
     8
  0
VERTEX
  5
C0D3
  8
PROF
 10
1.043018771466222
 20
8.9903994061946833
 30
0.0000000000000001
 70
     8
  0
VERTEX
  5
C0D4
  8
PROF
 10
1.002449648775211
 20
8.9740395195925622
 30
0.0000000000000001
 70
     8
  0
VERTEX
  5
C0D5
  8
PROF
 10
0.9608516321480919
 20
8.9521345612251935
 30
0.0000000000000001
 70
     8
  0
VERTEX
  5
C0D6
  8
PROF
 10
0.9178110970699435
 20
8.9224343658775052
 30
0.0000000000000001
 70
     8
  0
VERTEX
  5
C0D7
  8
PROF
 10
0.8729144190259033
 20
8.8826887683343312
 30
0.0000000000000001
 70
     8
  0
VERTEX
  5
C0D8
  8
PROF
 10
0.8257479735009949
 20
8.8306476033806121
 30
0.0000000000000001
 70
     8
  0
VERTEX
  5
C0D9
  8
PROF
 10
0.7758981359802988
 20
8.764060705801171
 30
0.0000000000000001
 70
     8
  0
VERTEX
  5
C0DA
  8
PROF
 10
1.7292019016096549
 20
9.8629858761255491
 30
0.0000000000000001
 70
    16
  0
VERTEX
  5
C0DB
  8
PROF
 10
1.679373123114088
 20
9.4532143012734213
 30
0.0000000000000001
 70
    16
  0
VERTEX
  5
C0DC
  8
PROF
 10
1.4455611507419801
 20
9.1391837193732481
 30
0.0000000000000001
 70
    16
  0
VERTEX
  5
C0DD
  8
PROF
 10
1.1204637172738201
 20
9.0026267702428413
 30
0.0000000000000001
 70
    16
  0
VERTEX
  5
C0DE
  8
PROF
 10
0.9127765582653638
 20
8.9630202230383702
 30
0.0000000000000001
 70
    16
  0
VERTEX
  5
C0DF
  8
PROF
 10
0.7758981359802988
 20
8.764060705801171
 30
0.0000000000000001
 70
    16
  0
SEQEND
  5
C0E0
  8
PROF
  0
ARC
  5
C0E1
  8
PROF
 10
0.733429816733235
 20
8.4849506952165257
 30
0.0000000000000001
 40
0.2823224329524727
 50
269.73652020831901
 51
81.348449993176914
  0
LINE
  5
C0E2
  8
PROF
  6
CONTINUOUS
 10
-0.0000008570117416
 20
9.1943336957369848
 30
-0.0000000000000001
 11
3.6306271195888362
 21
13.325025853350891
 31
0.0000000000000002
  0
POLYLINE
  5
C0E3
  8
PROF
 66
     1
 10
0.0
 20
0.0
 30
0.0000000000000001
 70
     4
 75
     6
  0
VERTEX
  5
C0E4
  8
PROF
 10
4.519857503186925
 20
12.72227734589444
 30
0.0000000000000001
 70
    16
  0
VERTEX
  5
C0E5
  8
PROF
 10
4.519857503186925
 20
12.72227734589444
 30
0.0000000000000001
 70
     8
  0
VERTEX
  5
C0E6
  8
PROF
 10
4.4467035366886289
 20
12.741128108778071
 30
0.0000000000000001
 70
     8
  0
VERTEX
  5
C0E7
  8
PROF
 10
4.3786645761268801
 20
12.754675269913941
 30
0.0000000000000001
 70
     8
  0
VERTEX
  5
C0E8
  8
PROF
 10
4.3154364111440469
 20
12.76334314092332
 30
0.0000000000000001
 70
     8
  0
VERTEX
  5
C0E9
  8
PROF
 10
4.256714831382566
 20
12.76755603342724
 30
0.0000000000000001
 70
     8
  0
VERTEX
  5
C0EA
  8
PROF
 10
4.2021956264849791
 20
12.76773825904672
 30
0.0000000000000001
 70
     8
  0
VERTEX
  5
C0EB
  8
PROF
 10
4.1515745860935436
 20
12.764314129403139
 30
0.0000000000000001
 70
     8
  0
VERTEX
  5
C0EC
  8
PROF
 10
4.1045474998508649
 20
12.75770795611743
 30
0.0000000000000001
 70
     8
  0
VERTEX
  5
C0ED
  8
PROF
 10
4.0608101573993149
 20
12.748344050810831
 30
0.0000000000000001
 70
     8
  0
VERTEX
  5
C0EE
  8
PROF
 10
4.0200583483813261
 20
12.736646725104491
 30
0.0000000000000001
 70
     8
  0
VERTEX
  5
C0EF
  8
PROF
 10
3.981987862439381
 20
12.72304029061945
 30
0.0000000000000001
 70
     8
  0
VERTEX
  5
C0F0
  8
PROF
 10
3.946294489215858
 20
12.707949058976959
 30
0.0000000000000001
 70
     8
  0
VERTEX
  5
C0F1
  8
PROF
 10
3.912674018353242
 20
12.691797341798059
 30
0.0000000000000001
 70
     8
  0
VERTEX
  5
C0F2
  8
PROF
 10
3.8808638350742499
 20
12.67494295718654
 30
0.0000000000000001
 70
     8
  0
VERTEX
  5
C0F3
  8
PROF
 10
3.850767706922738
 20
12.65747774917668
 30
0.0000000000000001
 70
     8
  0
VERTEX
  5
C0F4
  8
PROF
 10
3.8223309970228438
 20
12.639427068285499
 30
0.0000000000000001
 70
     8
  0
VERTEX
  5
C0F5
  8
PROF
 10
3.795499068498712
 20
12.62081626503004
 30
0.0000000000000001
 70
     8
  0
VERTEX
  5
C0F6
  8
PROF
 10
3.7702172844744819
 20
12.601670689926999
 30
0.0000000000000001
 70
     8
  0
VERTEX
  5
C0F7
  8
PROF
 10
3.7464310080743521
 20
12.58201569349364
 30
0.0000000000000001
 70
     8
  0
VERTEX
  5
C0F8
  8
PROF
 10
3.7240856024224609
 20
12.56187662624666
 30
0.0000000000000001
 70
     8
  0
VERTEX
  5
C0F9
  8
PROF
 10
3.7031264306428961
 20
12.541278838703191
 30
0.0000000000000001
 70
     8
  0
VERTEX
  5
C0FA
  8
PROF
 10
3.683498855859908
 20
12.520247681380051
 30
0.0000000000000001
 70
     8
  0
VERTEX
  5
C0FB
  8
PROF
 10
3.665148241197528
 20
12.49880850479428
 30
0.0000000000000001
 70
     8
  0
VERTEX
  5
C0FC
  8
PROF
 10
3.648019949779949
 20
12.47698665946279
 30
0.0000000000000001
 70
     8
  0
VERTEX
  5
C0FD
  8
PROF
 10
3.6320593447313159
 20
12.45480749590263
 30
0.0000000000000001
 70
     8
  0
VERTEX
  5
C0FE
  8
PROF
 10
3.617189584886658
 20
12.43223790353807
 30
0.0000000000000001
 70
     8
  0
VERTEX
  5
C0FF
  8
PROF
 10
3.6032450119242849
 20
12.40901092742285
 30
0.0000000000000001
 70
     8
  0
VERTEX
  5
C100
  8
PROF
 10
3.590037763233453
 20
12.38480115151844
 30
0.0000000000000001
 70
     8
  0
VERTEX
  5
C101
  8
PROF
 10
3.5773799762033032
 20
12.35928315978594
 30
0.0000000000000001
 70
     8
  0
VERTEX
  5
C102
  8
PROF
 10
3.5650837882230899
 20
12.33213153618658
 30
0.0000000000000001
 70
     8
  0
VERTEX
  5
C103
  8
PROF
 10
3.552961336681959
 20
12.303020864681571
 30
0.0000000000000001
 70
     8
  0
VERTEX
  5
C104
  8
PROF
 10
3.540824758969165
 20
12.271625729232371
 30
0.0000000000000001
 70
     8
  0
VERTEX
  5
C105
  8
PROF
 10
3.528486192473848
 20
12.23762071379997
 30
0.0000000000000001
 70
     8
  0
VERTEX
  5
C106
  8
PROF
 10
3.5157577745852659
 20
12.200680402345711
 30
0.0000000000000001
 70
     8
  0
VERTEX
  5
C107
  8
PROF
 10
3.502451642692618
 20
12.16047937883093
 30
0.0000000000000001
 70
     8
  0
VERTEX
  5
C108
  8
PROF
 10
3.4883799341851041
 20
12.116692227216619
 30
0.0000000000000001
 70
     8
  0
VERTEX
  5
C109
  8
PROF
 10
3.4733547864519201
 20
12.06899353146423
 30
0.0000000000000001
 70
     8
  0
VERTEX
  5
C10A
  8
PROF
 10
3.45723654619428
 20
12.0172095445447
 30
0.0000000000000001
 70
     8
  0
VERTEX
  5
C10B
  8
PROF
 10
3.440078397361388
 20
11.961773195467799
 30
0.0000000000000001
 70
     8
  0
VERTEX
  5
C10C
  8
PROF
 10
3.4219817332145781
 20
11.90326908225302
 30
0.0000000000000001
 70
     8
  0
VERTEX
  5
C10D
  8
PROF
 10
3.4030479470150099
 20
11.842281802919951
 30
0.0000000000000001
 70
     8
  0
VERTEX
  5
C10E
  8
PROF
 10
3.383378432024017
 20
11.779395955487979
 30
0.0000000000000001
 70
     8
  0
VERTEX
  5
C10F
  8
PROF
 10
3.36307458150287
 20
11.7151961379768
 30
0.0000000000000001
 70
     8
  0
VERTEX
  5
C110
  8
PROF
 10
3.342237788712735
 20
11.650266948405831
 30
0.0000000000000001
 70
     8
  0
VERTEX
  5
C111
  8
PROF
 10
3.3209694469149991
 20
11.58519298479461
 30
0.0000000000000001
 70
     8
  0
VERTEX
  5
C112
  8
PROF
 10
3.299370949370767
 20
11.52055884516254
 30
0.0000000000000001
 70
     8
  0
VERTEX
  5
C113
  8
PROF
 10
3.277543689341428
 20
11.456949127529461
 30
0.0000000000000001
 70
     8
  0
VERTEX
  5
C114
  8
PROF
 10
3.2555890600881399
 20
11.3949484299145
 30
0.0000000000000001
 70
     8
  0
VERTEX
  5
C115
  8
PROF
 10
3.2336084548721811
 20
11.335141350337491
 30
0.0000000000000001
 70
     8
  0
VERTEX
  5
C116
  8
PROF
 10
3.2116715641212181
 20
11.277995447977769
 30
0.0000000000000001
 70
     8
  0
VERTEX
  5
C117
  8
PROF
 10
3.1897212669278461
 20
11.22351012665467
 30
0.0000000000000001
 70
     8
  0
VERTEX
  5
C118
  8
PROF
 10
3.1676687395512881
 20
11.17156775134765
 30
0.0000000000000001
 70
     8
  0
VERTEX
  5
C119
  8
PROF
 10
3.1454251582505321
 20
11.12205068703588
 30
0.0000000000000001
 70
     8
  0
VERTEX
  5
C11A
  8
PROF
 10
3.122901699284625
 20
11.07484129869874
 30
0.0000000000000001
 70
     8
  0
VERTEX
  5
C11B
  8
PROF
 10
3.1000095389127278
 20
11.02982195131551
 30
0.0000000000000001
 70
     8
  0
VERTEX
  5
C11C
  8
PROF
 10
3.07665985339389
 20
10.986875009865679
 30
0.0000000000000001
 70
     8
  0
VERTEX
  5
C11D
  8
PROF
 10
3.0527638189871591
 20
10.9458828393283
 30
0.0000000000000001
 70
     8
  0
VERTEX
  5
C11E
  8
PROF
 10
3.0282326119516361
 20
10.90672780468298
 30
0.0000000000000001
 70
     8
  0
VERTEX
  5
C11F
  8
PROF
 10
3.0029774085463701
 20
10.869292270908771
 30
0.0000000000000001
 70
     8
  0
VERTEX
  5
C120
  8
PROF
 10
2.9769093850304089
 20
10.833458602985161
 30
0.0000000000000001
 70
     8
  0
VERTEX
  5
C121
  8
PROF
 10
2.9499397176628559
 20
10.799109165891419
 30
0.0000000000000001
 70
     8
  0
VERTEX
  5
C122
  8
PROF
 10
2.922000609840437
 20
10.76614363969508
 30
0.0000000000000001
 70
     8
  0
VERTEX
  5
C123
  8
PROF
 10
2.8931083735102998
 20
10.7345309648158
 30
0.0000000000000001
 70
     8
  0
VERTEX
  5
C124
  8
PROF
 10
2.8633003477572729
 20
10.70425739676193
 30
0.0000000000000001
 70
     8
  0
VERTEX
  5
C125
  8
PROF
 10
2.8326138716660689
 20
10.67530919104115
 30
0.0000000000000001
 70
     8
  0
VERTEX
  5
C126
  8
PROF
 10
2.801086284321626
 20
10.647672603161711
 30
0.0000000000000001
 70
     8
  0
VERTEX
  5
C127
  8
PROF
 10
2.7687549248087162
 20
10.62133388863162
 30
0.0000000000000001
 70
     8
  0
VERTEX
  5
C128
  8
PROF
 10
2.7356571322120531
 20
10.5962793029588
 30
0.0000000000000001
 70
     8
  0
VERTEX
  5
C129
  8
PROF
 10
2.7018302456165202
 20
10.572495101651381
 30
0.0000000000000001
 70
     8
  0
VERTEX
  5
C12A
  8
PROF
 10
2.6673116041068838
 20
10.54996754021726
 30
0.0000000000000001
 70
     8
  0
VERTEX
  5
C12B
  8
PROF
 10
2.6321385467680321
 20
10.528682874164581
 30
0.0000000000000001
 70
     8
  0
VERTEX
  5
C12C
  8
PROF
 10
2.5963484126846179
 20
10.508627359001251
 30
0.0000000000000001
 70
     8
  0
VERTEX
  5
C12D
  8
PROF
 10
2.5599785409415841
 20
10.489787250235279
 30
0.0000000000000001
 70
     8
  0
VERTEX
  5
C12E
  8
PROF
 10
2.522998630314361
 20
10.472162234281081
 30
0.0000000000000001
 70
     8
  0
VERTEX
  5
C12F
  8
PROF
 10
2.4851078183409072
 20
10.455805721177621
 30
0.0000000000000001
 70
     8
  0
VERTEX
  5
C130
  8
PROF
 10
2.4459376022498982
 20
10.44078455187036
 30
0.0000000000000001
 70
     8
  0
VERTEX
  5
C131
  8
PROF
 10
2.4051194792701249
 20
10.42716556730465
 30
0.0000000000000001
 70
     8
  0
VERTEX
  5
C132
  8
PROF
 10
2.3622849466301541
 20
10.415015608425851
 30
0.0000000000000001
 70
     8
  0
VERTEX
  5
C133
  8
PROF
 10
2.317065501558714
 20
10.40440151617929
 30
0.0000000000000001
 70
     8
  0
VERTEX
  5
C134
  8
PROF
 10
2.2690926412844301
 20
10.395390131510339
 30
0.0000000000000001
 70
     8
  0
VERTEX
  5
C135
  8
PROF
 10
2.2179978630360879
 20
10.388048295364451
 30
0.0000000000000001
 70
     8
  0
VERTEX
  5
C136
  8
PROF
 10
2.1634126640422551
 20
10.38244284868688
 30
0.0000000000000001
 70
     8
  0
VERTEX
  5
C137
  8
PROF
 10
2.1049685415316031
 20
10.37864063242295
 30
0.0000000000000001
 70
     8
  0
VERTEX
  5
C138
  8
PROF
 10
2.0422969927328709
 20
10.37670848751816
 30
0.0000000000000001
 70
     8
  0
VERTEX
  5
C139
  8
PROF
 10
1.9750295148747341
 20
10.37671325491794
 30
0.0000000000000001
 70
     8
  0
VERTEX
  5
C13A
  8
PROF
 10
4.2166060115107484
 20
12.80885334975255
 30
0.0000000000000001
 70
    16
  0
VERTEX
  5
C13B
  8
PROF
 10
3.8702254102732909
 20
12.707065515763929
 30
0.0000000000000001
 70
    16
  0
VERTEX
  5
C13C
  8
PROF
 10
3.605346156896871
 20
12.46277472098552
 30
0.0000000000000001
 70
    16
  0
VERTEX
  5
C13D
  8
PROF
 10
3.500746030527238
 20
12.170680575709749
 30
0.0000000000000001
 70
    16
  0
VERTEX
  5
C13E
  8
PROF
 10
3.231798439705698
 20
11.26846416496107
 30
0.0000000000000001
 70
    16
  0
VERTEX
  5
C13F
  8
PROF
 10
2.9737109398832882
 20
10.76631086647069
 30
0.0000000000000001
 70
    16
  0
VERTEX
  5
C140
  8
PROF
 10
2.5729961067384002
 20
10.460947364504699
 30
0.0000000000000001
 70
    16
  0
VERTEX
  5
C141
  8
PROF
 10
2.2537826214546031
 20
10.372731239449759
 30
0.0000000000000001
 70
    16
  0
VERTEX
  5
C142
  8
PROF
 10
1.9750295148747341
 20
10.37671325491794
 30
0.0000000000000001
 70
    16
  0
SEQEND
  5
C143
  8
PROF
  0
LINE
  5
C144
  8
PROF
 10
4.9012016798694162
 20
12.88585218805485
 30
0.0000000000000003
 11
4.519857503186925
 21
12.88585218805485
 31
0.0000000000000003
  0
LINE
  5
C145
  8
PROF
 10
0.7321315362267457
 20
8.2026312473991556
 30
0.0000000000000006
 11
0.7321315362267457
 21
8.0511853963434952
 31
0.0000000000000006
  0
ARC
  5
C146
  8
PROF
 10
0.7977322214551919
 20
7.577333933202679
 30
0.0000000000000006
 40
0.4783708383912013
 50
97.882010168942557
 51
186.31119505698641
  0
LINE
  5
C147
  8
FRAME_050
 10
7.8016377197432121
 20
17.99371054969447
 30
0.0
 11
7.8016377197432121
 21
0.0000000000002274
 31
0.0
  0
ENDBLK
  5
C149
  8
0
  0
BLOCK
  8
0
  2
*U7
 70
     1
 10
0.0
 20
0.0
 30
0.0
  3
*U7
  1

  0
TEXT
  5
C8C3
  8
0
 10
3.5177832928899071
 20
10.38601584255777
 30
0.0
 40
0.125
  1
Crown Moulding
  0
TEXT
  5
C8C4
  8
0
 10
3.5223876585106431
 20
10.17717091304435
 30
0.0
 40
0.125
  1
TL-AB509
  0
TEXT
  5
C8C5
  8
0
 10
3.5074661032582561
 20
9.9667059289606801
 30
0.0
 40
0.125
  1
1-5/16" x 7-9/16"
  0
TEXT
  5
C8C6
  8
0
 10
3.519403347460166
 20
9.7562409448770051
 30
0.0
 40
0.125
  1
800.66.TAGUE
  0
ENDBLK
  5
C8C8
  8
0
  0
BLOCK
  8
0
  2
*U8
 70
     1
 10
0.0
 20
0.0
 30
0.0
  3
*U8
  1

  0
TEXT
  5
C8CA
  8
0
 10
5.3066868277875692
 20
1.767659498411035
 30
0.0
 40
0.125
  1
Back Band
  0
TEXT
  5
C8CB
  8
0
 10
5.3153839628489603
 20
1.55881456889762
 30
0.0
 40
0.125
  1
TL-1
  0
TEXT
  5
C8CC
  8
0
 10
5.3004624075965721
 20
1.3483495848139451
 30
0.0
 40
0.125
  1
1-3/8" x 1-9/16"
  0
TEXT
  5
C8CD
  8
0
 10
5.3123996517984811
 20
1.1378846007302701
 30
0.0
 40
0.125
  1
800.66.TAGUE
  0
ENDBLK
  5
C8CF
  8
0
  0
BLOCK
  8
0
  2
*U9
 70
     1
 10
0.0
 20
0.0
 30
0.0
  3
*U9
  1

  0
TEXT
  5
C8D1
  8
0
 10
-385.7580743253551
 20
838.2627455404056
 30
0.0
 40
0.125
  1
Back Band
  0
TEXT
  5
C8D2
  8
0
 10
-385.74937719029373
 20
838.05390061089247
 30
0.0
 40
0.125
  1
TL-1
  0
TEXT
  5
C8D3
  8
0
 10
-385.76429874554611
 20
837.84343562680851
 30
0.0
 40
0.125
  1
1-3/8" x 1-9/16"
  0
TEXT
  5
C8D4
  8
0
 10
-385.75236150134418
 20
837.63297064272513
 30
0.0
 40
0.125
  1
800.66.TAGUE
  0
ENDBLK
  5
C8D6
  8
0
  0
BLOCK
  8
0
  2
*D21
 70
     1
 10
0.0
 20
0.0
 30
0.0
  3
*D21
  1

  0
LINE
  5
CDAB
  8
0
 62
     0
 10
-346.64573732984462
 20
509.42191863586828
 30
0.0
 11
-346.03266106471222
 21
509.42191863586828
 31
0.0
  0
LINE
  5
CDAC
  8
0
 62
     0
 10
-347.59461414974379
 20
507.61166709199199
 30
0.0
 11
-346.03266106471222
 21
507.61166709199199
 31
0.0
  0
LINE
  5
CDAD
  8
0
 62
     0
 10
-346.09516106471222
 20
509.42191863586828
 30
0.0
 11
-346.09516106471222
 21
507.61166709199199
 31
0.0
  0
INSERT
  5
CDAE
  8
0
 62
     0
  2
_ARCHTICK
 10
-346.09516106471222
 20
509.42191863586828
 30
0.0
 41
0.046875
 42
0.046875
 43
0.046875
 50
90.0
  0
INSERT
  5
CDAF
  8
0
 62
     0
  2
_ARCHTICK
 10
-346.09516106471222
 20
507.61166709199199
 30
0.0
 41
0.046875
 42
0.046875
 43
0.046875
 50
270.0
  0
INSERT
  5
CDB0
  8
0
  2
*U61
 10
0.0
 20
0.0
 30
0.0
  0
POINT
  5
CDB1
  8
DEFPOINTS
 62
     0
 10
-346.73948732984462
 20
509.42191863586828
 30
0.0
  0
POINT
  5
CDB2
  8
DEFPOINTS
 62
     0
 10
-347.68836414974379
 20
507.61166709199199
 30
0.0
  0
POINT
  5
CDB3
  8
DEFPOINTS
 62
     0
 10
-346.09516106471222
 20
507.61166709199199
 30
0.0
  0
ENDBLK
  5
CDB4
  8
0
  0
BLOCK
  8
0
  2
*D23
 70
     1
 10
0.0
 20
0.0
 30
0.0
  3
*D23
  1

  0
LINE
  5
CDEB
  8
0
 62
     0
 10
-387.02714157709249
 20
839.57969957928674
 30
0.0
 11
-386.41406531196009
 21
839.57969957928674
 31
0.0
  0
LINE
  5
CDEC
  8
0
 62
     0
 10
-387.97601839699172
 20
837.76944803541039
 30
0.0
 11
-386.41406531196009
 21
837.76944803541039
 31
0.0
  0
LINE
  5
CDED
  8
0
 62
     0
 10
-386.47656531196009
 20
839.57969957928674
 30
0.0
 11
-386.47656531196009
 21
837.76944803541039
 31
0.0
  0
INSERT
  5
CDEE
  8
0
 62
     0
  2
_ARCHTICK
 10
-386.47656531196009
 20
839.57969957928674
 30
0.0
 41
0.046875
 42
0.046875
 43
0.046875
 50
90.0
  0
INSERT
  5
CDEF
  8
0
 62
     0
  2
_ARCHTICK
 10
-386.47656531196009
 20
837.76944803541039
 30
0.0
 41
0.046875
 42
0.046875
 43
0.046875
 50
270.0
  0
INSERT
  5
CDF0
  8
0
  2
*U63
 10
0.0
 20
0.0
 30
0.0
  0
POINT
  5
CDF1
  8
DEFPOINTS
 62
     0
 10
-387.12089157709249
 20
839.57969957928674
 30
0.0
  0
POINT
  5
CDF2
  8
DEFPOINTS
 62
     0
 10
-388.06976839699172
 20
837.76944803541039
 30
0.0
  0
POINT
  5
CDF3
  8
DEFPOINTS
 62
     0
 10
-386.47656531196009
 20
837.76944803541039
 30
0.0
  0
ENDBLK
  5
CDEA
  8
0
  0
BLOCK
  8
0
  2
*U50
 70
     1
 10
0.0
 20
0.0
 30
0.0
  3
*U50
  1

  0
TEXT
  5
E443
  8
0
 10
2.0520856342580478
 20
1.4053520973297959
 30
0.0
 40
0.125
  1
Exterior Casing
  0
TEXT
  5
E444
  8
0
 10
2.0520856342580478
 20
1.1970187639964629
 30
0.0
 40
0.125
  1
TL-180
  0
TEXT
  5
E445
  8
0
 10
2.0520856342580478
 20
0.9886854306631298
 30
0.0
 40
0.125
  1
1-1/4" x 2"
  0
TEXT
  5
E446
  8
0
 10
2.0520856342580478
 20
0.7803520973297964
 30
0.0
 40
0.125
  1
800.66.TAGUE
  0
ENDBLK
  5
E448
  8
0
  0
BLOCK
  8
0
  2
*U51
 70
     1
 10
0.0
 20
0.0
 30
0.0
  3
*U51
  1

  0
TEXT
  5
E44A
  8
0
 10
1.875832532300876
 20
1.1538771312937111
 30
0.0
 40
0.125
  1
Exterior Casing
  0
TEXT
  5
E44B
  8
0
 10
1.875832532300876
 20
0.9455437979603782
 30
0.0
 40
0.125
  1
TL-544
  0
TEXT
  5
E44C
  8
0
 10
1.875832532300876
 20
0.7372104646270449
 30
0.0
 40
0.125
  1
1-1/8" x 1-9/16"
  0
TEXT
  5
E44D
  8
0
 10
1.875832532300876
 20
0.5288771312937115
 30
0.0
 40
0.125
  1
800.66.TAGUE
  0
ENDBLK
  5
E44F
  8
0
  0
BLOCK
  8
0
  2
*U52
 70
     1
 10
0.0
 20
0.0
 30
0.0
  3
*U52
  1

  0
TEXT
  5
E451
  8
0
 10
2.2653468102219558
 20
1.612015904330746
 30
0.0
 40
0.125
  1
Exterior Casing
  0
TEXT
  5
E452
  8
0
 10
2.2653468102219558
 20
1.403682570997413
 30
0.0
 40
0.125
  1
TL-2023
  0
TEXT
  5
E453
  8
0
 10
2.2653468102219558
 20
1.19534923766408
 30
0.0
 40
0.125
  1
1-13/16" x 3" 
  0
TEXT
  5
E454
  8
0
 10
2.2653468102219558
 20
0.9870159043307467
 30
0.0
 40
0.125
  1
800.66.TAGUE
  0
ENDBLK
  5
E456
  8
0
  0
BLOCK
  8
0
  2
*U53
 70
     1
 10
0.0
 20
0.0
 30
0.0
  3
*U53
  1

  0
TEXT
  5
E458
  8
0
 10
2.0898675486657221
 20
0.9145072342178082
 30
0.0
 40
0.125
  1
Exterior Casing
  0
TEXT
  5
E459
  8
0
 10
2.0898675486657221
 20
0.706173900884475
 30
0.0
 40
0.125
  1
TL-2087
  0
TEXT
  5
E45A
  8
0
 10
2.0898675486657221
 20
0.4978405675511416
 30
0.0
 40
0.125
  1
7/8" x 1-7/16"
  0
TEXT
  5
E45B
  8
0
 10
2.0898675486657221
 20
0.2895072342178082
 30
0.0
 40
0.125
  1
800.66.TAGUE
  0
ENDBLK
  5
E45D
  8
0
  0
BLOCK
  8
0
  2
*U54
 70
     1
 10
0.0
 20
0.0
 30
0.0
  3
*U54
  1

  0
TEXT
  5
E45F
  8
0
 10
2.1806631076311191
 20
0.8419101546792263
 30
0.0
 40
0.125
  1
Exterior Casing
  0
TEXT
  5
E460
  8
0
 10
2.1806631076311191
 20
0.6335768213458931
 30
0.0
 40
0.125
  1
TL-2158
  0
TEXT
  5
E461
  8
0
 10
2.1806631076311191
 20
0.4252434880125597
 30
0.0
 40
0.125
  1
1-1/16" x 1-5/16"
  0
TEXT
  5
E462
  8
0
 10
2.1806631076311191
 20
0.2169101546792262
 30
0.0
 40
0.125
  1
800.66.TAGUE
  0
ENDBLK
  5
E464
  8
0
  0
BLOCK
  8
0
  2
*U55
 70
     1
 10
0.0
 20
0.0
 30
0.0
  3
*U55
  1

  0
TEXT
  5
E466
  8
0
 10
2.2408536425556909
 20
1.2992247915469759
 30
0.0
 40
0.125
  1
Exterior Casing
  0
TEXT
  5
E467
  8
0
 10
2.2408536425556909
 20
1.090891458213642
 30
0.0
 40
0.125
  1
TL-2174
  0
TEXT
  5
E468
  8
0
 10
2.2408536425556909
 20
0.8825581248803095
 30
0.0
 40
0.125
  1
1-3/8" x 1-7/16"
  0
TEXT
  5
E469
  8
0
 10
2.2408536425556909
 20
0.6742247915469762
 30
0.0
 40
0.125
  1
800.66.TAGUE
  0
ENDBLK
  5
E46B
  8
0
  0
BLOCK
  8
0
  2
*U56
 70
     1
 10
0.0
 20
0.0
 30
0.0
  3
*U56
  1

  0
TEXT
  5
E46D
  8
0
 10
2.8048346441314029
 20
1.129982283289336
 30
0.0
 40
0.125
  1
Exterior Casing
  0
TEXT
  5
E46E
  8
0
 10
2.8048346441314029
 20
0.9216489499560037
 30
0.0
 40
0.125
  1
TL-2175
  0
TEXT
  5
E46F
  8
0
 10
2.8048346441314029
 20
0.7133156166226704
 30
0.0
 40
0.125
  1
1-9/32" x 1-29/32"
  0
TEXT
  5
E470
  8
0
 10
2.8048346441314029
 20
0.504982283289337
 30
0.0
 40
0.125
  1
800.66.TAGUE
  0
ENDBLK
  5
E472
  8
0
  0
BLOCK
  8
0
  2
*U57
 70
     1
 10
0.0
 20
0.0
 30
0.0
  3
*U57
  1

  0
TEXT
  5
E474
  8
0
 10
2.5484960182450891
 20
0.679430053902138
 30
0.0
 40
0.125
  1
Exterior Casing
  0
TEXT
  5
E475
  8
0
 10
2.5484960182450891
 20
0.4710967205688046
 30
0.0
 40
0.125
  1
TL-2176
  0
TEXT
  5
E476
  8
0
 10
2.5484960182450891
 20
0.2627633872354712
 30
0.0
 40
0.125
  1
19/32" x 1-5/8"
  0
TEXT
  5
E477
  8
0
 10
2.5484960182450891
 20
0.0544300539021379
 30
0.0
 40
0.125
  1
800.66.TAGUE
  0
ENDBLK
  5
E479
  8
0
  0
BLOCK
  8
0
  2
*U58
 70
     1
 10
0.0
 20
0.0
 30
0.0
  3
*U58
  1

  0
TEXT
  5
E47B
  8
0
 10
2.105732231568993
 20
0.7255830389262883
 30
0.0
 40
0.125
  1
Exterior Casing
  0
TEXT
  5
E47C
  8
0
 10
2.105732231568993
 20
0.5172497055929551
 30
0.0
 40
0.125
  1
TL-2108
  0
TEXT
  5
E47D
  8
0
 10
2.105732231568993
 20
0.3089163722596217
 30
0.0
 40
0.125
  1
15/16" x 1-1/16"
  0
TEXT
  5
E47E
  8
0
 10
2.105732231568993
 20
0.1005830389262883
 30
0.0
 40
0.125
  1
800.66.TAGUE
  0
ENDBLK
  5
E480
  8
0
  0
BLOCK
  8
0
  2
*U59
 70
     1
 10
0.0
 20
0.0
 30
0.0
  3
*U59
  1

  0
TEXT
  5
E482
  8
0
 10
0.0469294570366401
 20
0.67943073463357
 30
0.0
 40
0.125
  1
Exterior Casing
  0
TEXT
  5
E483
  8
0
 10
0.0469294570366401
 20
0.4710974013002366
 30
0.0
 40
0.125
  1
TL-2206
  0
TEXT
  5
E484
  8
0
 10
0.0469294570366401
 20
0.2627640679669033
 30
0.0
 40
0.125
  1
1-3/32" x 1-23/32"
  0
TEXT
  5
E485
  8
0
 10
0.0469294570366401
 20
0.05443073463357
 30
0.0
 40
0.125
  1
800.66.TAGUE
  0
ENDBLK
  5
E487
  8
0
  0
BLOCK
  8
0
  2
*U60
 70
     1
 10
0.0
 20
0.0
 30
0.0
  3
*U60
  1

  0
TEXT
  5
E489
  8
0
 10
0.0449853036485593
 20
0.6794309447934666
 30
0.0
 40
0.125
  1
Exterior Casing
  0
TEXT
  5
E48A
  8
0
 10
0.0449853036485593
 20
0.4710976114601333
 30
0.0
 40
0.125
  1
TL-2207
  0
TEXT
  5
E48B
  8
0
 10
0.0449853036485593
 20
0.2627642781267999
 30
0.0
 40
0.125
  1
1-1/8" x 2-15/16"
  0
TEXT
  5
E48C
  8
0
 10
0.0449853036485593
 20
0.0544309447934666
 30
0.0
 40
0.125
  1
800.66.TAGUE
  0
ENDBLK
  5
E48E
  8
0
  0
BLOCK
  8
0
  2
*U61
 70
     1
 10
0.0
 20
0.0
 30
0.0
  3
*U61
  1

  0
TEXT
  5
E490
  8
0
 62
     0
 10
-346.15979271546257
 20
508.16262619726342
 30
0.0
 40
0.125
  1
Cutter
 50
90.0
  0
ENDBLK
  5
E492
  8
0
  0
BLOCK
  8
0
  2
*U62
 70
     1
 10
0.0
 20
0.0
 30
0.0
  3
*U62
  1

  0
TEXT
  5
E494
  8
0
 10
3.5112004937425918
 20
2.3236705000861089
 30
0.0
 40
0.125
  1
Exterior Casing
  0
TEXT
  5
E495
  8
0
 10
3.5112004937425918
 20
2.1153371667527749
 30
0.0
 40
0.125
  1
TL-2242
  0
TEXT
  5
E496
  8
0
 10
3.5112004937425918
 20
1.9070038334194419
 30
0.0
 40
0.125
  1
2" x 4-1/2"
  0
TEXT
  5
E497
  8
0
 10
3.5112004937425918
 20
1.6986705000861091
 30
0.0
 40
0.125
  1
800.66.TAGUE
  0
ENDBLK
  5
E499
  8
0
  0
BLOCK
  8
0
  2
*U63
 70
     1
 10
0.0
 20
0.0
 30
0.0
  3
*U63
  1

  0
TEXT
  5
E49B
  8
0
 62
     0
 10
-386.5390653119602
 20
838.32040714068194
 30
0.0
 40
0.125
  1
Cutter
 50
90.0
  0
ENDBLK
  5
E49D
  8
0
  0
BLOCK
  8
0
  2
*U64
 70
     1
 10
0.0
 20
0.0
 30
0.0
  3
*U64
  1

  0
TEXT
  5
E49F
  8
0
 10
1.983241637717696
 20
1.2297917133489591
 30
0.0
 40
0.125
  1
Exterior Casing
  0
TEXT
  5
E4A0
  8
0
 10
1.983241637717696
 20
1.0214583800156249
 30
0.0
 40
0.125
  1
TL-2254
  0
TEXT
  5
E4A1
  8
0
 10
1.983241637717696
 20
0.8131250466822924
 30
0.0
 40
0.125
  1
1-1/4" x 1-3/4"
  0
TEXT
  5
E4A2
  8
0
 10
1.983241637717696
 20
0.6047917133489591
 30
0.0
 40
0.125
  1
800.66.TAGUE
  0
ENDBLK
  5
E4A4
  8
0
  0
BLOCK
  8
0
  2
*U65
 70
     1
 10
0.0
 20
0.0
 30
0.0
  3
*U65
  1

  0
TEXT
  5
E4A6
  8
0
 10
2.2285402119240412
 20
3.7215677387475798
 30
0.0
 40
0.125
  1
Exterior Jamb
  0
TEXT
  5
E4A7
  8
0
 10
2.2285402119240412
 20
3.5132344054142468
 30
0.0
 40
0.125
  1
TL-2126
  0
TEXT
  5
E4A8
  8
0
 10
2.2285402119240412
 20
3.3049010720809142
 30
0.0
 40
0.125
  1
1-1/4" x 6-5/8"
  0
TEXT
  5
E4A9
  8
0
 10
2.2285402119240412
 20
3.0965677387475798
 30
0.0
 40
0.125
  1
800.66.TAGUE
  0
ENDBLK
  5
E4AB
  8
0
  0
BLOCK
  8
0
  2
*U66
 70
     1
 10
0.0
 20
0.0
 30
0.0
  3
*U66
  1

  0
TEXT
  5
E4AD
  8
0
 10
2.025590122046196
 20
3.8877018206065941
 30
0.0
 40
0.125
  1
Exterior Jamb
  0
TEXT
  5
E4AE
  8
0
 10
2.025590122046196
 20
3.6793684872732602
 30
0.0
 40
0.125
  1
TL-2127
  0
TEXT
  5
E4AF
  8
0
 10
2.025590122046196
 20
3.4710351539399271
 30
0.0
 40
0.125
  1
1-1/4" x 6-5/8"
  0
TEXT
  5
E4B0
  8
0
 10
2.025590122046196
 20
3.2627018206065941
 30
0.0
 40
0.125
  1
800.66.TAGUE
  0
ENDBLK
  5
E4B2
  8
0
  0
BLOCK
  8
0
  2
*U67
 70
     1
 10
0.0
 20
0.0
 30
0.0
  3
*U67
  1

  0
TEXT
  5
E4B4
  8
0
 10
1.8279899277385421
 20
2.0085009357213721
 30
0.0
 40
0.125
  1
Fluting
  0
TEXT
  5
E4B5
  8
0
 10
1.8279899277385421
 20
1.800167602388038
 30
0.0
 40
0.125
  1
TL-123
  0
TEXT
  5
E4B6
  8
0
 10
1.8279899277385421
 20
1.5918342690547049
 30
0.0
 40
0.125
  1
3/4" x 3-1/2"
  0
TEXT
  5
E4B7
  8
0
 10
1.8279899277385421
 20
1.3835009357213719
 30
0.0
 40
0.125
  1
800.66.TAGUE
  0
ENDBLK
  5
E4B9
  8
0
  0
BLOCK
  8
0
  2
*U68
 70
     1
 10
0.0
 20
0.0
 30
0.0
  3
*U68
  1

  0
TEXT
  5
E4BB
  8
0
 10
1.9710461263608181
 20
3.9608870512416838
 30
0.0
 40
0.125
  1
Fluting
  0
TEXT
  5
E4BC
  8
0
 10
1.9710461263608181
 20
3.7525537179083499
 30
0.0
 40
0.125
  1
TL-343
  0
TEXT
  5
E4BD
  8
0
 10
1.9710461263608181
 20
3.5442203845750169
 30
0.0
 40
0.125
  1
7/8" x 7-3/16"
  0
TEXT
  5
E4BE
  8
0
 10
1.9710461263608181
 20
3.3358870512416838
 30
0.0
 40
0.125
  1
800.66.TAGUE
  0
ENDBLK
  5
E4C0
  8
0
  0
BLOCK
  8
0
  2
*U69
 70
     1
 10
0.0
 20
0.0
 30
0.0
  3
*U69
  1

  0
TEXT
  5
E4C2
  8
0
 10
1.4662897697170929
 20
3.8395028676267202
 30
0.0
 40
0.125
  1
Fluting
  0
TEXT
  5
E4C3
  8
0
 10
1.4662897697170929
 20
3.6311695342933858
 30
0.0
 40
0.125
  1
TL-2183
  0
TEXT
  5
E4C4
  8
0
 10
1.4662897697170929
 20
3.4228362009600528
 30
0.0
 40
0.125
  1
3/4" x 7-1/4"
  0
TEXT
  5
E4C5
  8
0
 10
1.4662897697170929
 20
3.2145028676267202
 30
0.0
 40
0.125
  1
800.66.TAGUE
  0
ENDBLK
  5
E4C7
  8
0
  0
BLOCK
  8
0
  2
*U70
 70
     1
 10
0.0
 20
0.0
 30
0.0
  3
*U70
  1

  0
TEXT
  5
E4C9
  8
0
 10
2.0951853732560148
 20
2.6676693683394879
 30
0.0
 40
0.125
  1
Fluting
  0
TEXT
  5
E4CA
  8
0
 10
2.0951853732560148
 20
2.4593360350061548
 30
0.0
 40
0.125
  1
TL-2276
  0
TEXT
  5
E4CB
  8
0
 10
2.0951853732560148
 20
2.2510027016728218
 30
0.0
 40
0.125
  1
11/16" x 3"
  0
TEXT
  5
E4CC
  8
0
 10
2.0951853732560148
 20
2.0426693683394879
 30
0.0
 40
0.125
  1
800.66.TAGUE
  0
ENDBLK
  5
E4CE
  8
0
  0
BLOCK
  8
0
  2
*U71
 70
     1
 10
0.0
 20
0.0
 30
0.0
  3
*U71
  1

  0
TEXT
  5
E4D0
  8
0
 10
2.4586482925877808
 20
1.0775582798773931
 30
0.0
 40
0.125
  1
Full Round
  0
TEXT
  5
E4D1
  8
0
 10
2.4586482925877808
 20
0.8692249465440607
 30
0.0
 40
0.125
  1
TL-232
  0
TEXT
  5
E4D2
  8
0
 10
2.4586482925877808
 20
0.6608916132107274
 30
0.0
 40
0.125
  1
1-7/16" x 1-7/16"
  0
TEXT
  5
E4D3
  8
0
 10
2.4586482925877808
 20
0.452558279877394
 30
0.0
 40
0.125
  1
800.66.TAGUE
  0
ENDBLK
  5
E4D5
  8
0
  0
BLOCK
  8
0
  2
*U72
 70
     1
 10
0.0
 20
0.0
 30
0.0
  3
*U72
  1

  0
TEXT
  5
E4D7
  8
0
 10
2.339763263951113
 20
0.912090443150646
 30
0.0
 40
0.125
  1
Full Round
  0
TEXT
  5
E4D8
  8
0
 10
2.339763263951113
 20
0.7037571098173128
 30
0.0
 40
0.125
  1
TL-233
  0
TEXT
  5
E4D9
  8
0
 10
2.339763263951113
 20
0.4954237764839795
 30
0.0
 40
0.125
  1
1-3/16" x 1-3/16"
  0
TEXT
  5
E4DA
  8
0
 10
2.339763263951113
 20
0.287090443150646
 30
0.0
 40
0.125
  1
800.66.TAGUE
  0
ENDBLK
  5
E4DC
  8
0
  0
BLOCK
  8
0
  2
*U73
 70
     1
 10
0.0
 20
0.0
 30
0.0
  3
*U73
  1

  0
TEXT
  5
E4DE
  8
0
 10
2.2927598682417729
 20
0.8643692839127652
 30
0.0
 40
0.125
  1
Full Round
  0
TEXT
  5
E4DF
  8
0
 10
2.2927598682417729
 20
0.6560359505794321
 30
0.0
 40
0.125
  1
TL-234
  0
TEXT
  5
E4E0
  8
0
 10
2.2927598682417729
 20
0.4477026172460987
 30
0.0
 40
0.125
  1
1-1/16" x 1-1/16"
  0
TEXT
  5
E4E1
  8
0
 10
2.2927598682417729
 20
0.2393692839127652
 30
0.0
 40
0.125
  1
800.66.TAGUE
  0
ENDBLK
  5
E4E3
  8
0
  0
BLOCK
  8
0
  2
*U74
 70
     1
 10
0.0
 20
0.0
 30
0.0
  3
*U74
  1

  0
TEXT
  5
E4E5
  8
0
 10
2.0765905058337921
 20
1.0252762384561711
 30
0.0
 40
0.125
  1
Glass Bead
  0
TEXT
  5
E4E6
  8
0
 10
2.0765905058337921
 20
0.8169429051228387
 30
0.0
 40
0.125
  1
TL-145
  0
TEXT
  5
E4E7
  8
0
 10
2.0765905058337921
 20
0.6086095717895054
 30
0.0
 40
0.125
  1
11/16" x 3/4"
  0
TEXT
  5
E4E8
  8
0
 10
2.0765905058337921
 20
0.400276238456172
 30
0.0
 40
0.125
  1
800.66.TAGUE
  0
ENDBLK
  5
E4EA
  8
0
  0
BLOCK
  8
0
  2
*U75
 70
     1
 10
0.0
 20
0.0
 30
0.0
  3
*U75
  1

  0
TEXT
  5
E4EC
  8
0
 10
1.468683703905185
 20
0.7455079879047162
 30
0.0
 40
0.125
  1
Glass Bead
  0
TEXT
  5
E4ED
  8
0
 10
1.468683703905185
 20
0.537174654571383
 30
0.0
 40
0.125
  1
TL-147
  0
TEXT
  5
E4EE
  8
0
 10
1.468683703905185
 20
0.3288413212380496
 30
0.0
 40
0.125
  1
1/2" x 9/16"
  0
TEXT
  5
E4EF
  8
0
 10
1.468683703905185
 20
0.1205079879047162
 30
0.0
 40
0.125
  1
800.66.TAGUE
  0
ENDBLK
  5
E4F1
  8
0
  0
BLOCK
  8
0
  2
*U76
 70
     1
 10
0.0
 20
0.0
 30
0.0
  3
*U76
  1

  0
TEXT
  5
E4F3
  8
0
 10
1.584020839760341
 20
0.6794303041602916
 30
0.0
 40
0.125
  1
Glass Bead
  0
TEXT
  5
E4F4
  8
0
 10
1.584020839760341
 20
0.4710969708269583
 30
0.0
 40
0.125
  1
TL-152
  0
TEXT
  5
E4F5
  8
0
 10
1.584020839760341
 20
0.262763637493625
 30
0.0
 40
0.125
  1
3/8" x 11/16"
  0
TEXT
  5
E4F6
  8
0
 10
1.584020839760341
 20
0.0544303041602916
 30
0.0
 40
0.125
  1
800.66.TAGUE
  0
ENDBLK
  5
E4F8
  8
0
  0
BLOCK
  8
0
  2
*U77
 70
     1
 10
0.0
 20
0.0
 30
0.0
  3
*U77
  1

  0
TEXT
  5
E4FA
  8
0
 10
1.3526095965341931
 20
0.7381811042487243
 30
0.0
 40
0.125
  1
Glass Bead
  0
TEXT
  5
E4FB
  8
0
 10
1.3526095965341931
 20
0.5298477709153912
 30
0.0
 40
0.125
  1
TL-2142
  0
TEXT
  5
E4FC
  8
0
 10
1.3526095965341931
 20
0.3215144375820577
 30
0.0
 40
0.125
  1
11/32" x 29/32"
  0
TEXT
  5
E4FD
  8
0
 10
1.3526095965341931
 20
0.1131811042487243
 30
0.0
 40
0.125
  1
800.66.TAGUE
  0
ENDBLK
  5
E4FF
  8
0
  0
BLOCK
  8
0
  2
*U78
 70
     1
 10
0.0
 20
0.0
 30
0.0
  3
*U78
  1

  0
TEXT
  5
E501
  8
0
 10
1.3435544091540801
 20
0.6794309539541246
 30
0.0
 40
0.125
  1
Glass Bead
  0
TEXT
  5
E502
  8
0
 10
1.3435544091540801
 20
0.4710976206207913
 30
0.0
 40
0.125
  1
TL-2149
  0
TEXT
  5
E503
  8
0
 10
1.3435544091540801
 20
0.2627642872874579
 30
0.0
 40
0.125
  1
3/8" x 1/2"
  0
TEXT
  5
E504
  8
0
 10
1.3435544091540801
 20
0.0544309539541246
 30
0.0
 40
0.125
  1
800.66.TAGUE
  0
ENDBLK
  5
E506
  8
0
  0
BLOCK
  8
0
  2
*U79
 70
     1
 10
0.0
 20
0.0
 30
0.0
  3
*U79
  1

  0
TEXT
  5
E508
  8
0
 10
1.488844305553698
 20
0.6807937379744545
 30
0.0
 40
0.125
  1
Glass Bead
  0
TEXT
  5
E509
  8
0
 10
1.488844305553698
 20
0.4724604046411212
 30
0.0
 40
0.125
  1
TL-2155
  0
TEXT
  5
E50A
  8
0
 10
1.488844305553698
 20
0.2641270713077878
 30
0.0
 40
0.125
  1
1/2" x 13/16"
  0
TEXT
  5
E50B
  8
0
 10
1.488844305553698
 20
0.0557937379744544
 30
0.0
 40
0.125
  1
800.66.TAGUE
  0
ENDBLK
  5
E50D
  8
0
  0
BLOCK
  8
0
  2
*U80
 70
     1
 10
0.0
 20
0.0
 30
0.0
  3
*U80
  1

  0
TEXT
  5
E50F
  8
0
 10
1.52304343587059
 20
0.6794307504626432
 30
0.0
 40
0.125
  1
Glass Bead
  0
TEXT
  5
E510
  8
0
 10
1.52304343587059
 20
0.4710974171293099
 30
0.0
 40
0.125
  1
TL-2218
  0
TEXT
  5
E511
  8
0
 10
1.52304343587059
 20
0.2627640837959765
 30
0.0
 40
0.125
  1
1/4" x 5/8"
  0
TEXT
  5
E512
  8
0
 10
1.52304343587059
 20
0.0544307504626431
 30
0.0
 40
0.125
  1
800.66.TAGUE
  0
ENDBLK
  5
E514
  8
0
  0
BLOCK
  8
0
  2
*U81
 70
     1
 10
0.0
 20
0.0
 30
0.0
  3
*U81
  1

  0
TEXT
  5
E516
  8
0
 10
2.8235364504146778
 20
0.7161662597191026
 30
0.0
 40
0.125
  1
Half Round
  0
TEXT
  5
E517
  8
0
 10
2.8235364504146778
 20
0.5078329263857692
 30
0.0
 40
0.125
  1
TL-6
  0
TEXT
  5
E518
  8
0
 10
2.8235364504146778
 20
0.2994995930524358
 30
0.0
 40
0.125
  1
7/8" x 1-3/4"
  0
TEXT
  5
E519
  8
0
 10
2.8235364504146778
 20
0.0911662597191025
 30
0.0
 40
0.125
  1
800.66.TAGUE
  0
ENDBLK
  5
E51B
  8
0
  0
BLOCK
  8
0
  2
*U82
 70
     1
 10
0.0
 20
0.0
 30
0.0
  3
*U82
  1

  0
TEXT
  5
E51D
  8
0
 10
2.8316039409763221
 20
0.7222806133900122
 30
0.0
 40
0.125
  1
Half Round
  0
TEXT
  5
E51E
  8
0
 10
2.8316039409763221
 20
0.5139472800566788
 30
0.0
 40
0.125
  1
TL-7
  0
TEXT
  5
E51F
  8
0
 10
2.8316039409763221
 20
0.3056139467233454
 30
0.0
 40
0.125
  1
1" x 2"
  0
TEXT
  5
E520
  8
0
 10
2.8316039409763221
 20
0.0972806133900122
 30
0.0
 40
0.125
  1
800.66.TAGUE
  0
ENDBLK
  5
E522
  8
0
  0
BLOCK
  8
0
  2
*U83
 70
     1
 10
0.0
 20
0.0
 30
0.0
  3
*U83
  1

  0
TEXT
  5
E524
  8
0
 10
4.3092556456276148
 20
0.8292621657587915
 30
0.0
 40
0.125
  1
Half Round
  0
TEXT
  5
E525
  8
0
 10
4.3092556456276148
 20
0.6209288324254582
 30
0.0
 40
0.125
  1
TL-8
  0
TEXT
  5
E526
  8
0
 10
4.3092556456276148
 20
0.4125954990921248
 30
0.0
 40
0.125
  1
1-1/2" x 3"
  0
TEXT
  5
E527
  8
0
 10
4.3092556456276148
 20
0.2042621657587915
 30
0.0
 40
0.125
  1
800.66.TAGUE
  0
ENDBLK
  5
E529
  8
0
  0
BLOCK
  8
0
  2
*U84
 70
     1
 10
0.0
 20
0.0
 30
0.0
  3
*U84
  1

  0
TEXT
  5
E52B
  8
0
 10
2.524104426630799
 20
0.6794299200373644
 30
0.0
 40
0.125
  1
Half Round
  0
TEXT
  5
E52C
  8
0
 10
2.524104426630799
 20
0.471096586704031
 30
0.0
 40
0.125
  1
TL-116
  0
TEXT
  5
E52D
  8
0
 10
2.524104426630799
 20
0.2627632533706976
 30
0.0
 40
0.125
  1
3/4" x 1-1/2"
  0
TEXT
  5
E52E
  8
0
 10
2.524104426630799
 20
0.0544299200373644
 30
0.0
 40
0.125
  1
800.66.TAGUE
  0
ENDBLK
  5
E530
  8
0
  0
BLOCK
  8
0
  2
*U85
 70
     1
 10
0.0
 20
0.0
 30
0.0
  3
*U85
  1

  0
TEXT
  5
E532
  8
0
 10
2.4691699319003528
 20
0.6794301275302815
 30
0.0
 40
0.125
  1
Half Round
  0
TEXT
  5
E533
  8
0
 10
2.4691699319003528
 20
0.4710967941969481
 30
0.0
 40
0.125
  1
TL-119
  0
TEXT
  5
E534
  8
0
 10
2.4691699319003528
 20
0.2627634608636147
 30
0.0
 40
0.125
  1
5/8" x 1-1/4"
  0
TEXT
  5
E535
  8
0
 10
2.4691699319003528
 20
0.0544301275302814
 30
0.0
 40
0.125
  1
800.66.TAGUE
  0
ENDBLK
  5
E537
  8
0
  0
BLOCK
  8
0
  2
*U86
 70
     1
 10
0.0
 20
0.0
 30
0.0
  3
*U86
  1

  0
TEXT
  5
E539
  8
0
 10
1.96218194837894
 20
0.679429735423696
 30
0.0
 40
0.125
  1
Half Round
  0
TEXT
  5
E53A
  8
0
 10
1.96218194837894
 20
0.4710964020903626
 30
0.0
 40
0.125
  1
TL-120
  0
TEXT
  5
E53B
  8
0
 10
1.96218194837894
 20
0.2627630687570293
 30
0.0
 40
0.125
  1
1/2" x 1"
  0
TEXT
  5
E53C
  8
0
 10
1.96218194837894
 20
0.054429735423696
 30
0.0
 40
0.125
  1
800.66.TAGUE
  0
ENDBLK
  5
E53E
  8
0
  0
BLOCK
  8
0
  2
*U87
 70
     1
 10
0.0
 20
0.0
 30
0.0
  3
*U87
  1

  0
TEXT
  5
E540
  8
0
 10
1.51989036816559
 20
0.679429754589819
 30
0.0
 40
0.125
  1
Half Round
  0
TEXT
  5
E541
  8
0
 10
1.51989036816559
 20
0.4710964212564856
 30
0.0
 40
0.125
  1
TL-122
  0
TEXT
  5
E542
  8
0
 10
1.51989036816559
 20
0.2627630879231522
 30
0.0
 40
0.125
  1
11/32" x 11/16"
  0
TEXT
  5
E543
  8
0
 10
1.51989036816559
 20
0.0544297545898189
 30
0.0
 40
0.125
  1
800.66.TAGUE
  0
ENDBLK
  5
E545
  8
0
  0
BLOCK
  8
0
  2
*U88
 70
     1
 10
0.0
 20
0.0
 30
0.0
  3
*U88
  1

  0
TEXT
  5
E547
  8
0
 10
1.332760358760481
 20
0.6794306489528026
 30
0.0
 40
0.125
  1
Half Round
  0
TEXT
  5
E548
  8
0
 10
1.332760358760481
 20
0.4710973156194692
 30
0.0
 40
0.125
  1
TL-124
  0
TEXT
  5
E549
  8
0
 10
1.332760358760481
 20
0.2627639822861358
 30
0.0
 40
0.125
  1
1/4" x 1/2"
  0
TEXT
  5
E54A
  8
0
 10
1.332760358760481
 20
0.0544306489528026
 30
0.0
 40
0.125
  1
800.66.TAGUE
  0
ENDBLK
  5
E54C
  8
0
  0
BLOCK
  8
0
  2
*U89
 70
     1
 10
0.0
 20
0.0
 30
0.0
  3
*U89
  1

  0
TEXT
  5
E54E
  8
0
 10
2.6263646070054838
 20
2.827461056571678
 30
0.0
 40
0.125
  1
Hand Rail
  0
TEXT
  5
E54F
  8
0
 10
2.6263646070054838
 20
2.6191277232383441
 30
0.0
 40
0.125
  1
TL-14
  0
TEXT
  5
E550
  8
0
 10
2.6263646070054838
 20
2.410794389905011
 30
0.0
 40
0.125
  1
1-5/8" x 5-1/4"
  0
TEXT
  5
E551
  8
0
 10
2.6263646070054838
 20
2.202461056571678
 30
0.0
 40
0.125
  1
800.66.TAGUE
  0
ENDBLK
  5
E553
  8
0
  0
BLOCK
  8
0
  2
*U90
 70
     1
 10
0.0
 20
0.0
 30
0.0
  3
*U90
  1

  0
TEXT
  5
E555
  8
0
 10
-386.2442728862614
 20
838.50621559024626
 30
0.0
 40
0.125
  1
Hand Rail
  0
TEXT
  5
E556
  8
0
 10
-386.2442728862614
 20
838.297882256913
 30
0.0
 40
0.125
  1
TL-14
  0
TEXT
  5
E557
  8
0
 10
-386.2442728862614
 20
838.08954892357974
 30
0.0
 40
0.125
  1
1-5/8" x 5-1/4"
  0
TEXT
  5
E558
  8
0
 10
-386.2442728862614
 20
837.88121559024637
 30
0.0
 40
0.125
  1
800.66.TAGUE
  0
ENDBLK
  5
E55A
  8
0
  0
ENDSEC
  0
SECTION
  2
ENTITIES
  0
INSERT
  5
E42E
  8
0
  2
*U90
 10
0.0
 20
0.0
 30
0.0
  0
LINE
  5
E42F
  8
0
 10
-387.24958059960983
 20
835.67875454652483
 30
0.0
 11
-387.24958059960983
 21
838.55375454652494
 31
0.0
  0
LINE
  5
E430
  8
0
 10
-388.87063714001113
 20
840.18431190310991
 30
0.0
 11
-388.87063714001113
 21
835.67875454652483
 31
0.0
  0
LINE
  5
E431
  8
0
 10
-388.87063714001113
 20
835.67875454652483
 30
0.0
 11
-387.24958059960983
 21
835.67875454652483
 31
0.0
  0
POLYLINE
  8
0
  5
E55B
  66
     1
 10
0.000000
 20
0.000000
 30
0.000000
  70
     8
  0
VERTEX
  8
0
  5
E55C
 10
-388.871
 20
840.184
 30
0.000000
  70
    32
  0
VERTEX
  8
0
  5
E55D
 10
-388.869
 20
840.193
 30
0.000000
  70
    32
  0
VERTEX
  8
0
  5
E55E
 10
-388.867
 20
840.201
 30
0.000000
  70
    32
  0
VERTEX
  8
0
  5
E55F
 10
-388.865
 20
840.209
 30
0.000000
  70
    32
  0
VERTEX
  8
0
  5
E560
 10
-388.863
 20
840.217
 30
0.000000
  70
    32
  0
VERTEX
  8
0
  5
E561
 10
-388.861
 20
840.226
 30
0.000000
  70
    32
  0
VERTEX
  8
0
  5
E562
 10
-388.859
 20
840.234
 30
0.000000
  70
    32
  0
VERTEX
  8
0
  5
E563
 10
-388.857
 20
840.242
 30
0.000000
  70
    32
  0
VERTEX
  8
0
  5
E564
 10
-388.854
 20
840.251
 30
0.000000
  70
    32
  0
VERTEX
  8
0
  5
E565
 10
-388.852
 20
840.259
 30
0.000000
  70
    32
  0
VERTEX
  8
0
  5
E566
 10
-388.850
 20
840.267
 30
0.000000
  70
    32
  0
VERTEX
  8
0
  5
E567
 10
-388.848
 20
840.275
 30
0.000000
  70
    32
  0
VERTEX
  8
0
  5
E568
 10
-388.845
 20
840.284
 30
0.000000
  70
    32
  0
VERTEX
  8
0
  5
E569
 10
-388.843
 20
840.292
 30
0.000000
  70
    32
  0
VERTEX
  8
0
  5
E56A
 10
-388.841
 20
840.300
 30
0.000000
  70
    32
  0
VERTEX
  8
0
  5
E56B
 10
-388.838
 20
840.308
 30
0.000000
  70
    32
  0
VERTEX
  8
0
  5
E56C
 10
-388.836
 20
840.317
 30
0.000000
  70
    32
  0
VERTEX
  8
0
  5
E56D
 10
-388.833
 20
840.325
 30
0.000000
  70
    32
  0
VERTEX
  8
0
  5
E56E
 10
-388.831
 20
840.333
 30
0.000000
  70
    32
  0
VERTEX
  8
0
  5
E56F
 10
-388.828
 20
840.341
 30
0.000000
  70
    32
  0
VERTEX
  8
0
  5
E570
 10
-388.826
 20
840.349
 30
0.000000
  70
    32
  0
VERTEX
  8
0
  5
E571
 10
-388.823
 20
840.357
 30
0.000000
  70
    32
  0
VERTEX
  8
0
  5
E572
 10
-388.820
 20
840.366
 30
0.000000
  70
    32
  0
VERTEX
  8
0
  5
E573
 10
-388.817
 20
840.374
 30
0.000000
  70
    32
  0
VERTEX
  8
0
  5
E574
 10
-388.814
 20
840.382
 30
0.000000
  70
    32
  0
VERTEX
  8
0
  5
E575
 10
-388.812
 20
840.390
 30
0.000000
  70
    32
  0
VERTEX
  8
0
  5
E576
 10
-388.809
 20
840.398
 30
0.000000
  70
    32
  0
VERTEX
  8
0
  5
E577
 10
-388.805
 20
840.406
 30
0.000000
  70
    32
  0
VERTEX
  8
0
  5
E578
 10
-388.802
 20
840.414
 30
0.000000
  70
    32
  0
VERTEX
  8
0
  5
E579
 10
-388.799
 20
840.422
 30
0.000000
  70
    32
  0
VERTEX
  8
0
  5
E57A
 10
-388.796
 20
840.429
 30
0.000000
  70
    32
  0
VERTEX
  8
0
  5
E57B
 10
-388.793
 20
840.437
 30
0.000000
  70
    32
  0
VERTEX
  8
0
  5
E57C
 10
-388.789
 20
840.445
 30
0.000000
  70
    32
  0
VERTEX
  8
0
  5
E57D
 10
-388.786
 20
840.453
 30
0.000000
  70
    32
  0
VERTEX
  8
0
  5
E57E
 10
-388.782
 20
840.461
 30
0.000000
  70
    32
  0
VERTEX
  8
0
  5
E57F
 10
-388.779
 20
840.469
 30
0.000000
  70
    32
  0
VERTEX
  8
0
  5
E580
 10
-388.775
 20
840.476
 30
0.000000
  70
    32
  0
VERTEX
  8
0
  5
E581
 10
-388.771
 20
840.484
 30
0.000000
  70
    32
  0
VERTEX
  8
0
  5
E582
 10
-388.768
 20
840.492
 30
0.000000
  70
    32
  0
VERTEX
  8
0
  5
E583
 10
-388.764
 20
840.499
 30
0.000000
  70
    32
  0
VERTEX
  8
0
  5
E584
 10
-388.760
 20
840.507
 30
0.000000
  70
    32
  0
VERTEX
  8
0
  5
E585
 10
-388.756
 20
840.514
 30
0.000000
  70
    32
  0
VERTEX
  8
0
  5
E586
 10
-388.752
 20
840.522
 30
0.000000
  70
    32
  0
VERTEX
  8
0
  5
E587
 10
-388.747
 20
840.529
 30
0.000000
  70
    32
  0
VERTEX
  8
0
  5
E588
 10
-388.743
 20
840.537
 30
0.000000
  70
    32
  0
VERTEX
  8
0
  5
E589
 10
-388.739
 20
840.544
 30
0.000000
  70
    32
  0
VERTEX
  8
0
  5
E58A
 10
-388.734
 20
840.551
 30
0.000000
  70
    32
  0
VERTEX
  8
0
  5
E58B
 10
-388.730
 20
840.558
 30
0.000000
  70
    32
  0
VERTEX
  8
0
  5
E58C
 10
-388.725
 20
840.566
 30
0.000000
  70
    32
  0
VERTEX
  8
0
  5
E58D
 10
-388.720
 20
840.573
 30
0.000000
  70
    32
  0
VERTEX
  8
0
  5
E58E
 10
-388.715
 20
840.580
 30
0.000000
  70
    32
  0
VERTEX
  8
0
  5
E58F
 10
-388.711
 20
840.587
 30
0.000000
  70
    32
  0
VERTEX
  8
0
  5
E590
 10
-388.706
 20
840.594
 30
0.000000
  70
    32
  0
VERTEX
  8
0
  5
E591
 10
-388.700
 20
840.601
 30
0.000000
  70
    32
  0
VERTEX
  8
0
  5
E592
 10
-388.695
 20
840.608
 30
0.000000
  70
    32
  0
VERTEX
  8
0
  5
E593
 10
-388.690
 20
840.615
 30
0.000000
  70
    32
  0
VERTEX
  8
0
  5
E594
 10
-388.685
 20
840.622
 30
0.000000
  70
    32
  0
VERTEX
  8
0
  5
E595
 10
-388.679
 20
840.628
 30
0.000000
  70
    32
  0
VERTEX
  8
0
  5
E596
 10
-388.674
 20
840.635
 30
0.000000
  70
    32
  0
VERTEX
  8
0
  5
E597
 10
-388.668
 20
840.642
 30
0.000000
  70
    32
  0
VERTEX
  8
0
  5
E598
 10
-388.663
 20
840.648
 30
0.000000
  70
    32
  0
VERTEX
  8
0
  5
E599
 10
-388.657
 20
840.655
 30
0.000000
  70
    32
  0
VERTEX
  8
0
  5
E59A
 10
-388.651
 20
840.661
 30
0.000000
  70
    32
  0
VERTEX
  8
0
  5
E59B
 10
-388.646
 20
840.668
 30
0.000000
  70
    32
  0
VERTEX
  8
0
  5
E59C
 10
-388.640
 20
840.674
 30
0.000000
  70
    32
  0
VERTEX
  8
0
  5
E59D
 10
-388.634
 20
840.680
 30
0.000000
  70
    32
  0
VERTEX
  8
0
  5
E59E
 10
-388.628
 20
840.687
 30
0.000000
  70
    32
  0
VERTEX
  8
0
  5
E59F
 10
-388.622
 20
840.693
 30
0.000000
  70
    32
  0
VERTEX
  8
0
  5
E5A0
 10
-388.615
 20
840.699
 30
0.000000
  70
    32
  0
VERTEX
  8
0
  5
E5A1
 10
-388.609
 20
840.705
 30
0.000000
  70
    32
  0
VERTEX
  8
0
  5
E5A2
 10
-388.603
 20
840.711
 30
0.000000
  70
    32
  0
VERTEX
  8
0
  5
E5A3
 10
-388.596
 20
840.717
 30
0.000000
  70
    32
  0
VERTEX
  8
0
  5
E5A4
 10
-388.590
 20
840.723
 30
0.000000
  70
    32
  0
VERTEX
  8
0
  5
E5A5
 10
-388.583
 20
840.728
 30
0.000000
  70
    32
  0
VERTEX
  8
0
  5
E5A6
 10
-388.577
 20
840.734
 30
0.000000
  70
    32
  0
VERTEX
  8
0
  5
E5A7
 10
-388.570
 20
840.740
 30
0.000000
  70
    32
  0
VERTEX
  8
0
  5
E5A8
 10
-388.564
 20
840.745
 30
0.000000
  70
    32
  0
VERTEX
  8
0
  5
E5A9
 10
-388.557
 20
840.751
 30
0.000000
  70
    32
  0
VERTEX
  8
0
  5
E5AA
 10
-388.550
 20
840.756
 30
0.000000
  70
    32
  0
VERTEX
  8
0
  5
E5AB
 10
-388.543
 20
840.762
 30
0.000000
  70
    32
  0
VERTEX
  8
0
  5
E5AC
 10
-388.536
 20
840.767
 30
0.000000
  70
    32
  0
VERTEX
  8
0
  5
E5AD
 10
-388.529
 20
840.772
 30
0.000000
  70
    32
  0
VERTEX
  8
0
  5
E5AE
 10
-388.522
 20
840.778
 30
0.000000
  70
    32
  0
VERTEX
  8
0
  5
E5AF
 10
-388.515
 20
840.783
 30
0.000000
  70
    32
  0
VERTEX
  8
0
  5
E5B0
 10
-388.508
 20
840.788
 30
0.000000
  70
    32
  0
VERTEX
  8
0
  5
E5B1
 10
-388.501
 20
840.793
 30
0.000000
  70
    32
  0
VERTEX
  8
0
  5
E5B2
 10
-388.494
 20
840.798
 30
0.000000
  70
    32
  0
VERTEX
  8
0
  5
E5B3
 10
-388.486
 20
840.802
 30
0.000000
  70
    32
  0
VERTEX
  8
0
  5
E5B4
 10
-388.479
 20
840.807
 30
0.000000
  70
    32
  0
VERTEX
  8
0
  5
E5B5
 10
-388.472
 20
840.812
 30
0.000000
  70
    32
  0
VERTEX
  8
0
  5
E5B6
 10
-388.464
 20
840.816
 30
0.000000
  70
    32
  0
VERTEX
  8
0
  5
E5B7
 10
-388.457
 20
840.821
 30
0.000000
  70
    32
  0
VERTEX
  8
0
  5
E5B8
 10
-388.449
 20
840.825
 30
0.000000
  70
    32
  0
VERTEX
  8
0
  5
E5B9
 10
-388.442
 20
840.830
 30
0.000000
  70
    32
  0
VERTEX
  8
0
  5
E5BA
 10
-388.434
 20
840.834
 30
0.000000
  70
    32
  0
VERTEX
  8
0
  5
E5BB
 10
-388.426
 20
840.838
 30
0.000000
  70
    32
  0
VERTEX
  8
0
  5
E5BC
 10
-388.419
 20
840.842
 30
0.000000
  70
    32
  0
VERTEX
  8
0
  5
E5BD
 10
-388.411
 20
840.846
 30
0.000000
  70
    32
  0
VERTEX
  8
0
  5
E5BE
 10
-388.403
 20
840.850
 30
0.000000
  70
    32
  0
VERTEX
  8
0
  5
E5BF
 10
-388.395
 20
840.854
 30
0.000000
  70
    32
  0
VERTEX
  8
0
  5
E5C0
 10
-388.387
 20
840.858
 30
0.000000
  70
    32
  0
VERTEX
  8
0
  5
E5C1
 10
-388.379
 20
840.862
 30
0.000000
  70
    32
  0
VERTEX
  8
0
  5
E5C2
 10
-388.371
 20
840.865
 30
0.000000
  70
    32
  0
VERTEX
  8
0
  5
E5C3
 10
-388.363
 20
840.869
 30
0.000000
  70
    32
  0
VERTEX
  8
0
  5
E5C4
 10
-388.355
 20
840.872
 30
0.000000
  70
    32
  0
VERTEX
  8
0
  5
E5C5
 10
-388.347
 20
840.876
 30
0.000000
  70
    32
  0
VERTEX
  8
0
  5
E5C6
 10
-388.339
 20
840.879
 30
0.000000
  70
    32
  0
VERTEX
  8
0
  5
E5C7
 10
-388.331
 20
840.882
 30
0.000000
  70
    32
  0
VERTEX
  8
0
  5
E5C8
 10
-388.323
 20
840.885
 30
0.000000
  70
    32
  0
VERTEX
  8
0
  5
E5C9
 10
-388.315
 20
840.888
 30
0.000000
  70
    32
  0
VERTEX
  8
0
  5
E5CA
 10
-388.307
 20
840.891
 30
0.000000
  70
    32
  0
VERTEX
  8
0
  5
E5CB
 10
-388.299
 20
840.894
 30
0.000000
  70
    32
  0
VERTEX
  8
0
  5
E5CC
 10
-388.290
 20
840.896
 30
0.000000
  70
    32
  0
VERTEX
  8
0
  5
E5CD
 10
-388.282
 20
840.899
 30
0.000000
  70
    32
  0
VERTEX
  8
0
  5
E5CE
 10
-388.274
 20
840.902
 30
0.000000
  70
    32
  0
VERTEX
  8
0
  5
E5CF
 10
-388.265
 20
840.904
 30
0.000000
  70
    32
  0
VERTEX
  8
0
  5
E5D0
 10
-388.257
 20
840.906
 30
0.000000
  70
    32
  0
VERTEX
  8
0
  5
E5D1
 10
-388.249
 20
840.909
 30
0.000000
  70
    32
  0
VERTEX
  8
0
  5
E5D2
 10
-388.240
 20
840.911
 30
0.000000
  70
    32
  0
VERTEX
  8
0
  5
E5D3
 10
-388.232
 20
840.913
 30
0.000000
  70
    32
  0
VERTEX
  8
0
  5
E5D4
 10
-388.223
 20
840.915
 30
0.000000
  70
    32
  0
VERTEX
  8
0
  5
E5D5
 10
-388.215
 20
840.917
 30
0.000000
  70
    32
  0
VERTEX
  8
0
  5
E5D6
 10
-388.206
 20
840.918
 30
0.000000
  70
    32
  0
VERTEX
  8
0
  5
E5D7
 10
-388.198
 20
840.920
 30
0.000000
  70
    32
  0
VERTEX
  8
0
  5
E5D8
 10
-388.189
 20
840.922
 30
0.000000
  70
    32
  0
VERTEX
  8
0
  5
E5D9
 10
-388.181
 20
840.923
 30
0.000000
  70
    32
  0
VERTEX
  8
0
  5
E5DA
 10
-388.172
 20
840.925
 30
0.000000
  70
    32
  0
VERTEX
  8
0
  5
E5DB
 10
-388.164
 20
840.926
 30
0.000000
  70
    32
  0
VERTEX
  8
0
  5
E5DC
 10
-388.155
 20
840.927
 30
0.000000
  70
    32
  0
VERTEX
  8
0
  5
E5DD
 10
-388.147
 20
840.928
 30
0.000000
  70
    32
  0
VERTEX
  8
0
  5
E5DE
 10
-388.138
 20
840.930
 30
0.000000
  70
    32
  0
VERTEX
  8
0
  5
E5DF
 10
-388.129
 20
840.930
 30
0.000000
  70
    32
  0
VERTEX
  8
0
  5
E5E0
 10
-388.121
 20
840.931
 30
0.000000
  70
    32
  0
VERTEX
  8
0
  5
E5E1
 10
-388.112
 20
840.932
 30
0.000000
  70
    32
  0
VERTEX
  8
0
  5
E5E2
 10
-388.104
 20
840.933
 30
0.000000
  70
    32
  0
VERTEX
  8
0
  5
E5E3
 10
-388.095
 20
840.933
 30
0.000000
  70
    32
  0
VERTEX
  8
0
  5
E5E4
 10
-388.086
 20
840.934
 30
0.000000
  70
    32
  0
VERTEX
  8
0
  5
E5E5
 10
-388.078
 20
840.934
 30
0.000000
  70
    32
  0
VERTEX
  8
0
  5
E5E6
 10
-388.069
 20
840.935
 30
0.000000
  70
    32
  0
VERTEX
  8
0
  5
E5E7
 10
-388.060
 20
840.935
 30
0.000000
  70
    32
  0
VERTEX
  8
0
  5
E5E8
 10
-388.052
 20
840.935
 30
0.000000
  70
    32
  0
VERTEX
  8
0
  5
E5E9
 10
-388.043
 20
840.935
 30
0.000000
  70
    32
  0
VERTEX
  8
0
  5
E5EA
 10
-388.034
 20
840.935
 30
0.000000
  70
    32
  0
VERTEX
  8
0
  5
E5EB
 10
-388.026
 20
840.935
 30
0.000000
  70
    32
  0
VERTEX
  8
0
  5
E5EC
 10
-388.017
 20
840.935
 30
0.000000
  70
    32
  0
VERTEX
  8
0
  5
E5ED
 10
-388.008
 20
840.935
 30
0.000000
  70
    32
  0
VERTEX
  8
0
  5
E5EE
 10
-388.000
 20
840.934
 30
0.000000
  70
    32
  0
VERTEX
  8
0
  5
E5EF
 10
-387.991
 20
840.934
 30
0.000000
  70
    32
  0
VERTEX
  8
0
  5
E5F0
 10
-387.982
 20
840.933
 30
0.000000
  70
    32
  0
VERTEX
  8
0
  5
E5F1
 10
-387.974
 20
840.933
 30
0.000000
  70
    32
  0
VERTEX
  8
0
  5
E5F2
 10
-387.965
 20
840.932
 30
0.000000
  70
    32
  0
VERTEX
  8
0
  5
E5F3
 10
-387.957
 20
840.931
 30
0.000000
  70
    32
  0
VERTEX
  8
0
  5
E5F4
 10
-387.948
 20
840.930
 30
0.000000
  70
    32
  0
VERTEX
  8
0
  5
E5F5
 10
-387.939
 20
840.929
 30
0.000000
  70
    32
  0
VERTEX
  8
0
  5
E5F6
 10
-387.931
 20
840.928
 30
0.000000
  70
    32
  0
VERTEX
  8
0
  5
E5F7
 10
-387.922
 20
840.927
 30
0.000000
  70
    32
  0
VERTEX
  8
0
  5
E5F8
 10
-387.914
 20
840.926
 30
0.000000
  70
    32
  0
VERTEX
  8
0
  5
E5F9
 10
-387.905
 20
840.925
 30
0.000000
  70
    32
  0
VERTEX
  8
0
  5
E5FA
 10
-387.896
 20
840.923
 30
0.000000
  70
    32
  0
VERTEX
  8
0
  5
E5FB
 10
-387.888
 20
840.922
 30
0.000000
  70
    32
  0
VERTEX
  8
0
  5
E5FC
 10
-387.879
 20
840.920
 30
0.000000
  70
    32
  0
VERTEX
  8
0
  5
E5FD
 10
-387.871
 20
840.919
 30
0.000000
  70
    32
  0
VERTEX
  8
0
  5
E5FE
 10
-387.862
 20
840.917
 30
0.000000
  70
    32
  0
VERTEX
  8
0
  5
E5FF
 10
-387.854
 20
840.915
 30
0.000000
  70
    32
  0
VERTEX
  8
0
  5
E600
 10
-387.846
 20
840.913
 30
0.000000
  70
    32
  0
VERTEX
  8
0
  5
E601
 10
-387.837
 20
840.911
 30
0.000000
  70
    32
  0
VERTEX
  8
0
  5
E602
 10
-387.829
 20
840.909
 30
0.000000
  70
    32
  0
VERTEX
  8
0
  5
E603
 10
-387.820
 20
840.907
 30
0.000000
  70
    32
  0
VERTEX
  8
0
  5
E604
 10
-387.812
 20
840.905
 30
0.000000
  70
    32
  0
VERTEX
  8
0
  5
E605
 10
-387.804
 20
840.902
 30
0.000000
  70
    32
  0
VERTEX
  8
0
  5
E606
 10
-387.795
 20
840.900
 30
0.000000
  70
    32
  0
VERTEX
  8
0
  5
E607
 10
-387.787
 20
840.897
 30
0.000000
  70
    32
  0
VERTEX
  8
0
  5
E608
 10
-387.779
 20
840.895
 30
0.000000
  70
    32
  0
VERTEX
  8
0
  5
E609
 10
-387.771
 20
840.892
 30
0.000000
  70
    32
  0
VERTEX
  8
0
  5
E60A
 10
-387.762
 20
840.889
 30
0.000000
  70
    32
  0
VERTEX
  8
0
  5
E60B
 10
-387.754
 20
840.886
 30
0.000000
  70
    32
  0
VERTEX
  8
0
  5
E60C
 10
-387.746
 20
840.884
 30
0.000000
  70
    32
  0
VERTEX
  8
0
  5
E60D
 10
-387.738
 20
840.881
 30
0.000000
  70
    32
  0
VERTEX
  8
0
  5
E60E
 10
-387.730
 20
840.877
 30
0.000000
  70
    32
  0
VERTEX
  8
0
  5
E60F
 10
-387.722
 20
840.874
 30
0.000000
  70
    32
  0
VERTEX
  8
0
  5
E610
 10
-387.714
 20
840.871
 30
0.000000
  70
    32
  0
VERTEX
  8
0
  5
E611
 10
-387.706
 20
840.868
 30
0.000000
  70
    32
  0
VERTEX
  8
0
  5
E612
 10
-387.698
 20
840.864
 30
0.000000
  70
    32
  0
VERTEX
  8
0
  5
E613
 10
-387.690
 20
840.861
 30
0.000000
  70
    32
  0
VERTEX
  8
0
  5
E614
 10
-387.682
 20
840.857
 30
0.000000
  70
    32
  0
VERTEX
  8
0
  5
E615
 10
-387.674
 20
840.854
 30
0.000000
  70
    32
  0
VERTEX
  8
0
  5
E616
 10
-387.666
 20
840.850
 30
0.000000
  70
    32
  0
VERTEX
  8
0
  5
E617
 10
-387.659
 20
840.846
 30
0.000000
  70
    32
  0
VERTEX
  8
0
  5
E618
 10
-387.651
 20
840.842
 30
0.000000
  70
    32
  0
VERTEX
  8
0
  5
E619
 10
-387.643
 20
840.838
 30
0.000000
  70
    32
  0
VERTEX
  8
0
  5
E61A
 10
-387.636
 20
840.834
 30
0.000000
  70
    32
  0
VERTEX
  8
0
  5
E61B
 10
-387.628
 20
840.830
 30
0.000000
  70
    32
  0
VERTEX
  8
0
  5
E61C
 10
-387.620
 20
840.826
 30
0.000000
  70
    32
  0
VERTEX
  8
0
  5
E61D
 10
-387.613
 20
840.822
 30
0.000000
  70
    32
  0
VERTEX
  8
0
  5
E61E
 10
-387.605
 20
840.817
 30
0.000000
  70
    32
  0
VERTEX
  8
0
  5
E61F
 10
-387.598
 20
840.813
 30
0.000000
  70
    32
  0
VERTEX
  8
0
  5
E620
 10
-387.591
 20
840.808
 30
0.000000
  70
    32
  0
VERTEX
  8
0
  5
E621
 10
-387.583
 20
840.804
 30
0.000000
  70
    32
  0
VERTEX
  8
0
  5
E622
 10
-387.576
 20
840.799
 30
0.000000
  70
    32
  0
VERTEX
  8
0
  5
E623
 10
-387.569
 20
840.794
 30
0.000000
  70
    32
  0
VERTEX
  8
0
  5
E624
 10
-387.562
 20
840.790
 30
0.000000
  70
    32
  0
VERTEX
  8
0
  5
E625
 10
-387.555
 20
840.785
 30
0.000000
  70
    32
  0
VERTEX
  8
0
  5
E626
 10
-387.548
 20
840.780
 30
0.000000
  70
    32
  0
VERTEX
  8
0
  5
E627
 10
-387.541
 20
840.775
 30
0.000000
  70
    32
  0
VERTEX
  8
0
  5
E628
 10
-387.534
 20
840.770
 30
0.000000
  70
    32
  0
VERTEX
  8
0
  5
E629
 10
-387.527
 20
840.764
 30
0.000000
  70
    32
  0
VERTEX
  8
0
  5
E62A
 10
-387.520
 20
840.759
 30
0.000000
  70
    32
  0
VERTEX
  8
0
  5
E62B
 10
-387.513
 20
840.754
 30
0.000000
  70
    32
  0
VERTEX
  8
0
  5
E62C
 10
-387.506
 20
840.748
 30
0.000000
  70
    32
  0
VERTEX
  8
0
  5
E62D
 10
-387.500
 20
840.743
 30
0.000000
  70
    32
  0
VERTEX
  8
0
  5
E62E
 10
-387.493
 20
840.737
 30
0.000000
  70
    32
  0
VERTEX
  8
0
  5
E62F
 10
-387.487
 20
840.732
 30
0.000000
  70
    32
  0
VERTEX
  8
0
  5
E630
 10
-387.480
 20
840.726
 30
0.000000
  70
    32
  0
VERTEX
  8
0
  5
E631
 10
-387.474
 20
840.720
 30
0.000000
  70
    32
  0
VERTEX
  8
0
  5
E632
 10
-387.467
 20
840.715
 30
0.000000
  70
    32
  0
VERTEX
  8
0
  5
E633
 10
-387.461
 20
840.709
 30
0.000000
  70
    32
  0
VERTEX
  8
0
  5
E634
 10
-387.455
 20
840.703
 30
0.000000
  70
    32
  0
VERTEX
  8
0
  5
E635
 10
-387.449
 20
840.697
 30
0.000000
  70
    32
  0
VERTEX
  8
0
  5
E636
 10
-387.443
 20
840.691
 30
0.000000
  70
    32
  0
VERTEX
  8
0
  5
E637
 10
-387.437
 20
840.684
 30
0.000000
  70
    32
  0
VERTEX
  8
0
  5
E638
 10
-387.431
 20
840.678
 30
0.000000
  70
    32
  0
VERTEX
  8
0
  5
E639
 10
-387.425
 20
840.672
 30
0.000000
  70
    32
  0
VERTEX
  8
0
  5
E63A
 10
-387.419
 20
840.665
 30
0.000000
  70
    32
  0
VERTEX
  8
0
  5
E63B
 10
-387.413
 20
840.659
 30
0.000000
  70
    32
  0
VERTEX
  8
0
  5
E63C
 10
-387.408
 20
840.653
 30
0.000000
  70
    32
  0
VERTEX
  8
0
  5
E63D
 10
-387.402
 20
840.646
 30
0.000000
  70
    32
  0
VERTEX
  8
0
  5
E63E
 10
-387.397
 20
840.639
 30
0.000000
  70
    32
  0
VERTEX
  8
0
  5
E63F
 10
-387.391
 20
840.633
 30
0.000000
  70
    32
  0
VERTEX
  8
0
  5
E640
 10
-387.386
 20
840.626
 30
0.000000
  70
    32
  0
VERTEX
  8
0
  5
E641
 10
-387.381
 20
840.619
 30
0.000000
  70
    32
  0
VERTEX
  8
0
  5
E642
 10
-387.375
 20
840.612
 30
0.000000
  70
    32
  0
VERTEX
  8
0
  5
E643
 10
-387.370
 20
840.605
 30
0.000000
  70
    32
  0
VERTEX
  8
0
  5
E644
 10
-387.365
 20
840.598
 30
0.000000
  70
    32
  0
VERTEX
  8
0
  5
E645
 10
-387.360
 20
840.591
 30
0.000000
  70
    32
  0
VERTEX
  8
0
  5
E646
 10
-387.355
 20
840.584
 30
0.000000
  70
    32
  0
VERTEX
  8
0
  5
E647
 10
-387.351
 20
840.577
 30
0.000000
  70
    32
  0
VERTEX
  8
0
  5
E648
 10
-387.346
 20
840.569
 30
0.000000
  70
    32
  0
VERTEX
  8
0
  5
E649
 10
-387.341
 20
840.562
 30
0.000000
  70
    32
  0
VERTEX
  8
0
  5
E64A
 10
-387.337
 20
840.555
 30
0.000000
  70
    32
  0
VERTEX
  8
0
  5
E64B
 10
-387.332
 20
840.547
 30
0.000000
  70
    32
  0
VERTEX
  8
0
  5
E64C
 10
-387.328
 20
840.540
 30
0.000000
  70
    32
  0
VERTEX
  8
0
  5
E64D
 10
-387.324
 20
840.532
 30
0.000000
  70
    32
  0
VERTEX
  8
0
  5
E64E
 10
-387.319
 20
840.525
 30
0.000000
  70
    32
  0
VERTEX
  8
0
  5
E64F
 10
-387.315
 20
840.517
 30
0.000000
  70
    32
  0
VERTEX
  8
0
  5
E650
 10
-387.311
 20
840.509
 30
0.000000
  70
    32
  0
VERTEX
  8
0
  5
E651
 10
-387.307
 20
840.501
 30
0.000000
  70
    32
  0
VERTEX
  8
0
  5
E652
 10
-387.304
 20
840.494
 30
0.000000
  70
    32
  0
VERTEX
  8
0
  5
E653
 10
-387.300
 20
840.486
 30
0.000000
  70
    32
  0
VERTEX
  8
0
  5
E654
 10
-387.296
 20
840.478
 30
0.000000
  70
    32
  0
VERTEX
  8
0
  5
E655
 10
-387.293
 20
840.470
 30
0.000000
  70
    32
  0
VERTEX
  8
0
  5
E656
 10
-387.289
 20
840.462
 30
0.000000
  70
    32
  0
VERTEX
  8
0
  5
E657
 10
-387.286
 20
840.454
 30
0.000000
  70
    32
  0
VERTEX
  8
0
  5
E658
 10
-387.283
 20
840.446
 30
0.000000
  70
    32
  0
VERTEX
  8
0
  5
E659
 10
-387.280
 20
840.438
 30
0.000000
  70
    32
  0
VERTEX
  8
0
  5
E65A
 10
-387.277
 20
840.430
 30
0.000000
  70
    32
  0
VERTEX
  8
0
  5
E65B
 10
-387.274
 20
840.422
 30
0.000000
  70
    32
  0
VERTEX
  8
0
  5
E65C
 10
-387.271
 20
840.413
 30
0.000000
  70
    32
  0
VERTEX
  8
0
  5
E65D
 10
-387.268
 20
840.405
 30
0.000000
  70
    32
  0
VERTEX
  8
0
  5
E65E
 10
-387.265
 20
840.397
 30
0.000000
  70
    32
  0
VERTEX
  8
0
  5
E65F
 10
-387.263
 20
840.389
 30
0.000000
  70
    32
  0
VERTEX
  8
0
  5
E660
 10
-387.261
 20
840.380
 30
0.000000
  70
    32
  0
VERTEX
  8
0
  5
E661
 10
-387.258
 20
840.372
 30
0.000000
  70
    32
  0
VERTEX
  8
0
  5
E662
 10
-387.256
 20
840.364
 30
0.000000
  70
    32
  0
VERTEX
  8
0
  5
E663
 10
-387.254
 20
840.355
 30
0.000000
  70
    32
  0
VERTEX
  8
0
  5
E664
 10
-387.252
 20
840.347
 30
0.000000
  70
    32
  0
VERTEX
  8
0
  5
E665
 10
-387.250
 20
840.338
 30
0.000000
  70
    32
  0
VERTEX
  8
0
  5
E666
 10
-387.248
 20
840.330
 30
0.000000
  70
    32
  0
VERTEX
  8
0
  5
E667
 10
-387.247
 20
840.322
 30
0.000000
  70
    32
  0
VERTEX
  8
0
  5
E668
 10
-387.245
 20
840.313
 30
0.000000
  70
    32
  0
VERTEX
  8
0
  5
E669
 10
-387.244
 20
840.304
 30
0.000000
  70
    32
  0
VERTEX
  8
0
  5
E66A
 10
-387.242
 20
840.296
 30
0.000000
  70
    32
  0
VERTEX
  8
0
  5
E66B
 10
-387.241
 20
840.287
 30
0.000000
  70
    32
  0
VERTEX
  8
0
  5
E66C
 10
-387.240
 20
840.279
 30
0.000000
  70
    32
  0
VERTEX
  8
0
  5
E66D
 10
-387.239
 20
840.270
 30
0.000000
  70
    32
  0
VERTEX
  8
0
  5
E66E
 10
-387.238
 20
840.262
 30
0.000000
  70
    32
  0
VERTEX
  8
0
  5
E66F
 10
-387.238
 20
840.253
 30
0.000000
  70
    32
  0
VERTEX
  8
0
  5
E670
 10
-387.237
 20
840.244
 30
0.000000
  70
    32
  0
VERTEX
  8
0
  5
E671
 10
-387.236
 20
840.236
 30
0.000000
  70
    32
  0
VERTEX
  8
0
  5
E672
 10
-387.236
 20
840.227
 30
0.000000
  70
    32
  0
VERTEX
  8
0
  5
E673
 10
-387.236
 20
840.218
 30
0.000000
  70
    32
  0
VERTEX
  8
0
  5
E674
 10
-387.236
 20
840.210
 30
0.000000
  70
    32
  0
VERTEX
  8
0
  5
E675
 10
-387.236
 20
840.201
 30
0.000000
  70
    32
  0
VERTEX
  8
0
  5
E676
 10
-387.236
 20
840.192
 30
0.000000
  70
    32
  0
VERTEX
  8
0
  5
E677
 10
-387.236
 20
840.184
 30
0.000000
  70
    32
  0
VERTEX
  8
0
  5
E678
 10
-387.237
 20
840.175
 30
0.000000
  70
    32
  0
VERTEX
  8
0
  5
E679
 10
-387.237
 20
840.166
 30
0.000000
  70
    32
  0
VERTEX
  8
0
  5
E67A
 10
-387.238
 20
840.158
 30
0.000000
  70
    32
  0
VERTEX
  8
0
  5
E67B
 10
-387.238
 20
840.149
 30
0.000000
  70
    32
  0
VERTEX
  8
0
  5
E67C
 10
-387.239
 20
840.140
 30
0.000000
  70
    32
  0
VERTEX
  8
0
  5
E67D
 10
-387.240
 20
840.132
 30
0.000000
  70
    32
  0
VERTEX
  8
0
  5
E67E
 10
-387.241
 20
840.123
 30
0.000000
  70
    32
  0
VERTEX
  8
0
  5
E67F
 10
-387.242
 20
840.115
 30
0.000000
  70
    32
  0
VERTEX
  8
0
  5
E680
 10
-387.244
 20
840.106
 30
0.000000
  70
    32
  0
VERTEX
  8
0
  5
E681
 10
-387.245
 20
840.097
 30
0.000000
  70
    32
  0
VERTEX
  8
0
  5
E682
 10
-387.247
 20
840.089
 30
0.000000
  70
    32
  0
VERTEX
  8
0
  5
E683
 10
-387.248
 20
840.080
 30
0.000000
  70
    32
  0
VERTEX
  8
0
  5
E684
 10
-387.250
 20
840.072
 30
0.000000
  70
    32
  0
VERTEX
  8
0
  5
E685
 10
-387.252
 20
840.063
 30
0.000000
  70
    32
  0
VERTEX
  8
0
  5
E686
 10
-387.254
 20
840.055
 30
0.000000
  70
    32
  0
VERTEX
  8
0
  5
E687
 10
-387.256
 20
840.046
 30
0.000000
  70
    32
  0
VERTEX
  8
0
  5
E688
 10
-387.259
 20
840.038
 30
0.000000
  70
    32
  0
VERTEX
  8
0
  5
E689
 10
-387.261
 20
840.030
 30
0.000000
  70
    32
  0
VERTEX
  8
0
  5
E68A
 10
-387.263
 20
840.021
 30
0.000000
  70
    32
  0
VERTEX
  8
0
  5
E68B
 10
-387.266
 20
840.013
 30
0.000000
  70
    32
  0
VERTEX
  8
0
  5
E68C
 10
-387.269
 20
840.005
 30
0.000000
  70
    32
  0
VERTEX
  8
0
  5
E68D
 10
-387.271
 20
839.997
 30
0.000000
  70
    32
  0
VERTEX
  8
0
  5
E68E
 10
-387.274
 20
839.988
 30
0.000000
  70
    32
  0
VERTEX
  8
0
  5
E68F
 10
-387.277
 20
839.980
 30
0.000000
  70
    32
  0
VERTEX
  8
0
  5
E690
 10
-387.280
 20
839.972
 30
0.000000
  70
    32
  0
VERTEX
  8
0
  5
E691
 10
-387.284
 20
839.964
 30
0.000000
  70
    32
  0
VERTEX
  8
0
  5
E692
 10
-387.287
 20
839.956
 30
0.000000
  70
    32
  0
VERTEX
  8
0
  5
E693
 10
-387.290
 20
839.948
 30
0.000000
  70
    32
  0
VERTEX
  8
0
  5
E694
 10
-387.294
 20
839.941
 30
0.000000
  70
    32
  0
VERTEX
  8
0
  5
E695
 10
-387.298
 20
839.933
 30
0.000000
  70
    32
  0
VERTEX
  8
0
  5
E696
 10
-387.301
 20
839.925
 30
0.000000
  70
    32
  0
VERTEX
  8
0
  5
E697
 10
-387.305
 20
839.917
 30
0.000000
  70
    32
  0
VERTEX
  8
0
  5
E698
 10
-387.309
 20
839.910
 30
0.000000
  70
    32
  0
VERTEX
  8
0
  5
E699
 10
-387.313
 20
839.902
 30
0.000000
  70
    32
  0
VERTEX
  8
0
  5
E69A
 10
-387.317
 20
839.895
 30
0.000000
  70
    32
  0
VERTEX
  8
0
  5
E69B
 10
-387.322
 20
839.887
 30
0.000000
  70
    32
  0
VERTEX
  8
0
  5
E69C
 10
-387.326
 20
839.880
 30
0.000000
  70
    32
  0
VERTEX
  8
0
  5
E69D
 10
-387.330
 20
839.873
 30
0.000000
  70
    32
  0
VERTEX
  8
0
  5
E69E
 10
-387.335
 20
839.866
 30
0.000000
  70
    32
  0
VERTEX
  8
0
  5
E69F
 10
-387.340
 20
839.859
 30
0.000000
  70
    32
  0
VERTEX
  8
0
  5
E6A0
 10
-387.344
 20
839.851
 30
0.000000
  70
    32
  0
VERTEX
  8
0
  5
E6A1
 10
-387.349
 20
839.845
 30
0.000000
  70
    32
  0
VERTEX
  8
0
  5
E6A2
 10
-387.354
 20
839.838
 30
0.000000
  70
    32
  0
VERTEX
  8
0
  5
E6A3
 10
-387.359
 20
839.831
 30
0.000000
  70
    32
  0
VERTEX
  8
0
  5
E6A4
 10
-387.364
 20
839.824
 30
0.000000
  70
    32
  0
VERTEX
  8
0
  5
E6A5
 10
-387.370
 20
839.817
 30
0.000000
  70
    32
  0
VERTEX
  8
0
  5
E6A6
 10
-387.375
 20
839.811
 30
0.000000
  70
    32
  0
VERTEX
  8
0
  5
E6A7
 10
-387.380
 20
839.804
 30
0.000000
  70
    32
  0
VERTEX
  8
0
  5
E6A8
 10
-387.386
 20
839.798
 30
0.000000
  70
    32
  0
VERTEX
  8
0
  5
E6A9
 10
-387.391
 20
839.791
 30
0.000000
  70
    32
  0
VERTEX
  8
0
  5
E6AA
 10
-387.397
 20
839.785
 30
0.000000
  70
    32
  0
VERTEX
  8
0
  5
E6AB
 10
-387.402
 20
839.778
 30
0.000000
  70
    32
  0
VERTEX
  8
0
  5
E6AC
 10
-387.408
 20
839.772
 30
0.000000
  70
    32
  0
VERTEX
  8
0
  5
E6AD
 10
-387.413
 20
839.766
 30
0.000000
  70
    32
  0
VERTEX
  8
0
  5
E6AE
 10
-387.419
 20
839.759
 30
0.000000
  70
    32
  0
VERTEX
  8
0
  5
E6AF
 10
-387.425
 20
839.753
 30
0.000000
  70
    32
  0
VERTEX
  8
0
  5
E6B0
 10
-387.431
 20
839.747
 30
0.000000
  70
    32
  0
VERTEX
  8
0
  5
E6B1
 10
-387.436
 20
839.741
 30
0.000000
  70
    32
  0
VERTEX
  8
0
  5
E6B2
 10
-387.442
 20
839.734
 30
0.000000
  70
    32
  0
VERTEX
  8
0
  5
E6B3
 10
-387.448
 20
839.728
 30
0.000000
  70
    32
  0
VERTEX
  8
0
  5
E6B4
 10
-387.454
 20
839.722
 30
0.000000
  70
    32
  0
VERTEX
  8
0
  5
E6B5
 10
-387.460
 20
839.716
 30
0.000000
  70
    32
  0
VERTEX
  8
0
  5
E6B6
 10
-387.466
 20
839.710
 30
0.000000
  70
    32
  0
VERTEX
  8
0
  5
E6B7
 10
-387.472
 20
839.703
 30
0.000000
  70
    32
  0
VERTEX
  8
0
  5
E6B8
 10
-387.477
 20
839.697
 30
0.000000
  70
    32
  0
VERTEX
  8
0
  5
E6B9
 10
-387.483
 20
839.691
 30
0.000000
  70
    32
  0
VERTEX
  8
0
  5
E6BA
 10
-387.489
 20
839.685
 30
0.000000
  70
    32
  0
VERTEX
  8
0
  5
E6BB
 10
-387.495
 20
839.679
 30
0.000000
  70
    32
  0
VERTEX
  8
0
  5
E6BC
 10
-387.501
 20
839.672
 30
0.000000
  70
    32
  0
VERTEX
  8
0
  5
E6BD
 10
-387.507
 20
839.666
 30
0.000000
  70
    32
  0
VERTEX
  8
0
  5
E6BE
 10
-387.512
 20
839.660
 30
0.000000
  70
    32
  0
VERTEX
  8
0
  5
E6BF
 10
-387.518
 20
839.653
 30
0.000000
  70
    32
  0
VERTEX
  8
0
  5
E6C0
 10
-387.524
 20
839.647
 30
0.000000
  70
    32
  0
VERTEX
  8
0
  5
E6C1
 10
-387.529
 20
839.641
 30
0.000000
  70
    32
  0
VERTEX
  8
0
  5
E6C2
 10
-387.535
 20
839.634
 30
0.000000
  70
    32
  0
VERTEX
  8
0
  5
E6C3
 10
-387.541
 20
839.628
 30
0.000000
  70
    32
  0
VERTEX
  8
0
  5
E6C4
 10
-387.546
 20
839.621
 30
0.000000
  70
    32
  0
VERTEX
  8
0
  5
E6C5
 10
-387.552
 20
839.614
 30
0.000000
  70
    32
  0
VERTEX
  8
0
  5
E6C6
 10
-387.557
 20
839.608
 30
0.000000
  70
    32
  0
VERTEX
  8
0
  5
E6C7
 10
-387.562
 20
839.601
 30
0.000000
  70
    32
  0
VERTEX
  8
0
  5
E6C8
 10
-387.568
 20
839.594
 30
0.000000
  70
    32
  0
VERTEX
  8
0
  5
E6C9
 10
-387.573
 20
839.587
 30
0.000000
  70
    32
  0
VERTEX
  8
0
  5
E6CA
 10
-387.578
 20
839.580
 30
0.000000
  70
    32
  0
VERTEX
  8
0
  5
E6CB
 10
-387.583
 20
839.573
 30
0.000000
  70
    32
  0
VERTEX
  8
0
  5
E6CC
 10
-387.588
 20
839.566
 30
0.000000
  70
    32
  0
VERTEX
  8
0
  5
E6CD
 10
-387.593
 20
839.559
 30
0.000000
  70
    32
  0
VERTEX
  8
0
  5
E6CE
 10
-387.598
 20
839.552
 30
0.000000
  70
    32
  0
VERTEX
  8
0
  5
E6CF
 10
-387.602
 20
839.545
 30
0.000000
  70
    32
  0
VERTEX
  8
0
  5
E6D0
 10
-387.607
 20
839.538
 30
0.000000
  70
    32
  0
VERTEX
  8
0
  5
E6D1
 10
-387.612
 20
839.530
 30
0.000000
  70
    32
  0
VERTEX
  8
0
  5
E6D2
 10
-387.616
 20
839.523
 30
0.000000
  70
    32
  0
VERTEX
  8
0
  5
E6D3
 10
-387.620
 20
839.515
 30
0.000000
  70
    32
  0
VERTEX
  8
0
  5
E6D4
 10
-387.625
 20
839.508
 30
0.000000
  70
    32
  0
VERTEX
  8
0
  5
E6D5
 10
-387.629
 20
839.500
 30
0.000000
  70
    32
  0
VERTEX
  8
0
  5
E6D6
 10
-387.633
 20
839.493
 30
0.000000
  70
    32
  0
VERTEX
  8
0
  5
E6D7
 10
-387.637
 20
839.485
 30
0.000000
  70
    32
  0
VERTEX
  8
0
  5
E6D8
 10
-387.641
 20
839.477
 30
0.000000
  70
    32
  0
VERTEX
  8
0
  5
E6D9
 10
-387.645
 20
839.470
 30
0.000000
  70
    32
  0
VERTEX
  8
0
  5
E6DA
 10
-387.648
 20
839.462
 30
0.000000
  70
    32
  0
VERTEX
  8
0
  5
E6DB
 10
-387.652
 20
839.454
 30
0.000000
  70
    32
  0
VERTEX
  8
0
  5
E6DC
 10
-387.655
 20
839.446
 30
0.000000
  70
    32
  0
VERTEX
  8
0
  5
E6DD
 10
-387.659
 20
839.438
 30
0.000000
  70
    32
  0
VERTEX
  8
0
  5
E6DE
 10
-387.662
 20
839.430
 30
0.000000
  70
    32
  0
VERTEX
  8
0
  5
E6DF
 10
-387.665
 20
839.422
 30
0.000000
  70
    32
  0
VERTEX
  8
0
  5
E6E0
 10
-387.668
 20
839.414
 30
0.000000
  70
    32
  0
VERTEX
  8
0
  5
E6E1
 10
-387.671
 20
839.406
 30
0.000000
  70
    32
  0
VERTEX
  8
0
  5
E6E2
 10
-387.674
 20
839.398
 30
0.000000
  70
    32
  0
VERTEX
  8
0
  5
E6E3
 10
-387.676
 20
839.390
 30
0.000000
  70
    32
  0
VERTEX
  8
0
  5
E6E4
 10
-387.679
 20
839.382
 30
0.000000
  70
    32
  0
VERTEX
  8
0
  5
E6E5
 10
-387.681
 20
839.374
 30
0.000000
  70
    32
  0
VERTEX
  8
0
  5
E6E6
 10
-387.684
 20
839.365
 30
0.000000
  70
    32
  0
VERTEX
  8
0
  5
E6E7
 10
-387.686
 20
839.357
 30
0.000000
  70
    32
  0
VERTEX
  8
0
  5
E6E8
 10
-387.688
 20
839.349
 30
0.000000
  70
    32
  0
VERTEX
  8
0
  5
E6E9
 10
-387.690
 20
839.341
 30
0.000000
  70
    32
  0
VERTEX
  8
0
  5
E6EA
 10
-387.691
 20
839.332
 30
0.000000
  70
    32
  0
VERTEX
  8
0
  5
E6EB
 10
-387.693
 20
839.324
 30
0.000000
  70
    32
  0
VERTEX
  8
0
  5
E6EC
 10
-387.694
 20
839.316
 30
0.000000
  70
    32
  0
VERTEX
  8
0
  5
E6ED
 10
-387.696
 20
839.307
 30
0.000000
  70
    32
  0
VERTEX
  8
0
  5
E6EE
 10
-387.697
 20
839.299
 30
0.000000
  70
    32
  0
VERTEX
  8
0
  5
E6EF
 10
-387.698
 20
839.290
 30
0.000000
  70
    32
  0
VERTEX
  8
0
  5
E6F0
 10
-387.699
 20
839.282
 30
0.000000
  70
    32
  0
VERTEX
  8
0
  5
E6F1
 10
-387.700
 20
839.273
 30
0.000000
  70
    32
  0
VERTEX
  8
0
  5
E6F2
 10
-387.701
 20
839.265
 30
0.000000
  70
    32
  0
VERTEX
  8
0
  5
E6F3
 10
-387.701
 20
839.256
 30
0.000000
  70
    32
  0
VERTEX
  8
0
  5
E6F4
 10
-387.702
 20
839.248
 30
0.000000
  70
    32
  0
VERTEX
  8
0
  5
E6F5
 10
-387.702
 20
839.239
 30
0.000000
  70
    32
  0
VERTEX
  8
0
  5
E6F6
 10
-387.702
 20
839.231
 30
0.000000
  70
    32
  0
VERTEX
  8
0
  5
E6F7
 10
-387.702
 20
839.222
 30
0.000000
  70
    32
  0
VERTEX
  8
0
  5
E6F8
 10
-387.702
 20
839.214
 30
0.000000
  70
    32
  0
VERTEX
  8
0
  5
E6F9
 10
-387.702
 20
839.205
 30
0.000000
  70
    32
  0
VERTEX
  8
0
  5
E6FA
 10
-387.701
 20
839.197
 30
0.000000
  70
    32
  0
VERTEX
  8
0
  5
E6FB
 10
-387.701
 20
839.188
 30
0.000000
  70
    32
  0
VERTEX
  8
0
  5
E6FC
 10
-387.700
 20
839.179
 30
0.000000
  70
    32
  0
VERTEX
  8
0
  5
E6FD
 10
-387.700
 20
839.171
 30
0.000000
  70
    32
  0
VERTEX
  8
0
  5
E6FE
 10
-387.699
 20
839.162
 30
0.000000
  70
    32
  0
VERTEX
  8
0
  5
E6FF
 10
-387.698
 20
839.154
 30
0.000000
  70
    32
  0
VERTEX
  8
0
  5
E700
 10
-387.697
 20
839.145
 30
0.000000
  70
    32
  0
VERTEX
  8
0
  5
E701
 10
-387.696
 20
839.137
 30
0.000000
  70
    32
  0
VERTEX
  8
0
  5
E702
 10
-387.695
 20
839.128
 30
0.000000
  70
    32
  0
VERTEX
  8
0
  5
E703
 10
-387.693
 20
839.120
 30
0.000000
  70
    32
  0
VERTEX
  8
0
  5
E704
 10
-387.692
 20
839.111
 30
0.000000
  70
    32
  0
VERTEX
  8
0
  5
E705
 10
-387.690
 20
839.103
 30
0.000000
  70
    32
  0
VERTEX
  8
0
  5
E706
 10
-387.689
 20
839.094
 30
0.000000
  70
    32
  0
VERTEX
  8
0
  5
E707
 10
-387.687
 20
839.086
 30
0.000000
  70
    32
  0
VERTEX
  8
0
  5
E708
 10
-387.685
 20
839.077
 30
0.000000
  70
    32
  0
VERTEX
  8
0
  5
E709
 10
-387.683
 20
839.069
 30
0.000000
  70
    32
  0
VERTEX
  8
0
  5
E70A
 10
-387.681
 20
839.060
 30
0.000000
  70
    32
  0
VERTEX
  8
0
  5
E70B
 10
-387.679
 20
839.052
 30
0.000000
  70
    32
  0
VERTEX
  8
0
  5
E70C
 10
-387.676
 20
839.043
 30
0.000000
  70
    32
  0
VERTEX
  8
0
  5
E70D
 10
-387.674
 20
839.035
 30
0.000000
  70
    32
  0
VERTEX
  8
0
  5
E70E
 10
-387.671
 20
839.027
 30
0.000000
  70
    32
  0
VERTEX
  8
0
  5
E70F
 10
-387.669
 20
839.018
 30
0.000000
  70
    32
  0
VERTEX
  8
0
  5
E710
 10
-387.666
 20
839.010
 30
0.000000
  70
    32
  0
VERTEX
  8
0
  5
E711
 10
-387.663
 20
839.002
 30
0.000000
  70
    32
  0
VERTEX
  8
0
  5
E712
 10
-387.660
 20
838.994
 30
0.000000
  70
    32
  0
VERTEX
  8
0
  5
E713
 10
-387.657
 20
838.985
 30
0.000000
  70
    32
  0
VERTEX
  8
0
  5
E714
 10
-387.654
 20
838.977
 30
0.000000
  70
    32
  0
VERTEX
  8
0
  5
E715
 10
-387.651
 20
838.969
 30
0.000000
  70
    32
  0
VERTEX
  8
0
  5
E716
 10
-387.648
 20
838.961
 30
0.000000
  70
    32
  0
VERTEX
  8
0
  5
E717
 10
-387.644
 20
838.953
 30
0.000000
  70
    32
  0
VERTEX
  8
0
  5
E718
 10
-387.641
 20
838.945
 30
0.000000
  70
    32
  0
VERTEX
  8
0
  5
E719
 10
-387.637
 20
838.937
 30
0.000000
  70
    32
  0
VERTEX
  8
0
  5
E71A
 10
-387.633
 20
838.930
 30
0.000000
  70
    32
  0
VERTEX
  8
0
  5
E71B
 10
-387.629
 20
838.922
 30
0.000000
  70
    32
  0
VERTEX
  8
0
  5
E71C
 10
-387.625
 20
838.915
 30
0.000000
  70
    32
  0
VERTEX
  8
0
  5
E71D
 10
-387.621
 20
838.907
 30
0.000000
  70
    32
  0
VERTEX
  8
0
  5
E71E
 10
-387.617
 20
838.900
 30
0.000000
  70
    32
  0
VERTEX
  8
0
  5
E71F
 10
-387.612
 20
838.893
 30
0.000000
  70
    32
  0
VERTEX
  8
0
  5
E720
 10
-387.608
 20
838.885
 30
0.000000
  70
    32
  0
VERTEX
  8
0
  5
E721
 10
-387.603
 20
838.878
 30
0.000000
  70
    32
  0
VERTEX
  8
0
  5
E722
 10
-387.598
 20
838.872
 30
0.000000
  70
    32
  0
VERTEX
  8
0
  5
E723
 10
-387.593
 20
838.865
 30
0.000000
  70
    32
  0
VERTEX
  8
0
  5
E724
 10
-387.588
 20
838.858
 30
0.000000
  70
    32
  0
VERTEX
  8
0
  5
E725
 10
-387.583
 20
838.852
 30
0.000000
  70
    32
  0
VERTEX
  8
0
  5
E726
 10
-387.577
 20
838.846
 30
0.000000
  70
    32
  0
VERTEX
  8
0
  5
E727
 10
-387.572
 20
838.839
 30
0.000000
  70
    32
  0
VERTEX
  8
0
  5
E728
 10
-387.566
 20
838.833
 30
0.000000
  70
    32
  0
VERTEX
  8
0
  5
E729
 10
-387.560
 20
838.828
 30
0.000000
  70
    32
  0
VERTEX
  8
0
  5
E72A
 10
-387.554
 20
838.822
 30
0.000000
  70
    32
  0
VERTEX
  8
0
  5
E72B
 10
-387.548
 20
838.816
 30
0.000000
  70
    32
  0
VERTEX
  8
0
  5
E72C
 10
-387.541
 20
838.811
 30
0.000000
  70
    32
  0
VERTEX
  8
0
  5
E72D
 10
-387.535
 20
838.805
 30
0.000000
  70
    32
  0
VERTEX
  8
0
  5
E72E
 10
-387.528
 20
838.800
 30
0.000000
  70
    32
  0
VERTEX
  8
0
  5
E72F
 10
-387.522
 20
838.795
 30
0.000000
  70
    32
  0
VERTEX
  8
0
  5
E730
 10
-387.515
 20
838.790
 30
0.000000
  70
    32
  0
VERTEX
  8
0
  5
E731
 10
-387.508
 20
838.785
 30
0.000000
  70
    32
  0
VERTEX
  8
0
  5
E732
 10
-387.501
 20
838.780
 30
0.000000
  70
    32
  0
VERTEX
  8
0
  5
E733
 10
-387.494
 20
838.776
 30
0.000000
  70
    32
  0
VERTEX
  8
0
  5
E734
 10
-387.487
 20
838.771
 30
0.000000
  70
    32
  0
VERTEX
  8
0
  5
E735
 10
-387.480
 20
838.766
 30
0.000000
  70
    32
  0
VERTEX
  8
0
  5
E736
 10
-387.472
 20
838.762
 30
0.000000
  70
    32
  0
VERTEX
  8
0
  5
E737
 10
-387.465
 20
838.757
 30
0.000000
  70
    32
  0
VERTEX
  8
0
  5
E738
 10
-387.458
 20
838.753
 30
0.000000
  70
    32
  0
VERTEX
  8
0
  5
E739
 10
-387.450
 20
838.749
 30
0.000000
  70
    32
  0
VERTEX
  8
0
  5
E73A
 10
-387.443
 20
838.744
 30
0.000000
  70
    32
  0
VERTEX
  8
0
  5
E73B
 10
-387.435
 20
838.740
 30
0.000000
  70
    32
  0
VERTEX
  8
0
  5
E73C
 10
-387.427
 20
838.736
 30
0.000000
  70
    32
  0
VERTEX
  8
0
  5
E73D
 10
-387.420
 20
838.732
 30
0.000000
  70
    32
  0
VERTEX
  8
0
  5
E73E
 10
-387.412
 20
838.727
 30
0.000000
  70
    32
  0
VERTEX
  8
0
  5
E73F
 10
-387.404
 20
838.723
 30
0.000000
  70
    32
  0
VERTEX
  8
0
  5
E740
 10
-387.396
 20
838.719
 30
0.000000
  70
    32
  0
VERTEX
  8
0
  5
E741
 10
-387.389
 20
838.715
 30
0.000000
  70
    32
  0
VERTEX
  8
0
  5
E742
 10
-387.381
 20
838.711
 30
0.000000
  70
    32
  0
VERTEX
  8
0
  5
E743
 10
-387.373
 20
838.707
 30
0.000000
  70
    32
  0
VERTEX
  8
0
  5
E744
 10
-387.365
 20
838.703
 30
0.000000
  70
    32
  0
VERTEX
  8
0
  5
E745
 10
-387.357
 20
838.699
 30
0.000000
  70
    32
  0
VERTEX
  8
0
  5
E746
 10
-387.350
 20
838.694
 30
0.000000
  70
    32
  0
VERTEX
  8
0
  5
E747
 10
-387.342
 20
838.690
 30
0.000000
  70
    32
  0
VERTEX
  8
0
  5
E748
 10
-387.335
 20
838.686
 30
0.000000
  70
    32
  0
VERTEX
  8
0
  5
E749
 10
-387.327
 20
838.681
 30
0.000000
  70
    32
  0
VERTEX
  8
0
  5
E74A
 10
-387.320
 20
838.676
 30
0.000000
  70
    32
  0
VERTEX
  8
0
  5
E74B
 10
-387.313
 20
838.671
 30
0.000000
  70
    32
  0
VERTEX
  8
0
  5
E74C
 10
-387.307
 20
838.666
 30
0.000000
  70
    32
  0
VERTEX
  8
0
  5
E74D
 10
-387.301
 20
838.660
 30
0.000000
  70
    32
  0
VERTEX
  8
0
  5
E74E
 10
-387.295
 20
838.655
 30
0.000000
  70
    32
  0
VERTEX
  8
0
  5
E74F
 10
-387.290
 20
838.648
 30
0.000000
  70
    32
  0
VERTEX
  8
0
  5
E750
 10
-387.285
 20
838.642
 30
0.000000
  70
    32
  0
VERTEX
  8
0
  5
E751
 10
-387.280
 20
838.635
 30
0.000000
  70
    32
  0
VERTEX
  8
0
  5
E752
 10
-387.276
 20
838.627
 30
0.000000
  70
    32
  0
VERTEX
  8
0
  5
E753
 10
-387.273
 20
838.620
 30
0.000000
  70
    32
  0
VERTEX
  8
0
  5
E754
 10
-387.269
 20
838.612
 30
0.000000
  70
    32
  0
VERTEX
  8
0
  5
E755
 10
-387.266
 20
838.604
 30
0.000000
  70
    32
  0
VERTEX
  8
0
  5
E756
 10
-387.263
 20
838.596
 30
0.000000
  70
    32
  0
VERTEX
  8
0
  5
E757
 10
-387.260
 20
838.588
 30
0.000000
  70
    32
  0
VERTEX
  8
0
  5
E758
 10
-387.257
 20
838.579
 30
0.000000
  70
    32
  0
VERTEX
  8
0
  5
E759
 10
-387.255
 20
838.571
 30
0.000000
  70
    32
  0
VERTEX
  8
0
  5
E75A
 10
-387.252
 20
838.562
 30
0.000000
  70
    32
  0
VERTEX
  8
0
  5
E75B
 10
-387.250
 20
838.554
 30
0.000000
  70
    32
  0
SEQEND
  8
0
  5
E75C
  0
VIEWPORT
  5
BADA
 67
     1
  8
0
 10
5.249999665167528
 20
4.016860864854312
 30
0.0
 40
16.259362384438411
 41
8.0158201110956853
 68
     2
 69
     1
1001
ACAD
1000
MVIEW
1002
{
1070
    16
1010
0.0
1020
0.0
1030
0.0
1010
0.0
1020
0.0
1030
1.0
1040
0.0
1040
8.0158201110956853
1040
5.249999665167528
1040
4.016860864854312
1040
50.0
1040
0.0
1040
0.0
1070
     0
1070
   100
1070
     1
1070
     1
1070
     0
1070
     0
1070
     0
1070
     0
1040
0.0
1040
0.0
1040
0.0
1040
0.5
1040
0.5
1040
0.5
1040
0.5
1070
     0
1002
{
1002
}
1002
}
  0
VIEWPORT
  5
BADD
 67
     1
  8
0
 10
5.249999629487192
 20
4.0166741807634683
 30
0.0
 40
10.44245679893058
 41
7.8813805131999892
 68
     1
 69
     2
1001
ACAD
1000
MVIEW
1002
{
1070
    16
1010
0.0
1020
0.0
1030
0.0
1010
0.0
1020
0.0
1030
1.0
1040
0.0
1040
7.8813805131999892
1040
-387.20985136692838
1040
838.2226040800208
1040
50.0
1040
0.0
1040
0.0
1070
     0
1070
   100
1070
     1
1070
     2
1070
     0
1070
     0
1070
     0
1070
     0
1040
0.0
1040
0.0
1040
0.0
1040
0.5
1040
0.5
1040
0.5
1040
0.5
1070
     0
1002
{
1002
}
1002
}
  0
ENDSEC
  0
EOF
