  0
SECTION
  2
HEADER
  9
$ACADVER
  1
AC1009
  9
$INSBASE
 10
0.0
 20
0.0
 30
0.0
  9
$EXTMIN
 10
-389.39149520612779
 20
832.04903982714245
 30
0.0
  9
$EXTMAX
 10
-383.54043202233248
 20
850.04275037683647
 30
0.0
  9
$LIMMIN
 10
0.0
 20
0.0
  9
$LIMMAX
 10
1500.0
 20
1500.0
  9
$ORTHOMODE
 70
     0
  9
$REGENMODE
 70
     1
  9
$FILLMODE
 70
     1
  9
$QTEXTMODE
 70
     0
  9
$MIRRTEXT
 70
     1
  9
$DRAGMODE
 70
     2
  9
$LTSCALE
 40
1.0
  9
$OSMODE
 70
    37
  9
$ATTMODE
 70
     1
  9
$TEXTSIZE
 40
1.5
  9
$TRACEWID
 40
0.05
  9
$TEXTSTYLE
  7
STANDARD
  9
$CLAYER
  8
0
  9
$CELTYPE
  6
BYLAYER
  9
$CECOLOR
 62
   256
  9
$DIMSCALE
 40
1.0
  9
$DIMASZ
 40
0.75
  9
$DIMEXO
 40
1.5
  9
$DIMDLI
 40
2.0
  9
$DIMRND
 40
0.0
  9
$DIMDLE
 40
0.0
  9
$DIMEXE
 40
1.0
  9
$DIMTP
 40
0.0
  9
$DIMTM
 40
0.0
  9
$DIMTXT
 40
1.5
  9
$DIMCEN
 40
2.0
  9
$DIMTSZ
 40
0.0
  9
$DIMTOL
 70
     0
  9
$DIMLIM
 70
     0
  9
$DIMTIH
 70
     0
  9
$DIMTOH
 70
     0
  9
$DIMSE1
 70
     0
  9
$DIMSE2
 70
     0
  9
$DIMTAD
 70
     1
  9
$DIMZIN
 70
     0
  9
$DIMBLK
  1
ARCHTICK
  9
$DIMASO
 70
     1
  9
$DIMSHO
 70
     1
  9
$DIMPOST
  1
"
  9
$DIMAPOST
  1

  9
$DIMALT
 70
     0
  9
$DIMALTD
 70
     2
  9
$DIMALTF
 40
25.399999999999999
  9
$DIMLFAC
 40
1.0
  9
$DIMTOFL
 70
     0
  9
$DIMTVP
 40
0.0
  9
$DIMTIX
 70
     1
  9
$DIMSOXD
 70
     0
  9
$DIMSAH
 70
     0
  9
$DIMBLK1
  1

  9
$DIMBLK2
  1

  9
$DIMSTYLE
  2
THREE_QUARTER_INCH_SCALE
  9
$DIMCLRD
 70
     0
  9
$DIMCLRE
 70
     0
  9
$DIMCLRT
 70
     0
  9
$DIMTFAC
 40
1.0
  9
$DIMGAP
 40
1.0
  9
$LUNITS
 70
     2
  9
$LUPREC
 70
     4
  9
$SKETCHINC
 40
0.1
  9
$FILLETRAD
 40
0.0
  9
$AUNITS
 70
     0
  9
$AUPREC
 70
     0
  9
$MENU
  1
.
  9
$ELEVATION
 40
0.0
  9
$PELEVATION
 40
0.0
  9
$THICKNESS
 40
0.0
  9
$LIMCHECK
 70
     0
  9
$BLIPMODE
 70
     0
  9
$CHAMFERA
 40
0.5
  9
$CHAMFERB
 40
0.5
  9
$SKPOLY
 70
     0
  9
$TDCREATE
 40
2452089.395738773
  9
$TDUPDATE
 40
2453607.3267614241
  9
$TDINDWG
 40
1.0060903819
  9
$TDUSRTIMER
 40
1.0060903819
  9
$USRTIMER
 70
     1
  9
$ANGBASE
 50
0.0
  9
$ANGDIR
 70
     0
  9
$PDMODE
 70
     0
  9
$PDSIZE
 40
10.0
  9
$PLINEWID
 40
0.0
  9
$COORDS
 70
     1
  9
$SPLFRAME
 70
     0
  9
$SPLINETYPE
 70
     6
  9
$SPLINESEGS
 70
     8
  9
$ATTDIA
 70
     0
  9
$ATTREQ
 70
     1
  9
$HANDLING
 70
     1
  9
$HANDSEED
  5
D41D
  9
$SURFTAB1
 70
     6
  9
$SURFTAB2
 70
     6
  9
$SURFTYPE
 70
     6
  9
$SURFU
 70
     6
  9
$SURFV
 70
     6
  9
$UCSNAME
  2

  9
$UCSORG
 10
0.0
 20
0.0
 30
0.0
  9
$UCSXDIR
 10
1.0
 20
0.0
 30
0.0
  9
$UCSYDIR
 10
0.0
 20
1.0
 30
0.0
  9
$PUCSNAME
  2

  9
$PUCSORG
 10
0.0
 20
0.0
 30
0.0
  9
$PUCSXDIR
 10
1.0
 20
0.0
 30
0.0
  9
$PUCSYDIR
 10
0.0
 20
1.0
 30
0.0
  9
$USERI1
 70
     0
  9
$USERI2
 70
     0
  9
$USERI3
 70
     0
  9
$USERI4
 70
     0
  9
$USERI5
 70
     0
  9
$USERR1
 40
0.0
  9
$USERR2
 40
0.0
  9
$USERR3
 40
0.0
  9
$USERR4
 40
0.0
  9
$USERR5
 40
0.0
  9
$WORLDVIEW
 70
     1
  9
$SHADEDGE
 70
     3
  9
$SHADEDIF
 70
    70
  9
$TILEMODE
 70
     0
  9
$MAXACTVP
 70
    64
  9
$PLIMCHECK
 70
     0
  9
$PEXTMIN
 10
0.0287712300219028
 20
0.0759839241634737
 30
0.0
  9
$PEXTMAX
 10
10.47122802895248
 20
7.957364437363462
 30
0.0
  9
$PLIMMIN
 10
-0.2500002402958907
 20
-0.2499999962453767
  9
$PLIMMAX
 10
10.74999951940821
 20
8.2499997634587316
  9
$UNITMODE
 70
     0
  9
$VISRETAIN
 70
     1
  9
$PLINEGEN
 70
     0
  9
$PSLTSCALE
 70
     1
  0
ENDSEC
  0
SECTION
  2
TABLES
  0
TABLE
  2
VPORT
 70
    17
  0
VPORT
  2
*ACTIVE
 70
     0
 10
0.0
 20
0.0
 11
1.0
 21
1.0
 12
-386.65964032447761
 22
838.12308483841969
 13
0.0
 23
0.0
 14
0.5
 24
0.5
 15
0.5
 25
0.5
 16
0.0
 26
0.0
 36
1.0
 17
0.0
 27
0.0
 37
0.0
 40
5.0036027428113776
 41
2.0226628895184131
 42
50.0
 43
0.0
 44
0.0
 50
0.0
 51
0.0
 71
     0
 72
   100
 73
     1
 74
     2
 75
     0
 76
     0
 77
     0
 78
     0
  0
ENDTAB
  0
TABLE
  2
LTYPE
 70
     1
  0
LTYPE
  2
CONTINUOUS
 70
     0
  3
Solid line
 72
    65
 73
     0
 40
0.0
  0
ENDTAB
  0
TABLE
  2
LAYER
 70
    10
  0
LAYER
  2
0
 70
     0
 62
     7
  6
CONTINUOUS
  0
LAYER
  2
DEFPOINTS
 70
     0
 62
     7
  6
CONTINUOUS
  0
LAYER
  2
FRAME_200
 70
     0
 62
     8
  6
CONTINUOUS
  0
LAYER
  2
FRAME_070
 70
     0
 62
     5
  6
CONTINUOUS
  0
LAYER
  2
FRAME_050
 70
     0
 62
     6
  6
CONTINUOUS
  0
LAYER
  2
TITLE_BLOCK
 70
     0
 62
     7
  6
CONTINUOUS
  0
LAYER
  2
FRAME_025
 70
     0
 62
     7
  6
CONTINUOUS
  0
LAYER
  2
VIEWPORT
 70
     0
 62
     7
  6
CONTINUOUS
  0
LAYER
  2
PROF
 70
     0
 62
     7
  6
CONTINUOUS
  0
LAYER
  2
PROFILE
 70
     0
 62
     7
  6
CONTINUOUS
  0
ENDTAB
  0
TABLE
  2
STYLE
 70
     2
  0
STYLE
  2
STANDARD
 70
     0
 40
0.0
 41
1.0
 50
0.0
 71
     0
 42
1.5
  3
txt
  4

  0
STYLE
  2
ISO_PROPORTIONAL
 70
     0
 40
0.0
 41
1.0
 50
0.0
 71
     0
 42
2.5
  3
isocp.shx
  4

  0
ENDTAB
  0
TABLE
  2
VIEW
 70
    17
  0
ENDTAB
  0
TABLE
  2
UCS
 70
     0
  0
ENDTAB
  0
TABLE
  2
APPID
 70
     6
  0
APPID
  2
ACAD
 70
     0
  0
APPID
  2
DCO15
 70
     0
  0
APPID
  2
ACAD_EXEMPT_FROM_CAD_STANDARDS
 70
     0
  0
APPID
  2
ACAD_PSEXT
 70
     0
  0
APPID
  2
CONTENTBLOCKDESCRIPTION
 70
     0
  0
APPID
  2
CONTENTBLOCKICON
 70
     0
  0
ENDTAB
  0
TABLE
  2
DIMSTYLE
 70
     5
  0
DIMSTYLE
  2
FULL_SCALE
 70
     0
  3
"
  4

  5
ARCHTICK
  6

  7

 40
1.0
 41
0.046875
 42
0.09375
 43
0.125
 44
0.0625
 45
0.0
 46
0.0
 47
0.0
 48
0.0
140
0.125
141
0.125
142
0.0
143
25.399999999999999
144
1.0
145
0.0
146
1.0
147
0.0625
 71
     0
 72
     0
 73
     0
 74
     0
 75
     0
 76
     0
 77
     1
 78
     0
170
     0
171
     2
172
     0
173
     0
174
     1
175
     0
176
     0
177
     0
178
     0
  0
DIMSTYLE
  2
HALF_SCALE
 70
     0
  3
"
  4

  5
ARCHTICK
  6

  7

 40
1.0
 41
0.09375
 42
0.1875
 43
0.25
 44
0.125
 45
0.0
 46
0.0
 47
0.0
 48
0.0
140
0.25
141
0.25
142
0.0
143
25.399999999999999
144
1.0
145
0.0
146
1.0
147
0.125
 71
     0
 72
     0
 73
     0
 74
     0
 75
     0
 76
     0
 77
     1
 78
     0
170
     0
171
     2
172
     0
173
     0
174
     1
175
     0
176
     0
177
     0
178
     0
  0
DIMSTYLE
  2
INCH_SCALE
 70
     0
  3
"
  4

  5
ARCHTICK
  6

  7

 40
1.0
 41
0.5625
 42
1.125
 43
1.5
 44
0.75
 45
0.0
 46
0.0
 47
0.0
 48
0.0
140
1.125
141
1.5
142
0.0
143
25.399999999999999
144
1.0
145
0.0
146
1.0
147
0.75
 71
     0
 72
     0
 73
     0
 74
     0
 75
     0
 76
     0
 77
     1
 78
     0
170
     0
171
     2
172
     0
173
     0
174
     1
175
     0
176
     0
177
     0
178
     0
  0
DIMSTYLE
  2
THREE_QUARTER_INCH_SCALE
 70
     0
  3
"
  4

  5
ARCHTICK
  6

  7

 40
1.0
 41
0.75
 42
1.5
 43
2.0
 44
1.0
 45
0.0
 46
0.0
 47
0.0
 48
0.0
140
1.5
141
2.0
142
0.0
143
25.399999999999999
144
1.0
145
0.0
146
1.0
147
1.0
 71
     0
 72
     0
 73
     0
 74
     0
 75
     0
 76
     0
 77
     1
 78
     0
170
     0
171
     2
172
     0
173
     0
174
     1
175
     0
176
     0
177
     0
178
     0
  0
DIMSTYLE
  2
ZHALF_INCH_SCALE
 70
     0
  3
"
  4

  5
ARCHTICK
  6

  7

 40
1.0
 41
1.125
 42
2.25
 43
3.0
 44
1.5
 45
0.0
 46
0.0
 47
0.0
 48
0.0
140
2.25
141
3.0
142
0.0
143
25.399999999999999
144
1.0
145
0.0
146
1.0
147
1.5
 71
     0
 72
     0
 73
     0
 74
     0
 75
     0
 76
     0
 77
     1
 78
     0
170
     0
171
     2
172
     0
173
     0
174
     1
175
     0
176
     0
177
     0
178
     0
  0
ENDTAB
  0
ENDSEC
  0
SECTION
  2
BLOCKS
  0
BLOCK
  8
0
  2
$MODEL_SPACE
 70
     0
 10
0.0
 20
0.0
 30
0.0
  3
$MODEL_SPACE
  1

  0
ENDBLK
  5
21
  8
0
  0
BLOCK
 67
     1
  8
0
  2
$PAPER_SPACE
 70
     0
 10
0.0
 20
0.0
 30
0.0
  3
$PAPER_SPACE
  1

  0
ENDBLK
  5
BAD5
 67
     1
  8
0
  0
BLOCK
  8
0
  2
_ARCHTICK
 70
     0
 10
0.0
 20
0.0
 30
0.0
  3
_ARCHTICK
  1

  0
POLYLINE
  5
158
  8
0
  6
BYBLOCK
 62
     0
 66
     1
 10
0.0
 20
0.0
 30
0.0
 40
0.15
 41
0.15
  0
VERTEX
  5
CFE2
  8
0
  6
BYBLOCK
 62
     0
 10
-0.5
 20
-0.5
 30
0.0
  0
VERTEX
  5
CFE3
  8
0
  6
BYBLOCK
 62
     0
 10
0.5
 20
0.5
 30
0.0
  0
SEQEND
  5
CFE4
  8
0
  6
BYBLOCK
 62
     0
  0
ENDBLK
  5
15A
  8
0
  0
BLOCK
  8
0
  2
_OPEN30
 70
     0
 10
0.0
 20
0.0
 30
0.0
  3
_OPEN30
  1

  0
LINE
  5
15C
  8
0
  6
BYBLOCK
 62
     0
 10
-1.0
 20
0.26794919
 30
0.0
 11
0.0
 21
0.0
 31
0.0
  0
LINE
  5
15D
  8
0
  6
BYBLOCK
 62
     0
 10
0.0
 20
0.0
 30
0.0
 11
-1.0
 21
-0.26794919
 31
0.0
  0
LINE
  5
15E
  8
0
  6
BYBLOCK
 62
     0
 10
0.0
 20
0.0
 30
0.0
 11
-1.0
 21
0.0
 31
0.0
  0
ENDBLK
  5
160
  8
0
  0
BLOCK
  8
0
  2
ISO_A2_TITLE_BLOCK
 70
     2
 10
0.0
 20
0.0
 30
0.0
  3
ISO_A2_TITLE_BLOCK
  1

  0
LINE
  5
BDD
  8
FRAME_050
 10
299.5
 20
12.5
 30
0.0
 11
297.0
 21
7.5
 31
0.0
  0
LINE
  5
BDE
  8
FRAME_050
 10
294.5
 20
12.5
 30
0.0
 11
299.5
 21
12.5
 31
0.0
  0
LINE
  5
BDF
  8
FRAME_050
 10
247.0
 20
5.0
 30
0.0
 11
347.0
 21
5.0
 31
0.0
  0
LINE
  5
BE0
  8
FRAME_070
 10
584.0
 20
410.0
 30
0.0
 11
10.0
 21
410.0
 31
0.0
  0
LINE
  5
BE1
  8
FRAME_070
 10
10.0
 20
10.0
 30
0.0
 11
584.0
 21
10.0
 31
0.0
  0
LINE
  5
BE2
  8
FRAME_050
 10
12.5
 20
207.5
 30
0.0
 11
7.5
 21
210.0
 31
0.0
  0
LINE
  5
BE3
  8
FRAME_050
 10
12.5
 20
212.5
 30
0.0
 11
12.5
 21
207.5
 31
0.0
  0
LINE
  5
BE4
  8
FRAME_070
 10
10.0
 20
410.0
 30
0.0
 11
10.0
 21
10.0
 31
0.0
  0
LINE
  5
BE5
  8
FRAME_200
 10
0.0
 20
0.0
 30
0.0
 11
0.0
 21
10.0
 31
0.0
  0
LINE
  5
BE6
  8
FRAME_200
 10
0.0
 20
0.0
 30
0.0
 11
10.0
 21
0.0
 31
0.0
  0
TEXT
  5
BE7
  8
FRAME_050
 10
5.9000000000000004
 20
35.0
 30
0.0
 40
4.0
  1
H
  7
ISO_PROPORTIONAL
 72
     4
 11
7.5
 21
37.0
 31
0.0
  0
LINE
  5
BE8
  8
FRAME_050
 10
10.0
 20
60.0
 30
0.0
 11
5.0
 21
60.0
 31
0.0
  0
LINE
  5
BE9
  8
FRAME_050
 10
81.75
 20
5.0
 30
0.0
 11
81.75
 21
10.0
 31
0.0
  0
TEXT
  5
BEA
  8
FRAME_050
 10
44.874999999999993
 20
5.5
 30
0.0
 40
4.0
  1
1
  7
ISO_PROPORTIONAL
 72
     4
 11
45.875
 21
7.5
 31
0.0
  0
TEXT
  5
BEB
  8
FRAME_050
 10
6.0035533905932743
 20
85.0
 30
0.0
 40
4.0
  1
G
  7
ISO_PROPORTIONAL
 72
     4
 11
7.5
 21
87.0
 31
0.0
  0
LINE
  5
BEC
  8
FRAME_050
 10
10.0
 20
110.0
 30
0.0
 11
5.0
 21
110.0
 31
0.0
  0
TEXT
  5
BED
  8
FRAME_050
 10
6.0999999999999988
 20
135.0
 30
0.0
 40
4.0
  1
F
  7
ISO_PROPORTIONAL
 72
     4
 11
7.5
 21
137.0
 31
0.0
  0
LINE
  5
BEE
  8
FRAME_050
 10
10.0
 20
160.0
 30
0.0
 11
5.0
 21
160.0
 31
0.0
  0
TEXT
  5
BEF
  8
FRAME_050
 10
6.0999999999999988
 20
185.0
 30
0.0
 40
4.0
  1
E
  7
ISO_PROPORTIONAL
 72
     4
 11
7.5
 21
187.0
 31
0.0
  0
LINE
  5
BF0
  8
FRAME_050
 10
153.5
 20
5.0
 30
0.0
 11
153.5
 21
10.0
 31
0.0
  0
TEXT
  5
BF1
  8
FRAME_050
 10
116.1556692913386
 20
5.3996062992125982
 30
0.0
 40
4.0
  1
2
  7
ISO_PROPORTIONAL
 72
     4
 11
117.625
 21
7.5
 31
0.0
  0
TEXT
  5
BF2
  8
FRAME_050
 10
187.89215728752529
 20
5.5828427124746138
 30
0.0
 40
4.0
  1
3
  7
ISO_PROPORTIONAL
 72
     4
 11
189.375
 21
7.5
 31
0.0
  0
LINE
  5
BF3
  8
FRAME_050
 10
225.25
 20
5.0
 30
0.0
 11
225.25
 21
10.0
 31
0.0
  0
LINE
  5
BF4
  8
FRAME_050
 10
297.0
 20
7.5
 30
0.0
 11
294.5
 21
12.5
 31
0.0
  0
LINE
  5
BF5
  8
FRAME_050
 10
287.0
 20
5.0
 30
0.0
 11
287.0
 21
10.0
 31
0.0
  0
LINE
  5
BF6
  8
FRAME_050
 10
277.0
 20
5.0
 30
0.0
 11
277.0
 21
10.0
 31
0.0
  0
LINE
  5
BF7
  8
FRAME_050
 10
267.0
 20
5.0
 30
0.0
 11
267.0
 21
10.0
 31
0.0
  0
LINE
  5
BF8
  8
FRAME_050
 10
257.0
 20
5.0
 30
0.0
 11
257.0
 21
10.0
 31
0.0
  0
LINE
  5
BF9
  8
FRAME_050
 10
247.0
 20
5.0
 30
0.0
 11
247.0
 21
10.0
 31
0.0
  0
LINE
  5
BFA
  8
FRAME_050
 10
297.0
 20
10.0
 30
0.0
 11
297.0
 21
5.0
 31
0.0
  0
LINE
  5
BFB
  8
FRAME_050
 10
297.0
 20
10.0
 30
0.0
 11
297.0
 21
15.0
 31
0.0
  0
LINE
  5
BFC
  8
FRAME_050
 10
5.0
 20
210.0
 30
0.0
 11
15.0
 21
210.0
 31
0.0
  0
LINE
  5
BFD
  8
FRAME_050
 10
7.5
 20
210.0
 30
0.0
 11
12.5
 21
212.5
 31
0.0
  0
TEXT
  5
BFE
  8
FRAME_050
 10
5.7860912703473977
 20
235.0
 30
0.0
 40
4.0
  1
D
  7
ISO_PROPORTIONAL
 72
     4
 11
7.5
 21
237.0
 31
0.0
  0
LINE
  5
BFF
  8
FRAME_050
 10
10.0
 20
260.0
 30
0.0
 11
5.0
 21
260.0
 31
0.0
  0
TEXT
  5
C00
  8
FRAME_050
 10
6.1931980515339466
 20
285.0
 30
0.0
 40
4.0
  1
C
  7
ISO_PROPORTIONAL
 72
     4
 11
7.5
 21
287.0
 31
0.0
  0
LINE
  5
C01
  8
FRAME_050
 10
10.0
 20
310.0
 30
0.0
 11
5.0
 21
310.0
 31
0.0
  0
TEXT
  5
C02
  8
FRAME_050
 10
5.8999999999999959
 20
335.0
 30
0.0
 40
4.0
  1
B
  7
ISO_PROPORTIONAL
 72
     4
 11
7.5
 21
337.0
 31
0.0
  0
LINE
  5
C03
  8
FRAME_050
 10
10.0
 20
360.0
 30
0.0
 11
5.0
 21
360.0
 31
0.0
  0
TEXT
  5
C04
  8
FRAME_050
 10
5.6999999999999993
 20
385.0
 30
0.0
 40
4.0
  1
A
  7
ISO_PROPORTIONAL
 72
     4
 11
7.5
 21
387.0
 31
0.0
  0
LINE
  5
C05
  8
FRAME_200
 10
10.0
 20
420.0
 30
0.0
 11
0.0
 21
420.0
 31
0.0
  0
LINE
  5
C06
  8
FRAME_200
 10
0.0
 20
420.0
 30
0.0
 11
0.0
 21
410.0
 31
0.0
  0
TEXT
  5
C07
  8
FRAME_050
 10
44.874999999999993
 20
410.5
 30
0.0
 40
4.0
  1
1
  7
ISO_PROPORTIONAL
 72
     4
 11
45.875
 21
412.5
 31
0.0
  0
LINE
  5
C08
  8
FRAME_050
 10
81.75
 20
410.0
 30
0.0
 11
81.75
 21
415.0
 31
0.0
  0
TEXT
  5
C09
  8
FRAME_050
 10
116.1556692913386
 20
410.39960629921262
 30
0.0
 40
4.0
  1
2
  7
ISO_PROPORTIONAL
 72
     4
 11
117.625
 21
412.5
 31
0.0
  0
LINE
  5
C0A
  8
FRAME_050
 10
153.5
 20
410.0
 30
0.0
 11
153.5
 21
415.0
 31
0.0
  0
TEXT
  5
C0B
  8
FRAME_050
 10
187.89215728752529
 20
410.58284271247459
 30
0.0
 40
4.0
  1
3
  7
ISO_PROPORTIONAL
 72
     4
 11
189.375
 21
412.5
 31
0.0
  0
LINE
  5
C0C
  8
FRAME_050
 10
297.0
 20
405.0
 30
0.0
 11
297.0
 21
415.0
 31
0.0
  0
LINE
  5
C0D
  8
FRAME_050
 10
225.25
 20
410.0
 30
0.0
 11
225.25
 21
415.0
 31
0.0
  0
TEXT
  5
C0E
  8
FRAME_050
 10
259.52499999999998
 20
410.5
 30
0.0
 40
4.0
  1
4
  7
ISO_PROPORTIONAL
 72
     4
 11
261.125
 21
412.5
 31
0.0
  0
LINE
  5
C0F
  8
FRAME_070
 10
584.0
 20
10.0
 30
0.0
 11
584.0
 21
410.0
 31
0.0
  0
ATTDEF
  5
C10
  8
FRAME_025
 10
473.0
 20
31.75
 30
0.0
 40
2.5
  1
XXX - 00/00/00
  7
ISO_PROPORTIONAL
 11
473.0
 21
33.0
 31
0.0
  3
Approved by - Date
  2
APPROVED_BY_DATE
 70
     8
 74
     2
  0
TEXT
  5
C11
  8
FRAME_025
 10
448.0
 20
41.749999999999993
 30
0.0
 40
2.5
  1
Title/Name, designation, material, dimension etc
  7
ISO_PROPORTIONAL
 11
448.0
 21
43.0
 31
0.0
 73
     2
  0
TEXT
  5
C12
  8
FRAME_025
 10
473.0
 20
35.75
 30
0.0
 40
2.5
  1
Approved by - date
  7
ISO_PROPORTIONAL
 11
473.0
 21
37.0
 31
0.0
 73
     2
  0
LINE
  5
C13
  8
FRAME_070
 10
414.0
 20
46.0
 30
0.0
 11
584.0
 21
46.0
 31
0.0
  0
LINE
  5
C14
  8
FRAME_070
 10
414.0
 20
40.0
 30
0.0
 11
584.0
 21
40.0
 31
0.0
  0
LINE
  5
C15
  8
FRAME_070
 10
414.0
 20
30.0
 30
0.0
 11
584.0
 21
30.0
 31
0.0
  0
LINE
  5
C16
  8
FRAME_050
 10
368.75
 20
5.0
 30
0.0
 11
368.75
 21
10.0
 31
0.0
  0
LINE
  5
C17
  8
FRAME_050
 10
337.0
 20
5.0
 30
0.0
 11
337.0
 21
10.0
 31
0.0
  0
LINE
  5
C18
  8
FRAME_050
 10
327.0
 20
5.0
 30
0.0
 11
327.0
 21
10.0
 31
0.0
  0
LINE
  5
C19
  8
FRAME_050
 10
317.0
 20
5.0
 30
0.0
 11
317.0
 21
10.0
 31
0.0
  0
LINE
  5
C1A
  8
FRAME_050
 10
307.0
 20
5.0
 30
0.0
 11
307.0
 21
10.0
 31
0.0
  0
LINE
  5
C1B
  8
FRAME_050
 10
347.0
 20
5.0
 30
0.0
 11
347.0
 21
10.0
 31
0.0
  0
LINE
  5
C1C
  8
FRAME_050
 10
440.5
 20
5.0
 30
0.0
 11
440.5
 21
10.0
 31
0.0
  0
TEXT
  5
C1D
  8
FRAME_050
 10
403.24547244094481
 20
5.4102362204724406
 30
0.0
 40
4.0
  1
6
  7
ISO_PROPORTIONAL
 72
     4
 11
404.62499999999989
 21
7.5
 31
0.0
  0
TEXT
  5
C1E
  8
FRAME_050
 10
474.97500000000002
 20
5.5
 30
0.0
 40
4.0
  1
7
  7
ISO_PROPORTIONAL
 72
     4
 11
476.37499999999989
 21
7.5
 31
0.0
  0
TEXT
  5
C1F
  8
FRAME_025
 10
431.0
 20
41.749999999999993
 30
0.0
 40
2.5
  1
Quantity
  7
ISO_PROPORTIONAL
 11
431.0
 21
43.0
 31
0.0
 73
     2
  0
TEXT
  5
C20
  8
FRAME_025
 10
416.0
 20
41.749999999999993
 30
0.0
 40
2.5
  1
Itemref
  7
ISO_PROPORTIONAL
 11
416.0
 21
43.0
 31
0.0
 73
     2
  0
LINE
  5
C21
  8
FRAME_070
 10
414.0
 20
40.0
 30
0.0
 11
414.0
 21
46.0
 31
0.0
  0
LINE
  5
C22
  8
FRAME_070
 10
429.0
 20
40.0
 30
0.0
 11
429.0
 21
46.0
 31
0.0
  0
LINE
  5
C23
  8
FRAME_070
 10
414.0
 20
10.0
 30
0.0
 11
414.0
 21
40.0
 31
0.0
  0
ATTDEF
  5
C24
  8
FRAME_025
 10
416.0
 20
31.75
 30
0.0
 40
2.5
  1
XXX
  7
ISO_PROPORTIONAL
 11
416.0
 21
33.0
 31
0.0
  3
Designed by
  2
DESIGNED_BY
 70
     8
 74
     2
  0
TEXT
  5
C25
  8
FRAME_025
 10
416.0
 20
35.75
 30
0.0
 40
2.5
  1
Designed by
  7
ISO_PROPORTIONAL
 11
416.0
 21
37.0
 31
0.0
 73
     2
  0
LINE
  5
C26
  8
FRAME_070
 10
446.0
 20
40.0
 30
0.0
 11
446.0
 21
46.0
 31
0.0
  0
ATTDEF
  5
C27
  8
FRAME_025
 10
448.0
 20
31.75
 30
0.0
 40
2.5
  1
XXX
  7
ISO_PROPORTIONAL
 11
448.0
 21
33.0
 31
0.0
  3
Checked by
  2
CHECKED_BY
 70
     8
 74
     2
  0
TEXT
  5
C28
  8
FRAME_025
 10
448.0
 20
35.75
 30
0.0
 40
2.5
  1
Checked by
  7
ISO_PROPORTIONAL
 11
448.0
 21
37.0
 31
0.0
 73
     2
  0
ATTDEF
  5
C29
  8
FRAME_050
 10
444.74999999999989
 20
17.5
 30
0.0
 40
5.0
  1
XXX
  7
ISO_PROPORTIONAL
 72
     4
 11
451.49999999999989
 21
20.0
 31
0.0
  3
Owner
  2
OWNER
 70
     8
  0
LINE
  5
C2A
  8
FRAME_070
 10
446.0
 20
30.0
 30
0.0
 11
446.0
 21
40.0
 31
0.0
  0
LINE
  5
C2B
  8
FRAME_070
 10
471.0
 20
30.0
 30
0.0
 11
471.0
 21
40.0
 31
0.0
  0
LINE
  5
C2C
  8
FRAME_070
 10
489.0
 20
20.0
 30
0.0
 11
584.0
 21
20.0
 31
0.0
  0
LINE
  5
C2D
  8
FRAME_050
 10
512.25
 20
5.0
 30
0.0
 11
512.25
 21
10.0
 31
0.0
  0
TEXT
  5
C2E
  8
FRAME_050
 10
546.72499999999991
 20
5.5
 30
0.0
 40
4.0
  1
8
  7
ISO_PROPORTIONAL
 72
     4
 11
548.125
 21
7.5
 31
0.0
  0
ATTDEF
  5
C2F
  8
FRAME_050
 10
517.64999999999986
 20
13.5
 30
0.0
 40
3.0
  1
X
  7
ISO_PROPORTIONAL
 72
     4
 11
519.0
 21
15.0
 31
0.0
  3
Drawing number
  2
DRAWING_NUMBER
 70
     8
  0
ATTDEF
  5
C30
  8
FRAME_050
 10
529.75
 20
22.5
 30
0.0
 40
5.0
  1
XXX
  7
ISO_PROPORTIONAL
 72
     4
 11
536.5
 21
25.0
 31
0.0
  3
Title / Name
  2
TITLE
 70
     8
  0
LINE
  5
C31
  8
FRAME_070
 10
489.0
 20
10.0
 30
0.0
 11
489.0
 21
30.0
 31
0.0
  0
ATTDEF
  5
C32
  8
FRAME_025
 10
511.0
 20
31.75
 30
0.0
 40
2.5
  1
XXX
  7
ISO_PROPORTIONAL
 11
511.0
 21
33.0
 31
0.0
  3
Filename
  2
FILENAME
 70
     8
 74
     2
  0
TEXT
  5
C33
  8
FRAME_025
 10
511.0
 20
35.75
 30
0.0
 40
2.5
  1
Filename
  7
ISO_PROPORTIONAL
 11
511.0
 21
37.0
 31
0.0
 73
     2
  0
LINE
  5
C34
  8
FRAME_070
 10
509.0
 20
30.0
 30
0.0
 11
509.0
 21
40.0
 31
0.0
  0
TEXT
  5
C35
  8
FRAME_025
 10
536.0
 20
41.749999999999993
 30
0.0
 40
2.5
  1
Article No./Reference
  7
ISO_PROPORTIONAL
 11
536.0
 21
43.0
 31
0.0
 73
     2
  0
LINE
  5
C36
  8
FRAME_070
 10
534.0
 20
40.0
 30
0.0
 11
534.0
 21
46.0
 31
0.0
  0
ATTDEF
  5
C37
  8
FRAME_025
 10
551.0
 20
11.75
 30
0.0
 40
2.5
  1
0
  7
ISO_PROPORTIONAL
 11
551.0
 21
13.0
 31
0.0
  3
Edition
  2
EDITION
 70
     8
 74
     2
  0
TEXT
  5
C38
  8
FRAME_025
 10
551.0
 20
15.75
 30
0.0
 40
2.5
  1
Edition
  7
ISO_PROPORTIONAL
 11
551.0
 21
17.0
 31
0.0
 73
     2
  0
LINE
  5
C39
  8
FRAME_070
 10
549.0
 20
10.0
 30
0.0
 11
549.0
 21
20.0
 31
0.0
  0
ATTDEF
  5
C3A
  8
FRAME_025
 10
536.0
 20
31.75
 30
0.0
 40
2.5
  1
00/00/00
  7
ISO_PROPORTIONAL
 11
536.0
 21
33.0
 31
0.0
  3
Date
  2
DATE
 70
     8
 74
     2
  0
TEXT
  5
C3B
  8
FRAME_025
 10
536.0
 20
35.75
 30
0.0
 40
2.5
  1
Date
  7
ISO_PROPORTIONAL
 11
536.0
 21
37.0
 31
0.0
 73
     2
  0
LINE
  5
C3C
  8
FRAME_070
 10
534.0
 20
30.0
 30
0.0
 11
534.0
 21
40.0
 31
0.0
  0
ATTDEF
  5
C3D
  8
FRAME_025
 10
566.0
 20
11.75
 30
0.0
 40
2.5
  1
1/1
  7
ISO_PROPORTIONAL
 11
566.0
 21
13.0
 31
0.0
  3
Sheet
  2
SHEET
 70
     8
 74
     2
  0
TEXT
  5
C3E
  8
FRAME_025
 10
566.0
 20
15.75
 30
0.0
 40
2.5
  1
Sheet
  7
ISO_PROPORTIONAL
 11
566.0
 21
17.0
 31
0.0
 73
     2
  0
LINE
  5
C3F
  8
FRAME_070
 10
564.0
 20
10.0
 30
0.0
 11
564.0
 21
20.0
 31
0.0
  0
ATTDEF
  5
C40
  8
FRAME_025
 10
566.0
 20
31.75
 30
0.0
 40
2.5
  1
1:1
  7
ISO_PROPORTIONAL
 11
566.0
 21
33.0
 31
0.0
  3
Scale
  2
SCALE
 70
     8
 74
     2
  0
TEXT
  5
C41
  8
FRAME_025
 10
566.0
 20
35.75
 30
0.0
 40
2.5
  1
Scale
  7
ISO_PROPORTIONAL
 11
566.0
 21
37.0
 31
0.0
 73
     2
  0
LINE
  5
C42
  8
FRAME_070
 10
564.0
 20
30.0
 30
0.0
 11
564.0
 21
40.0
 31
0.0
  0
LINE
  5
C43
  8
FRAME_200
 10
594.0
 20
0.0
 30
0.0
 11
594.0
 21
10.0
 31
0.0
  0
LINE
  5
C44
  8
FRAME_200
 10
594.0
 20
0.0
 30
0.0
 11
584.0
 21
0.0
 31
0.0
  0
TEXT
  5
C45
  8
FRAME_050
 10
584.89999999999998
 20
35.0
 30
0.0
 40
4.0
  1
H
  7
ISO_PROPORTIONAL
 72
     4
 11
586.5
 21
37.0
 31
0.0
  0
LINE
  5
C46
  8
FRAME_050
 10
589.0
 20
60.0
 30
0.0
 11
584.0
 21
60.0
 31
0.0
  0
TEXT
  5
C47
  8
FRAME_050
 10
585.0035533905932
 20
85.0
 30
0.0
 40
4.0
  1
G
  7
ISO_PROPORTIONAL
 72
     4
 11
586.5
 21
87.0
 31
0.0
  0
LINE
  5
C48
  8
FRAME_050
 10
589.0
 20
110.0
 30
0.0
 11
584.0
 21
110.0
 31
0.0
  0
TEXT
  5
C49
  8
FRAME_050
 10
585.09999999999991
 20
135.0
 30
0.0
 40
4.0
  1
F
  7
ISO_PROPORTIONAL
 72
     4
 11
586.5
 21
137.0
 31
0.0
  0
LINE
  5
C4A
  8
FRAME_050
 10
589.0
 20
160.0
 30
0.0
 11
584.0
 21
160.0
 31
0.0
  0
TEXT
  5
C4B
  8
FRAME_050
 10
585.09999999999991
 20
185.0
 30
0.0
 40
4.0
  1
E
  7
ISO_PROPORTIONAL
 72
     4
 11
586.5
 21
187.0
 31
0.0
  0
LINE
  5
C4C
  8
FRAME_070
 10
414.0
 20
404.0
 30
0.0
 11
584.0
 21
404.0
 31
0.0
  0
TEXT
  5
C4D
  8
FRAME_050
 10
331.39215728752538
 20
410.58284271247459
 30
0.0
 40
4.0
  1
5
  7
ISO_PROPORTIONAL
 72
     4
 11
332.875
 21
412.5
 31
0.0
  0
LINE
  5
C4E
  8
FRAME_050
 10
368.75
 20
410.0
 30
0.0
 11
368.75
 21
415.0
 31
0.0
  0
TEXT
  5
C4F
  8
FRAME_025
 10
428.0
 20
405.75
 30
0.0
 40
2.5
  1
Revision note
  7
ISO_PROPORTIONAL
 11
428.0
 21
407.0
 31
0.0
 73
     2
  0
TEXT
  5
C50
  8
FRAME_025
 10
416.0
 20
405.75
 30
0.0
 40
2.5
  1
RevNo
  7
ISO_PROPORTIONAL
 11
416.0
 21
407.0
 31
0.0
 73
     2
  0
LINE
  5
C51
  8
FRAME_070
 10
426.0
 20
404.0
 30
0.0
 11
426.0
 21
410.0
 31
0.0
  0
LINE
  5
C52
  8
FRAME_070
 10
414.0
 20
404.0
 30
0.0
 11
414.0
 21
410.0
 31
0.0
  0
TEXT
  5
C53
  8
FRAME_050
 10
403.24547244094481
 20
410.41023622047243
 30
0.0
 40
4.0
  1
6
  7
ISO_PROPORTIONAL
 72
     4
 11
404.62499999999989
 21
412.5
 31
0.0
  0
LINE
  5
C54
  8
FRAME_050
 10
440.5
 20
410.0
 30
0.0
 11
440.5
 21
415.0
 31
0.0
  0
TEXT
  5
C55
  8
FRAME_050
 10
474.97500000000002
 20
410.5
 30
0.0
 40
4.0
  1
7
  7
ISO_PROPORTIONAL
 72
     4
 11
476.37499999999989
 21
412.5
 31
0.0
  0
LINE
  5
C56
  8
FRAME_050
 10
579.0
 20
210.0
 30
0.0
 11
589.0
 21
210.0
 31
0.0
  0
TEXT
  5
C57
  8
FRAME_050
 10
584.78609127034736
 20
235.0
 30
0.0
 40
4.0
  1
D
  7
ISO_PROPORTIONAL
 72
     4
 11
586.5
 21
237.0
 31
0.0
  0
LINE
  5
C58
  8
FRAME_050
 10
589.0
 20
260.0
 30
0.0
 11
584.0
 21
260.0
 31
0.0
  0
TEXT
  5
C59
  8
FRAME_050
 10
585.19319805153395
 20
285.0
 30
0.0
 40
4.0
  1
C
  7
ISO_PROPORTIONAL
 72
     4
 11
586.5
 21
287.0
 31
0.0
  0
LINE
  5
C5A
  8
FRAME_050
 10
589.0
 20
310.0
 30
0.0
 11
584.0
 21
310.0
 31
0.0
  0
TEXT
  5
C5B
  8
FRAME_050
 10
584.89999999999998
 20
335.0
 30
0.0
 40
4.0
  1
B
  7
ISO_PROPORTIONAL
 72
     4
 11
586.5
 21
337.0
 31
0.0
  0
TEXT
  5
C5C
  8
FRAME_025
 10
571.08299391850551
 20
405.75
 30
0.0
 40
2.5
  1
Checked
  7
ISO_PROPORTIONAL
 11
571.08299391850551
 21
407.0
 31
0.0
 73
     2
  0
TEXT
  5
C5D
  8
FRAME_025
 10
555.36099797283532
 20
405.75
 30
0.0
 40
2.5
  1
Signature
  7
ISO_PROPORTIONAL
 11
555.36099797283532
 21
407.0
 31
0.0
 73
     2
  0
TEXT
  5
C5E
  8
FRAME_025
 10
537.0
 20
405.75
 30
0.0
 40
2.5
  1
Date
  7
ISO_PROPORTIONAL
 11
537.0
 21
407.0
 31
0.0
 73
     2
  0
LINE
  5
C5F
  8
FRAME_070
 10
570.0
 20
404.0
 30
0.0
 11
570.0
 21
410.0
 31
0.0
  0
LINE
  5
C60
  8
FRAME_070
 10
555.0
 20
404.0
 30
0.0
 11
555.0
 21
410.0
 31
0.0
  0
LINE
  5
C61
  8
FRAME_070
 10
535.0
 20
404.0
 30
0.0
 11
535.0
 21
410.0
 31
0.0
  0
LINE
  5
C62
  8
FRAME_050
 10
512.25
 20
410.0
 30
0.0
 11
512.25
 21
415.0
 31
0.0
  0
TEXT
  5
C63
  8
FRAME_050
 10
546.72499999999991
 20
410.5
 30
0.0
 40
4.0
  1
8
  7
ISO_PROPORTIONAL
 72
     4
 11
548.125
 21
412.5
 31
0.0
  0
LINE
  5
C64
  8
FRAME_050
 10
589.0
 20
360.0
 30
0.0
 11
584.0
 21
360.0
 31
0.0
  0
TEXT
  5
C65
  8
FRAME_050
 10
584.70000000000005
 20
385.0
 30
0.0
 40
4.0
  1
A
  7
ISO_PROPORTIONAL
 72
     4
 11
586.5
 21
387.0
 31
0.0
  0
LINE
  5
C66
  8
FRAME_200
 10
594.0
 20
420.0
 30
0.0
 11
584.0
 21
420.0
 31
0.0
  0
LINE
  5
C67
  8
FRAME_200
 10
594.0
 20
410.0
 30
0.0
 11
594.0
 21
420.0
 31
0.0
  0
ENDBLK
  5
C69
  8
0
  0
BLOCK
  8
0
  2
WOBB001END
 70
     0
 10
0.0
 20
0.0
 30
0.0
  3
WOBB001END
  1

  0
LINE
  5
4D66
  8
0
  6
CONTINUOUS
 10
0.0
 20
0.0
 30
0.0
 11
0.8749999999999998
 21
0.0
 31
0.0
  0
ARC
  5
4D67
  8
0
  6
CONTINUOUS
 10
0.0331648379439287
 20
-0.5087238935900232
 30
0.0
 40
0.8790130605592325
 50
284.06490243660443
 51
312.19222981924361
  0
ARC
  5
4D68
  8
0
  6
CONTINUOUS
 10
0.2841534338796767
 20
-1.510548310625538
 30
0.0
 40
0.1537731892806598
 50
104.0649024366044
 51
179.4721730735024
  0
LINE
  5
4D69
  8
0
  6
CONTINUOUS
 10
0.0
 20
0.0
 30
0.0
 11
-0.0000000000000003
 21
-1.7501564476661919
 31
0.0
  0
ARC
  5
4D6A
  8
0
  6
CONTINUOUS
 10
0.1404622019506122
 20
-1.6303137183546199
 30
0.0
 40
0.1198427293115722
 50
275.0
 51
85.000000000000057
  0
LINE
  5
4D6B
  8
0
  6
CONTINUOUS
 10
-0.0000000000000003
 20
-1.7501564476661919
 30
0.0
 11
0.1456946485130855
 21
-1.7501564476661919
 31
0.0
  0
LINE
  5
4D6C
  8
0
  6
CONTINUOUS
 10
0.1377603739254348
 20
-1.7508506067459131
 30
0.0
 11
0.150907184036669
 21
-1.749700409899652
 31
0.0
  0
LINE
  5
4D6D
  8
0
  6
CONTINUOUS
 10
0.1303867696719884
 20
-1.5091317231818231
 30
0.0
 11
0.1509071840366689
 21
-1.5109270268095869
 31
0.0
  0
LINE
  5
4D6E
  8
0
  6
CONTINUOUS
 10
0.8749999999999998
 20
0.0
 30
0.0
 11
0.8749999999999996
 21
-0.8649327026588228
 31
0.0
  0
LINE
  5
4D6F
  8
0
  6
CONTINUOUS
 10
0.727014513830997
 20
-0.8726882933550612
 30
0.0
 11
0.727014513830997
 21
-0.9264923397184784
 31
0.0
  0
ARC
  5
4D70
  8
0
  6
CONTINUOUS
 10
0.41187090827646
 20
-0.9264923397184784
 30
0.0
 40
0.315143605554537
 50
312.19222981924361
 51
0.0
  0
LINE
  5
4D71
  8
0
  6
CONTINUOUS
 10
0.727014513830997
 20
-0.8726882933550612
 30
0.0
 11
0.8749999999999996
 21
-0.8649327026588228
 31
0.0
  0
ENDBLK
  5
4D72
  8
0
  0
BLOCK
  8
0
  2
A$C0A61123B
 70
     0
 10
0.0
 20
0.0
 30
0.0
  3
A$C0A61123B
  1

  0
LINE
  5
C0AD
  8
PROF
  6
CONTINUOUS
 10
4.9012016798694162
 20
13.325025853350891
 30
0.0000000000000002
 11
4.9012016798694162
 21
12.88585218805485
 31
0.0000000000000003
  0
INSERT
  5
C0AE
  8
0
  2
*U21
 10
0.0
 20
0.0
 30
0.0
  0
LINE
  5
C0AF
  8
PROF
 10
4.5198575031869259
 20
12.72227734589444
 30
0.0000000000000001
 11
4.5198575031869259
 21
12.88585218805485
 31
0.0000000000000001
  0
LINE
  5
C0B0
  8
PROF
  6
CONTINUOUS
 10
3.6306271195888371
 20
13.325025853350891
 30
0.0000000000000002
 11
4.9012016798694162
 21
13.325025853350891
 31
0.0000000000000002
  0
LINE
  5
C0B1
  8
PROF
 10
1.9750295148747341
 20
10.37671325491794
 30
0.0000000000000002
 11
1.9750295148747341
 21
10.11391186758919
 31
0.0000000000000002
  0
LINE
  5
C0B2
  8
PROF
 10
1.607967335755631
 20
10.11391186758919
 30
0.0000000000000001
 11
1.9750295148747341
 21
10.11391186758919
 31
0.0000000000000001
  0
LINE
  5
C0B3
  8
PROF
 10
1.9750295148747341
 20
10.11391186758919
 30
0.0000000000000001
 11
1.944958486898144
 21
10.11391186758919
 31
0.0000000000000001
  0
LINE
  5
C0B4
  8
PROF
 10
1.9750295148747341
 20
10.11391186758919
 30
0.0000000000000001
 11
1.944958486898144
 21
10.11391186758919
 31
0.0000000000000001
  0
LINE
  5
C0B5
  8
PROF
 10
0.3222605517169654
 20
7.5247473351056442
 30
-0.0000000000000002
 11
-0.0000008570117416
 21
7.5247473351056442
 31
0.0
  0
LINE
  5
C0B6
  8
PROF
 10
-0.0000008570117416
 20
7.5247473351056442
 30
0.0
 11
-0.0000008570117416
 21
9.1943336957369866
 31
0.0
  0
POLYLINE
  5
C0B7
  8
PROF
 66
     1
 10
0.0
 20
0.0
 30
0.0000000000000001
 70
     4
 75
     6
  0
VERTEX
  5
C0B8
  8
PROF
 10
1.607967335755631
 20
10.11391186758919
 30
0.0000000000000001
 70
    16
  0
VERTEX
  5
C0B9
  8
PROF
 10
1.607967335755631
 20
10.11391186758919
 30
0.0000000000000001
 70
     8
  0
VERTEX
  5
C0BA
  8
PROF
 10
1.646813232648582
 20
10.02198069336111
 30
0.0000000000000001
 70
     8
  0
VERTEX
  5
C0BB
  8
PROF
 10
1.67335966680929
 20
9.9344134163010267
 30
0.0000000000000001
 70
     8
  0
VERTEX
  5
C0BC
  8
PROF
 10
1.689008640046324
 20
9.8512576644480987
 30
0.0000000000000001
 70
     8
  0
VERTEX
  5
C0BD
  8
PROF
 10
1.695162154168258
 20
9.7725610658417281
 30
0.0000000000000001
 70
     8
  0
VERTEX
  5
C0BE
  8
PROF
 10
1.6932222109836059
 20
9.6983712485214255
 30
0.0000000000000001
 70
     8
  0
VERTEX
  5
C0BF
  8
PROF
 10
1.6845908123009961
 20
9.6287358405263603
 30
0.0000000000000001
 70
     8
  0
VERTEX
  5
C0C0
  8
PROF
 10
1.6706699599288859
 20
9.5637024698960431
 30
0.0000000000000001
 70
     8
  0
VERTEX
  5
C0C1
  8
PROF
 10
1.6528616556759621
 20
9.503318764669757
 30
0.0000000000000001
 70
     8
  0
VERTEX
  5
C0C2
  8
PROF
 10
1.6323562992730549
 20
9.4475843259650674
 30
0.0000000000000001
 70
     8
  0
VERTEX
  5
C0C3
  8
PROF
 10
1.609497882140658
 20
9.3963066472123273
 30
0.0000000000000001
 70
     8
  0
VERTEX
  5
C0C4
  8
PROF
 10
1.584418793621637
 20
9.3492451949202842
 30
0.0000000000000001
 70
     8
  0
VERTEX
  5
C0C5
  8
PROF
 10
1.557251423058744
 20
9.3061594355972375
 30
0.0000000000000001
 70
     8
  0
VERTEX
  5
C0C6
  8
PROF
 10
1.5281281597949601
 20
9.2668088357519292
 30
0.0000000000000001
 70
     8
  0
VERTEX
  5
C0C7
  8
PROF
 10
1.4971813931729789
 20
9.2309528618930017
 30
0.0000000000000001
 70
     8
  0
VERTEX
  5
C0C8
  8
PROF
 10
1.464543512535726
 20
9.1983509805288577
 30
0.0000000000000001
 70
     8
  0
VERTEX
  5
C0C9
  8
PROF
 10
1.4303469072260091
 20
9.1687626581682462
 30
0.0000000000000001
 70
     8
  0
VERTEX
  5
C0CA
  8
PROF
 10
1.3947360332574019
 20
9.1419547918675335
 30
0.0000000000000001
 70
     8
  0
VERTEX
  5
C0CB
  8
PROF
 10
1.3579036133264131
 20
9.1177240008747731
 30
0.0000000000000001
 70
     8
  0
VERTEX
  5
C0CC
  8
PROF
 10
1.3200544368004321
 20
9.0958743349860924
 30
0.0000000000000001
 70
     8
  0
VERTEX
  5
C0CD
  8
PROF
 10
1.281393293046676
 20
9.0762098439975034
 30
0.0000000000000001
 70
     8
  0
VERTEX
  5
C0CE
  8
PROF
 10
1.242124971432417
 20
9.0585345777049042
 30
0.0000000000000001
 70
     8
  0
VERTEX
  5
C0CF
  8
PROF
 10
1.2024542613249869
 20
9.0426525859044204
 30
0.0000000000000001
 70
     8
  0
VERTEX
  5
C0D0
  8
PROF
 10
1.1625859520916599
 20
9.0283679183919503
 30
0.0000000000000001
 70
     8
  0
VERTEX
  5
C0D1
  8
PROF
 10
1.1227248330997091
 20
9.0154846249635057
 30
0.0000000000000001
 70
     8
  0
VERTEX
  5
C0D2
  8
PROF
 10
1.0829726247361
 20
9.0034643862466055
 30
0.0000000000000001
 70
     8
  0
VERTEX
  5
C0D3
  8
PROF
 10
1.043018771466222
 20
8.9903994061946833
 30
0.0000000000000001
 70
     8
  0
VERTEX
  5
C0D4
  8
PROF
 10
1.002449648775211
 20
8.9740395195925657
 30
0.0000000000000001
 70
     8
  0
VERTEX
  5
C0D5
  8
PROF
 10
0.9608516321480919
 20
8.9521345612251935
 30
0.0000000000000001
 70
     8
  0
VERTEX
  5
C0D6
  8
PROF
 10
0.9178110970699435
 20
8.9224343658775052
 30
0.0000000000000001
 70
     8
  0
VERTEX
  5
C0D7
  8
PROF
 10
0.8729144190259034
 20
8.8826887683343312
 30
0.0000000000000001
 70
     8
  0
VERTEX
  5
C0D8
  8
PROF
 10
0.8257479735009951
 20
8.8306476033806121
 30
0.0000000000000001
 70
     8
  0
VERTEX
  5
C0D9
  8
PROF
 10
0.7758981359802988
 20
8.764060705801171
 30
0.0000000000000001
 70
     8
  0
VERTEX
  5
C0DA
  8
PROF
 10
1.729201901609656
 20
9.8629858761255491
 30
0.0000000000000001
 70
    16
  0
VERTEX
  5
C0DB
  8
PROF
 10
1.6793731231140889
 20
9.4532143012734196
 30
0.0000000000000001
 70
    16
  0
VERTEX
  5
C0DC
  8
PROF
 10
1.4455611507419801
 20
9.1391837193732481
 30
0.0000000000000001
 70
    16
  0
VERTEX
  5
C0DD
  8
PROF
 10
1.120463717273821
 20
9.0026267702428413
 30
0.0000000000000001
 70
    16
  0
VERTEX
  5
C0DE
  8
PROF
 10
0.9127765582653638
 20
8.9630202230383702
 30
0.0000000000000001
 70
    16
  0
VERTEX
  5
C0DF
  8
PROF
 10
0.7758981359802988
 20
8.764060705801171
 30
0.0000000000000001
 70
    16
  0
SEQEND
  5
C0E0
  8
PROF
  0
ARC
  5
C0E1
  8
PROF
 10
0.733429816733235
 20
8.4849506952165257
 30
0.0000000000000001
 40
0.2823224329524727
 50
269.73652020831901
 51
81.348449993176914
  0
LINE
  5
C0E2
  8
PROF
  6
CONTINUOUS
 10
-0.0000008570117416
 20
9.1943336957369866
 30
-0.0000000000000001
 11
3.6306271195888371
 21
13.325025853350891
 31
0.0000000000000002
  0
POLYLINE
  5
C0E3
  8
PROF
 66
     1
 10
0.0
 20
0.0
 30
0.0000000000000001
 70
     4
 75
     6
  0
VERTEX
  5
C0E4
  8
PROF
 10
4.5198575031869259
 20
12.72227734589444
 30
0.0000000000000001
 70
    16
  0
VERTEX
  5
C0E5
  8
PROF
 10
4.5198575031869259
 20
12.72227734589444
 30
0.0000000000000001
 70
     8
  0
VERTEX
  5
C0E6
  8
PROF
 10
4.4467035366886298
 20
12.741128108778071
 30
0.0000000000000001
 70
     8
  0
VERTEX
  5
C0E7
  8
PROF
 10
4.3786645761268801
 20
12.754675269913941
 30
0.0000000000000001
 70
     8
  0
VERTEX
  5
C0E8
  8
PROF
 10
4.3154364111440477
 20
12.76334314092332
 30
0.0000000000000001
 70
     8
  0
VERTEX
  5
C0E9
  8
PROF
 10
4.256714831382566
 20
12.76755603342724
 30
0.0000000000000001
 70
     8
  0
VERTEX
  5
C0EA
  8
PROF
 10
4.2021956264849791
 20
12.76773825904672
 30
0.0000000000000001
 70
     8
  0
VERTEX
  5
C0EB
  8
PROF
 10
4.1515745860935453
 20
12.764314129403139
 30
0.0000000000000001
 70
     8
  0
VERTEX
  5
C0EC
  8
PROF
 10
4.1045474998508658
 20
12.75770795611743
 30
0.0000000000000001
 70
     8
  0
VERTEX
  5
C0ED
  8
PROF
 10
4.0608101573993158
 20
12.748344050810831
 30
0.0000000000000001
 70
     8
  0
VERTEX
  5
C0EE
  8
PROF
 10
4.0200583483813261
 20
12.736646725104491
 30
0.0000000000000001
 70
     8
  0
VERTEX
  5
C0EF
  8
PROF
 10
3.9819878624393819
 20
12.72304029061945
 30
0.0000000000000001
 70
     8
  0
VERTEX
  5
C0F0
  8
PROF
 10
3.946294489215858
 20
12.707949058976959
 30
0.0000000000000001
 70
     8
  0
VERTEX
  5
C0F1
  8
PROF
 10
3.9126740183532429
 20
12.691797341798059
 30
0.0000000000000001
 70
     8
  0
VERTEX
  5
C0F2
  8
PROF
 10
3.8808638350742508
 20
12.67494295718654
 30
0.0000000000000001
 70
     8
  0
VERTEX
  5
C0F3
  8
PROF
 10
3.850767706922738
 20
12.65747774917668
 30
0.0000000000000001
 70
     8
  0
VERTEX
  5
C0F4
  8
PROF
 10
3.8223309970228452
 20
12.639427068285499
 30
0.0000000000000001
 70
     8
  0
VERTEX
  5
C0F5
  8
PROF
 10
3.7954990684987129
 20
12.62081626503004
 30
0.0000000000000001
 70
     8
  0
VERTEX
  5
C0F6
  8
PROF
 10
3.7702172844744828
 20
12.601670689926999
 30
0.0000000000000001
 70
     8
  0
VERTEX
  5
C0F7
  8
PROF
 10
3.746431008074353
 20
12.58201569349364
 30
0.0000000000000001
 70
     8
  0
VERTEX
  5
C0F8
  8
PROF
 10
3.7240856024224618
 20
12.56187662624666
 30
0.0000000000000001
 70
     8
  0
VERTEX
  5
C0F9
  8
PROF
 10
3.7031264306428961
 20
12.541278838703191
 30
0.0000000000000001
 70
     8
  0
VERTEX
  5
C0FA
  8
PROF
 10
3.6834988558599089
 20
12.520247681380051
 30
0.0000000000000001
 70
     8
  0
VERTEX
  5
C0FB
  8
PROF
 10
3.665148241197528
 20
12.49880850479428
 30
0.0000000000000001
 70
     8
  0
VERTEX
  5
C0FC
  8
PROF
 10
3.6480199497799499
 20
12.47698665946279
 30
0.0000000000000001
 70
     8
  0
VERTEX
  5
C0FD
  8
PROF
 10
3.6320593447313172
 20
12.45480749590263
 30
0.0000000000000001
 70
     8
  0
VERTEX
  5
C0FE
  8
PROF
 10
3.6171895848866589
 20
12.43223790353807
 30
0.0000000000000001
 70
     8
  0
VERTEX
  5
C0FF
  8
PROF
 10
3.6032450119242858
 20
12.40901092742285
 30
0.0000000000000001
 70
     8
  0
VERTEX
  5
C100
  8
PROF
 10
3.590037763233453
 20
12.38480115151844
 30
0.0000000000000001
 70
     8
  0
VERTEX
  5
C101
  8
PROF
 10
3.5773799762033032
 20
12.35928315978594
 30
0.0000000000000001
 70
     8
  0
VERTEX
  5
C102
  8
PROF
 10
3.5650837882230908
 20
12.33213153618658
 30
0.0000000000000001
 70
     8
  0
VERTEX
  5
C103
  8
PROF
 10
3.5529613366819599
 20
12.303020864681571
 30
0.0000000000000001
 70
     8
  0
VERTEX
  5
C104
  8
PROF
 10
3.540824758969165
 20
12.271625729232371
 30
0.0000000000000001
 70
     8
  0
VERTEX
  5
C105
  8
PROF
 10
3.5284861924738489
 20
12.23762071379997
 30
0.0000000000000001
 70
     8
  0
VERTEX
  5
C106
  8
PROF
 10
3.5157577745852668
 20
12.200680402345711
 30
0.0000000000000001
 70
     8
  0
VERTEX
  5
C107
  8
PROF
 10
3.5024516426926189
 20
12.16047937883093
 30
0.0000000000000001
 70
     8
  0
VERTEX
  5
C108
  8
PROF
 10
3.4883799341851041
 20
12.116692227216619
 30
0.0000000000000001
 70
     8
  0
VERTEX
  5
C109
  8
PROF
 10
3.4733547864519201
 20
12.06899353146423
 30
0.0000000000000001
 70
     8
  0
VERTEX
  5
C10A
  8
PROF
 10
3.45723654619428
 20
12.0172095445447
 30
0.0000000000000001
 70
     8
  0
VERTEX
  5
C10B
  8
PROF
 10
3.4400783973613889
 20
11.961773195467799
 30
0.0000000000000001
 70
     8
  0
VERTEX
  5
C10C
  8
PROF
 10
3.421981733214579
 20
11.90326908225302
 30
0.0000000000000001
 70
     8
  0
VERTEX
  5
C10D
  8
PROF
 10
3.4030479470150108
 20
11.842281802919951
 30
0.0000000000000001
 70
     8
  0
VERTEX
  5
C10E
  8
PROF
 10
3.383378432024017
 20
11.779395955487979
 30
0.0000000000000001
 70
     8
  0
VERTEX
  5
C10F
  8
PROF
 10
3.3630745815028709
 20
11.715196137976809
 30
0.0000000000000001
 70
     8
  0
VERTEX
  5
C110
  8
PROF
 10
3.3422377887127359
 20
11.650266948405831
 30
0.0000000000000001
 70
     8
  0
VERTEX
  5
C111
  8
PROF
 10
3.320969446915
 20
11.58519298479461
 30
0.0000000000000001
 70
     8
  0
VERTEX
  5
C112
  8
PROF
 10
3.2993709493707679
 20
11.520558845162549
 30
0.0000000000000001
 70
     8
  0
VERTEX
  5
C113
  8
PROF
 10
3.277543689341428
 20
11.456949127529469
 30
0.0000000000000001
 70
     8
  0
VERTEX
  5
C114
  8
PROF
 10
3.2555890600881412
 20
11.3949484299145
 30
0.0000000000000001
 70
     8
  0
VERTEX
  5
C115
  8
PROF
 10
3.233608454872182
 20
11.335141350337491
 30
0.0000000000000001
 70
     8
  0
VERTEX
  5
C116
  8
PROF
 10
3.2116715641212181
 20
11.27799544797778
 30
0.0000000000000001
 70
     8
  0
VERTEX
  5
C117
  8
PROF
 10
3.189721266927847
 20
11.22351012665467
 30
0.0000000000000001
 70
     8
  0
VERTEX
  5
C118
  8
PROF
 10
3.1676687395512881
 20
11.17156775134765
 30
0.0000000000000001
 70
     8
  0
VERTEX
  5
C119
  8
PROF
 10
3.1454251582505321
 20
11.12205068703588
 30
0.0000000000000001
 70
     8
  0
VERTEX
  5
C11A
  8
PROF
 10
3.122901699284625
 20
11.07484129869874
 30
0.0000000000000001
 70
     8
  0
VERTEX
  5
C11B
  8
PROF
 10
3.1000095389127291
 20
11.02982195131551
 30
0.0000000000000001
 70
     8
  0
VERTEX
  5
C11C
  8
PROF
 10
3.0766598533938909
 20
10.986875009865679
 30
0.0000000000000001
 70
     8
  0
VERTEX
  5
C11D
  8
PROF
 10
3.0527638189871591
 20
10.9458828393283
 30
0.0000000000000001
 70
     8
  0
VERTEX
  5
C11E
  8
PROF
 10
3.0282326119516361
 20
10.90672780468298
 30
0.0000000000000001
 70
     8
  0
VERTEX
  5
C11F
  8
PROF
 10
3.002977408546371
 20
10.869292270908771
 30
0.0000000000000001
 70
     8
  0
VERTEX
  5
C120
  8
PROF
 10
2.9769093850304098
 20
10.833458602985161
 30
0.0000000000000001
 70
     8
  0
VERTEX
  5
C121
  8
PROF
 10
2.9499397176628568
 20
10.799109165891419
 30
0.0000000000000001
 70
     8
  0
VERTEX
  5
C122
  8
PROF
 10
2.9220006098404379
 20
10.76614363969508
 30
0.0000000000000001
 70
     8
  0
VERTEX
  5
C123
  8
PROF
 10
2.8931083735103011
 20
10.7345309648158
 30
0.0000000000000001
 70
     8
  0
VERTEX
  5
C124
  8
PROF
 10
2.8633003477572738
 20
10.70425739676193
 30
0.0000000000000001
 70
     8
  0
VERTEX
  5
C125
  8
PROF
 10
2.8326138716660689
 20
10.67530919104115
 30
0.0000000000000001
 70
     8
  0
VERTEX
  5
C126
  8
PROF
 10
2.8010862843216269
 20
10.647672603161711
 30
0.0000000000000001
 70
     8
  0
VERTEX
  5
C127
  8
PROF
 10
2.7687549248087171
 20
10.62133388863162
 30
0.0000000000000001
 70
     8
  0
VERTEX
  5
C128
  8
PROF
 10
2.735657132212054
 20
10.5962793029588
 30
0.0000000000000001
 70
     8
  0
VERTEX
  5
C129
  8
PROF
 10
2.7018302456165202
 20
10.572495101651381
 30
0.0000000000000001
 70
     8
  0
VERTEX
  5
C12A
  8
PROF
 10
2.6673116041068852
 20
10.54996754021726
 30
0.0000000000000001
 70
     8
  0
VERTEX
  5
C12B
  8
PROF
 10
2.6321385467680321
 20
10.528682874164581
 30
0.0000000000000001
 70
     8
  0
VERTEX
  5
C12C
  8
PROF
 10
2.5963484126846188
 20
10.508627359001251
 30
0.0000000000000001
 70
     8
  0
VERTEX
  5
C12D
  8
PROF
 10
2.5599785409415849
 20
10.489787250235279
 30
0.0000000000000001
 70
     8
  0
VERTEX
  5
C12E
  8
PROF
 10
2.522998630314361
 20
10.472162234281081
 30
0.0000000000000001
 70
     8
  0
VERTEX
  5
C12F
  8
PROF
 10
2.4851078183409072
 20
10.455805721177621
 30
0.0000000000000001
 70
     8
  0
VERTEX
  5
C130
  8
PROF
 10
2.4459376022498982
 20
10.44078455187036
 30
0.0000000000000001
 70
     8
  0
VERTEX
  5
C131
  8
PROF
 10
2.4051194792701258
 20
10.42716556730465
 30
0.0000000000000001
 70
     8
  0
VERTEX
  5
C132
  8
PROF
 10
2.3622849466301541
 20
10.415015608425851
 30
0.0000000000000001
 70
     8
  0
VERTEX
  5
C133
  8
PROF
 10
2.3170655015587149
 20
10.40440151617929
 30
0.0000000000000001
 70
     8
  0
VERTEX
  5
C134
  8
PROF
 10
2.2690926412844301
 20
10.395390131510339
 30
0.0000000000000001
 70
     8
  0
VERTEX
  5
C135
  8
PROF
 10
2.2179978630360888
 20
10.388048295364451
 30
0.0000000000000001
 70
     8
  0
VERTEX
  5
C136
  8
PROF
 10
2.1634126640422551
 20
10.38244284868688
 30
0.0000000000000001
 70
     8
  0
VERTEX
  5
C137
  8
PROF
 10
2.104968541531604
 20
10.37864063242295
 30
0.0000000000000001
 70
     8
  0
VERTEX
  5
C138
  8
PROF
 10
2.0422969927328718
 20
10.37670848751816
 30
0.0000000000000001
 70
     8
  0
VERTEX
  5
C139
  8
PROF
 10
1.9750295148747341
 20
10.37671325491794
 30
0.0000000000000001
 70
     8
  0
VERTEX
  5
C13A
  8
PROF
 10
4.2166060115107484
 20
12.80885334975255
 30
0.0000000000000001
 70
    16
  0
VERTEX
  5
C13B
  8
PROF
 10
3.8702254102732918
 20
12.707065515763929
 30
0.0000000000000001
 70
    16
  0
VERTEX
  5
C13C
  8
PROF
 10
3.605346156896871
 20
12.46277472098552
 30
0.0000000000000001
 70
    16
  0
VERTEX
  5
C13D
  8
PROF
 10
3.500746030527238
 20
12.170680575709749
 30
0.0000000000000001
 70
    16
  0
VERTEX
  5
C13E
  8
PROF
 10
3.231798439705698
 20
11.26846416496107
 30
0.0000000000000001
 70
    16
  0
VERTEX
  5
C13F
  8
PROF
 10
2.9737109398832891
 20
10.76631086647069
 30
0.0000000000000001
 70
    16
  0
VERTEX
  5
C140
  8
PROF
 10
2.5729961067384011
 20
10.460947364504699
 30
0.0000000000000001
 70
    16
  0
VERTEX
  5
C141
  8
PROF
 10
2.253782621454604
 20
10.372731239449759
 30
0.0000000000000001
 70
    16
  0
VERTEX
  5
C142
  8
PROF
 10
1.9750295148747341
 20
10.37671325491794
 30
0.0000000000000001
 70
    16
  0
SEQEND
  5
C143
  8
PROF
  0
LINE
  5
C144
  8
PROF
 10
4.9012016798694162
 20
12.88585218805485
 30
0.0000000000000003
 11
4.5198575031869259
 21
12.88585218805485
 31
0.0000000000000003
  0
LINE
  5
C145
  8
PROF
 10
0.7321315362267457
 20
8.2026312473991538
 30
0.0000000000000006
 11
0.7321315362267457
 21
8.0511853963434987
 31
0.0000000000000006
  0
ARC
  5
C146
  8
PROF
 10
0.7977322214551919
 20
7.5773339332026799
 30
0.0000000000000006
 40
0.4783708383912012
 50
97.882010168942529
 51
186.31119505698649
  0
LINE
  5
C147
  8
FRAME_050
 10
7.8016377197432121
 20
17.99371054969447
 30
0.0
 11
7.8016377197432121
 21
0.0000000000002274
 31
0.0
  0
ENDBLK
  5
C149
  8
0
  0
BLOCK
  8
0
  2
*U21
 70
     1
 10
0.0
 20
0.0
 30
0.0
  3
*U21
  1

  0
TEXT
  5
CFF0
  8
0
 10
3.5177832928899071
 20
10.38601584255777
 30
0.0
 40
0.125
  1
Crown Moulding
  0
TEXT
  5
CFF1
  8
0
 10
3.5223876585106431
 20
10.17717091304435
 30
0.0
 40
0.125
  1
TL-AB509
  0
TEXT
  5
CFF2
  8
0
 10
3.5074661032582561
 20
9.9667059289606801
 30
0.0
 40
0.125
  1
1-5/16" x 7-9/16"
  0
TEXT
  5
CFF3
  8
0
 10
3.519403347460166
 20
9.7562409448770051
 30
0.0
 40
0.125
  1
800.66.TAGUE
  0
ENDBLK
  5
CFF5
  8
0
  0
BLOCK
  8
0
  2
*U22
 70
     1
 10
0.0
 20
0.0
 30
0.0
  3
*U22
  1

  0
TEXT
  5
CFF7
  8
0
 10
5.3066868277875692
 20
1.767659498411035
 30
0.0
 40
0.125
  1
Back Band
  0
TEXT
  5
CFF8
  8
0
 10
5.3153839628489603
 20
1.55881456889762
 30
0.0
 40
0.125
  1
TL-1
  0
TEXT
  5
CFF9
  8
0
 10
5.3004624075965721
 20
1.3483495848139451
 30
0.0
 40
0.125
  1
1-3/8" x 1-9/16"
  0
TEXT
  5
CFFA
  8
0
 10
5.3123996517984819
 20
1.137884600730271
 30
0.0
 40
0.125
  1
800.66.TAGUE
  0
ENDBLK
  5
CFFC
  8
0
  0
BLOCK
  8
0
  2
*U23
 70
     1
 10
0.0
 20
0.0
 30
0.0
  3
*U23
  1

  0
TEXT
  5
CFFE
  8
0
 10
2.551252809835812
 20
0.9623111621543785
 30
0.0
 40
0.125
  1
Back Band
  0
TEXT
  5
CFFF
  8
0
 10
2.5599499448972041
 20
0.7534662326409634
 30
0.0
 40
0.125
  1
TL-288
  0
TEXT
  5
D000
  8
0
 10
2.5450283896448158
 20
0.5430012485572889
 30
0.0
 40
0.125
  1
1-11/16" x 1-13/16"
  0
TEXT
  5
D001
  8
0
 10
2.5569656338467261
 20
0.3325362644736145
 30
0.0
 40
0.125
  1
800.66.TAGUE
  0
ENDBLK
  5
D003
  8
0
  0
BLOCK
  8
0
  2
*U24
 70
     1
 10
0.0
 20
0.0
 30
0.0
  3
*U24
  1

  0
TEXT
  5
D005
  8
0
 10
1.8364329238504911
 20
0.882982778245946
 30
0.0
 40
0.125
  1
Back Band
  0
TEXT
  5
D006
  8
0
 10
1.845130058911882
 20
0.6741378487325309
 30
0.0
 40
0.125
  1
TL-289
  0
TEXT
  5
D007
  8
0
 10
1.8302085036594951
 20
0.4636728646488565
 30
0.0
 40
0.125
  1
1-1/16" x 1-11/16"
  0
TEXT
  5
D008
  8
0
 10
1.8421457478614049
 20
0.2532078805651821
 30
0.0
 40
0.125
  1
800.66.TAGUE
  0
ENDBLK
  5
D00A
  8
0
  0
BLOCK
  8
0
  2
*U25
 70
     1
 10
0.0
 20
0.0
 30
0.0
  3
*U25
  1

  0
TEXT
  5
D00C
  8
0
 10
1.929931786774016
 20
0.8512665098620573
 30
0.0
 40
0.125
  1
Back Band
  0
TEXT
  5
D00D
  8
0
 10
1.9386289218354069
 20
0.6424215803486422
 30
0.0
 40
0.125
  1
TL-601
  0
TEXT
  5
D00E
  8
0
 10
1.92370736658302
 20
0.4319565962649678
 30
0.0
 40
0.125
  1
1-5/16" x 1-3/8"
  0
TEXT
  5
D00F
  8
0
 10
1.9356446107849301
 20
0.2214916121812933
 30
0.0
 40
0.125
  1
800.66.TAGUE
  0
ENDBLK
  5
D011
  8
0
  0
BLOCK
  8
0
  2
*U26
 70
     1
 10
0.0
 20
0.0
 30
0.0
  3
*U26
  1

  0
TEXT
  5
D013
  8
0
 10
1.8237739904796331
 20
0.9081704084311468
 30
0.0
 40
0.125
  1
Back Band
  0
TEXT
  5
D014
  8
0
 10
1.832471125541024
 20
0.6993254789177317
 30
0.0
 40
0.125
  1
TL-2075
  0
TEXT
  5
D015
  8
0
 10
1.8175495702886371
 20
0.4888604948340573
 30
0.0
 40
0.125
  1
1-5/16" x 1-5/8"
  0
TEXT
  5
D016
  8
0
 10
1.829486814490547
 20
0.2783955107503828
 30
0.0
 40
0.125
  1
800.66.TAGUE
  0
ENDBLK
  5
D018
  8
0
  0
BLOCK
  8
0
  2
*U27
 70
     1
 10
0.0
 20
0.0
 30
0.0
  3
*U27
  1

  0
TEXT
  5
D01A
  8
0
 10
1.9545668919090351
 20
0.8644213446237927
 30
0.0
 40
0.125
  1
Back Band
  0
TEXT
  5
D01B
  8
0
 10
1.963264026970426
 20
0.6555764151103776
 30
0.0
 40
0.125
  1
TL-2208 
  0
TEXT
  5
D01C
  8
0
 10
1.9483424717180391
 20
0.4451114310267032
 30
0.0
 40
0.125
  1
1-3/8" x 1-5/8"
  0
TEXT
  5
D01D
  8
0
 10
1.960279715919949
 20
0.2346464469430287
 30
0.0
 40
0.125
  1
800.66.TAGUE
  0
ENDBLK
  5
D01F
  8
0
  0
BLOCK
  8
0
  2
*U28
 70
     1
 10
0.0
 20
0.0
 30
0.0
  3
*U28
  1

  0
TEXT
  5
D021
  8
0
 10
2.7644474121262692
 20
0.8344220463493456
 30
0.0
 40
0.125
  1
Back Band
  0
TEXT
  5
D022
  8
0
 10
2.7731445471876608
 20
0.6255771168359307
 30
0.0
 40
0.125
  1
TL-2221 
  0
TEXT
  5
D023
  8
0
 10
2.7689665117169922
 20
0.4151121327522561
 30
0.0
 40
0.125
  1
7/8" x 1-3/4"
  0
TEXT
  5
D024
  8
0
 10
2.7701602361371829
 20
0.2046471486685817
 30
0.0
 40
0.125
  1
800.66.TAGUE
  0
ENDBLK
  5
D026
  8
0
  0
BLOCK
  8
0
  2
*U29
 70
     1
 10
0.0
 20
0.0
 30
0.0
  3
*U29
  1

  0
TEXT
  5
D028
  8
0
 10
2.6915324485008609
 20
1.1836703361148011
 30
0.0
 40
0.125
  1
Back Band
  0
TEXT
  5
D029
  8
0
 10
2.700229583562253
 20
0.974825406601386
 30
0.0
 40
0.125
  1
TL-2266
  0
TEXT
  5
D02A
  8
0
 10
2.685308028309866
 20
0.7643604225177115
 30
0.0
 40
0.125
  1
1-11/32" x 1-15/32"
  0
TEXT
  5
D02B
  8
0
 10
2.697245272511775
 20
0.5538954384340372
 30
0.0
 40
0.125
  1
800.66.TAGUE
  0
ENDBLK
  5
D02D
  8
0
  0
BLOCK
  8
0
  2
*U30
 70
     1
 10
0.0
 20
0.0
 30
0.0
  3
*U30
  1

  0
TEXT
  5
D02F
  8
0
 10
3.1852595440213172
 20
1.4826139655959869
 30
0.0
 40
0.125
  1
Back Band
  0
TEXT
  5
D030
  8
0
 10
3.1939566790827079
 20
1.273769036082572
 30
0.0
 40
0.125
  1
TL-2293
  0
TEXT
  5
D031
  8
0
 10
3.1790351238303209
 20
1.0147194680971241
 30
0.0
 40
0.125
  1
1-
  0
TEXT
  5
D032
  8
0
 10
3.3285150010472382
 20
1.1040697409484199
 30
0.0
 40
0.0875
  1
7
  0
LINE
  5
D033
  8
0
 10
3.3553421833758441
 20
1.032393937073133
 30
0.0
 11
3.4557180597372761
 21
1.1757455448237071
 31
0.0
  0
TEXT
  5
D034
  8
0
 10
3.4151594985461009
 20
0.9855528014304578
 30
0.0
 40
0.0875
  1
8
  0
TEXT
  5
D035
  8
0
 10
3.483619594044054
 20
1.0147194680971241
 30
0.0
 40
0.125
  1
" x 2-
  0
TEXT
  5
D036
  8
0
 10
3.8794330319703851
 20
1.1040697409484199
 30
0.0
 40
0.0875
  1
7
  0
LINE
  5
D037
  8
0
 10
3.9062602142989902
 20
1.032393937073133
 30
0.0
 11
4.0066360906604244
 21
1.1757455448237071
 31
0.0
  0
TEXT
  5
D038
  8
0
 10
3.957721458527911
 20
0.9855528014304578
 30
0.0
 40
0.0875
  1
16
  0
TEXT
  5
D039
  8
0
 10
4.0939254148717028
 20
1.0147194680971241
 30
0.0
 40
0.125
  1
"
  0
TEXT
  5
D03A
  8
0
 10
3.1909723680322308
 20
0.8459211506801169
 30
0.0
 40
0.125
  1
800.66.TAGUE
  0
ENDBLK
  5
D03C
  8
0
  0
BLOCK
  8
0
  2
*U31
 70
     1
 10
0.0
 20
0.0
 30
0.0
  3
*U31
  1

  0
TEXT
  5
D03E
  8
0
 10
2.4900996379053408
 20
1.0092498715596481
 30
0.0
 40
0.125
  1
Baluster Stock
  0
TEXT
  5
D03F
  8
0
 10
2.4987967729667329
 20
0.800404942046233
 30
0.0
 40
0.125
  1
TL-236
  0
TEXT
  5
D040
  8
0
 10
2.4838752177143451
 20
0.5899399579625585
 30
0.0
 40
0.125
  1
1-9/16" x 1-9/16"
  0
TEXT
  5
D041
  8
0
 10
2.4958124619162549
 20
0.3794749738788841
 30
0.0
 40
0.125
  1
800.66.TAGUE
  0
ENDBLK
  5
D043
  8
0
  0
BLOCK
  8
0
  2
*U32
 70
     1
 10
0.0
 20
0.0
 30
0.0
  3
*U32
  1

  0
TEXT
  5
D045
  8
0
 10
2.3591545502839431
 20
0.9010435759007737
 30
0.0
 40
0.125
  1
Baluster Stock
  0
TEXT
  5
D046
  8
0
 10
2.3678516853453342
 20
0.6921986463873587
 30
0.0
 40
0.125
  1
TL-237
  0
TEXT
  5
D047
  8
0
 10
2.3529301300929468
 20
0.4817336623036842
 30
0.0
 40
0.125
  1
1-5/16" x 1-5/16"
  0
TEXT
  5
D048
  8
0
 10
2.3648673742948572
 20
0.2712686782200098
 30
0.0
 40
0.125
  1
800.66.TAGUE
  0
ENDBLK
  5
D04A
  8
0
  0
BLOCK
  8
0
  2
*U33
 70
     1
 10
0.0
 20
0.0
 30
0.0
  3
*U33
  1

  0
TEXT
  5
D04C
  8
0
 10
2.098510450655322
 20
0.7826568183311498
 30
0.0
 40
0.125
  1
Baluster Stock
  0
TEXT
  5
D04D
  8
0
 10
2.1072075857167132
 20
0.5738118888177346
 30
0.0
 40
0.125
  1
TL-238
  0
TEXT
  5
D04E
  8
0
 10
2.0922860304643258
 20
0.3633469047340601
 30
0.0
 40
0.125
  1
1-1/16" x 1-1/16"
  0
TEXT
  5
D04F
  8
0
 10
2.1042232746662362
 20
0.1528819206503857
 30
0.0
 40
0.125
  1
800.66.TAGUE
  0
ENDBLK
  5
D051
  8
0
  0
BLOCK
  8
0
  2
*U34
 70
     1
 10
0.0
 20
0.0
 30
0.0
  3
*U34
  1

  0
TEXT
  5
D053
  8
0
 10
1.7835912292499461
 20
0.6784890753194919
 30
0.0
 40
0.125
  1
Baluster Stock
  0
TEXT
  5
D054
  8
0
 10
1.792288364311337
 20
0.4696441458060768
 30
0.0
 40
0.125
  1
TL-239
  0
TEXT
  5
D055
  8
0
 10
1.7890482551708189
 20
0.2591791617224023
 30
0.0
 40
0.125
  1
3/4" x 3/4"
  0
TEXT
  5
D056
  8
0
 10
1.78930405326086
 20
0.0487141776387279
 30
0.0
 40
0.125
  1
800.66.TAGUE
  0
ENDBLK
  5
D058
  8
0
  0
BLOCK
  8
0
  2
*U35
 70
     1
 10
0.0
 20
0.0
 30
0.0
  3
*U35
  1

  0
TEXT
  5
D05A
  8
0
 10
2.750346038648086
 20
1.209669783574115
 30
0.0
 40
0.125
  1
Baluster Stock
  0
TEXT
  5
D05B
  8
0
 10
2.7590431737094772
 20
1.0008248540607001
 30
0.0
 40
0.125
  1
TL-526
  0
TEXT
  5
D05C
  8
0
 10
2.7441216184570898
 20
0.7903598699770261
 30
0.0
 40
0.125
  1
1-3/4" x 1-3/4"
  0
TEXT
  5
D05D
  8
0
 10
2.7560588626590001
 20
0.5798948858933518
 30
0.0
 40
0.125
  1
800.66.TAGUE
  0
ENDBLK
  5
D05F
  8
0
  0
BLOCK
  8
0
  2
*U36
 70
     1
 10
0.0
 20
0.0
 30
0.0
  3
*U36
  1

  0
TEXT
  5
D061
  8
0
 10
4.1934393821158942
 20
3.6154353709422362
 30
0.0
 40
0.125
  1
Bar Rail
  0
TEXT
  5
D062
  8
0
 10
4.2021365171772853
 20
3.4065904414288211
 30
0.0
 40
0.125
  1
TL-13
  0
TEXT
  5
D063
  8
0
 10
4.19898167406678
 20
3.1961254573451461
 30
0.0
 40
0.125
  1
5-1/2" x 1-5/8"
  0
TEXT
  5
D064
  8
0
 10
4.199152206126807
 20
2.985660473261472
 30
0.0
 40
0.125
  1
800.66.TAGUE
  0
ENDBLK
  5
D066
  8
0
  0
BLOCK
  8
0
  2
*U37
 70
     1
 10
0.0
 20
0.0
 30
0.0
  3
*U37
  1

  0
TEXT
  5
D068
  8
0
 10
2.7915496004018041
 20
1.6928133759646471
 30
0.0
 40
0.125
  1
Bar Rail
  0
TEXT
  5
D069
  8
0
 10
2.8002467354631961
 20
1.483968446451231
 30
0.0
 40
0.125
  1
TL-130
  0
TEXT
  5
D06A
  8
0
 10
2.7853251802108079
 20
1.273503462367557
 30
0.0
 40
0.125
  1
1-11/16" x 2-1/4"
  0
TEXT
  5
D06B
  8
0
 10
2.7972624244127182
 20
1.0630384782838831
 30
0.0
 40
0.125
  1
800.66.TAGUE
  0
ENDBLK
  5
D06D
  8
0
  0
BLOCK
  8
0
  2
*U38
 70
     1
 10
0.0
 20
0.0
 30
0.0
  3
*U38
  1

  0
TEXT
  5
D06F
  8
0
 10
-384.85891885535392
 20
838.89009035576476
 30
0.0
 40
0.125
  1
Bar Rail
  0
TEXT
  5
D070
  8
0
 10
-384.8502217202925
 20
838.68124542625139
 30
0.0
 40
0.125
  1
TL-130
  0
TEXT
  5
D071
  8
0
 10
-384.86514327554488
 20
838.47078044216755
 30
0.0
 40
0.125
  1
1-11/16" x 2-1/4"
  0
TEXT
  5
D072
  8
0
 10
-384.85320603134289
 20
838.26031545808405
 30
0.0
 40
0.125
  1
800.66.TAGUE
  0
ENDBLK
  5
D074
  8
0
  0
ENDSEC
  0
SECTION
  2
ENTITIES
  0
INSERT
  5
CFD4
  8
0
  2
*U38
 10
0.0
 20
0.0
 30
0.0
  0
LINE
  5
CFD5
  8
0
 10
-386.61195930254968
 20
838.54883398163986
 30
0.0
 11
-386.61195930254968
 21
837.19822674713134
 31
0.0
  0
LINE
  5
CFD6
  8
0
 10
-387.39886788655758
 20
838.54883398163986
 30
0.0
 11
-386.61195930254968
 21
838.54883398163986
 31
0.0
  0
LINE
  5
CFD7
  8
0
 10
-387.06988539237841
 20
839.43250654059682
 30
0.0
 11
-386.59133298108731
 21
839.43250654059682
 31
0.0
  0
ARC
  5
CFD8
  8
0
  6
CONTINUOUS
 10
-387.41436790740278
 20
838.72691703941621
 30
0.0
 40
0.1787563316728883
 50
143.45521790566929
 51
274.97438285449891
  0
POLYLINE
  8
0
  5
D075
  66
     1
 10
0.000000
 20
0.000000
 30
0.000000
  70
     8
  0
VERTEX
  8
0
  5
D076
 10
-387.070
 20
839.433
 30
0.000000
  70
    32
  0
VERTEX
  8
0
  5
D077
 10
-387.074
 20
839.432
 30
0.000000
  70
    32
  0
VERTEX
  8
0
  5
D078
 10
-387.078
 20
839.432
 30
0.000000
  70
    32
  0
VERTEX
  8
0
  5
D079
 10
-387.082
 20
839.432
 30
0.000000
  70
    32
  0
VERTEX
  8
0
  5
D07A
 10
-387.085
 20
839.431
 30
0.000000
  70
    32
  0
VERTEX
  8
0
  5
D07B
 10
-387.089
 20
839.431
 30
0.000000
  70
    32
  0
VERTEX
  8
0
  5
D07C
 10
-387.093
 20
839.431
 30
0.000000
  70
    32
  0
VERTEX
  8
0
  5
D07D
 10
-387.097
 20
839.430
 30
0.000000
  70
    32
  0
VERTEX
  8
0
  5
D07E
 10
-387.101
 20
839.430
 30
0.000000
  70
    32
  0
VERTEX
  8
0
  5
D07F
 10
-387.105
 20
839.429
 30
0.000000
  70
    32
  0
VERTEX
  8
0
  5
D080
 10
-387.109
 20
839.429
 30
0.000000
  70
    32
  0
VERTEX
  8
0
  5
D081
 10
-387.113
 20
839.428
 30
0.000000
  70
    32
  0
VERTEX
  8
0
  5
D082
 10
-387.116
 20
839.428
 30
0.000000
  70
    32
  0
VERTEX
  8
0
  5
D083
 10
-387.120
 20
839.427
 30
0.000000
  70
    32
  0
VERTEX
  8
0
  5
D084
 10
-387.124
 20
839.427
 30
0.000000
  70
    32
  0
VERTEX
  8
0
  5
D085
 10
-387.128
 20
839.426
 30
0.000000
  70
    32
  0
VERTEX
  8
0
  5
D086
 10
-387.132
 20
839.426
 30
0.000000
  70
    32
  0
VERTEX
  8
0
  5
D087
 10
-387.136
 20
839.425
 30
0.000000
  70
    32
  0
VERTEX
  8
0
  5
D088
 10
-387.140
 20
839.425
 30
0.000000
  70
    32
  0
VERTEX
  8
0
  5
D089
 10
-387.143
 20
839.424
 30
0.000000
  70
    32
  0
VERTEX
  8
0
  5
D08A
 10
-387.147
 20
839.424
 30
0.000000
  70
    32
  0
VERTEX
  8
0
  5
D08B
 10
-387.151
 20
839.423
 30
0.000000
  70
    32
  0
VERTEX
  8
0
  5
D08C
 10
-387.155
 20
839.423
 30
0.000000
  70
    32
  0
VERTEX
  8
0
  5
D08D
 10
-387.159
 20
839.422
 30
0.000000
  70
    32
  0
VERTEX
  8
0
  5
D08E
 10
-387.163
 20
839.421
 30
0.000000
  70
    32
  0
VERTEX
  8
0
  5
D08F
 10
-387.167
 20
839.421
 30
0.000000
  70
    32
  0
VERTEX
  8
0
  5
D090
 10
-387.170
 20
839.420
 30
0.000000
  70
    32
  0
VERTEX
  8
0
  5
D091
 10
-387.174
 20
839.419
 30
0.000000
  70
    32
  0
VERTEX
  8
0
  5
D092
 10
-387.178
 20
839.419
 30
0.000000
  70
    32
  0
VERTEX
  8
0
  5
D093
 10
-387.182
 20
839.418
 30
0.000000
  70
    32
  0
VERTEX
  8
0
  5
D094
 10
-387.186
 20
839.417
 30
0.000000
  70
    32
  0
VERTEX
  8
0
  5
D095
 10
-387.190
 20
839.416
 30
0.000000
  70
    32
  0
VERTEX
  8
0
  5
D096
 10
-387.193
 20
839.416
 30
0.000000
  70
    32
  0
VERTEX
  8
0
  5
D097
 10
-387.197
 20
839.415
 30
0.000000
  70
    32
  0
VERTEX
  8
0
  5
D098
 10
-387.201
 20
839.414
 30
0.000000
  70
    32
  0
VERTEX
  8
0
  5
D099
 10
-387.205
 20
839.413
 30
0.000000
  70
    32
  0
VERTEX
  8
0
  5
D09A
 10
-387.209
 20
839.413
 30
0.000000
  70
    32
  0
VERTEX
  8
0
  5
D09B
 10
-387.213
 20
839.412
 30
0.000000
  70
    32
  0
VERTEX
  8
0
  5
D09C
 10
-387.216
 20
839.411
 30
0.000000
  70
    32
  0
VERTEX
  8
0
  5
D09D
 10
-387.220
 20
839.410
 30
0.000000
  70
    32
  0
VERTEX
  8
0
  5
D09E
 10
-387.224
 20
839.409
 30
0.000000
  70
    32
  0
VERTEX
  8
0
  5
D09F
 10
-387.228
 20
839.408
 30
0.000000
  70
    32
  0
VERTEX
  8
0
  5
D0A0
 10
-387.232
 20
839.408
 30
0.000000
  70
    32
  0
VERTEX
  8
0
  5
D0A1
 10
-387.235
 20
839.407
 30
0.000000
  70
    32
  0
VERTEX
  8
0
  5
D0A2
 10
-387.239
 20
839.406
 30
0.000000
  70
    32
  0
VERTEX
  8
0
  5
D0A3
 10
-387.243
 20
839.405
 30
0.000000
  70
    32
  0
VERTEX
  8
0
  5
D0A4
 10
-387.247
 20
839.404
 30
0.000000
  70
    32
  0
VERTEX
  8
0
  5
D0A5
 10
-387.251
 20
839.403
 30
0.000000
  70
    32
  0
VERTEX
  8
0
  5
D0A6
 10
-387.254
 20
839.402
 30
0.000000
  70
    32
  0
VERTEX
  8
0
  5
D0A7
 10
-387.258
 20
839.401
 30
0.000000
  70
    32
  0
VERTEX
  8
0
  5
D0A8
 10
-387.262
 20
839.400
 30
0.000000
  70
    32
  0
VERTEX
  8
0
  5
D0A9
 10
-387.266
 20
839.399
 30
0.000000
  70
    32
  0
VERTEX
  8
0
  5
D0AA
 10
-387.270
 20
839.398
 30
0.000000
  70
    32
  0
VERTEX
  8
0
  5
D0AB
 10
-387.273
 20
839.397
 30
0.000000
  70
    32
  0
VERTEX
  8
0
  5
D0AC
 10
-387.277
 20
839.396
 30
0.000000
  70
    32
  0
VERTEX
  8
0
  5
D0AD
 10
-387.281
 20
839.395
 30
0.000000
  70
    32
  0
VERTEX
  8
0
  5
D0AE
 10
-387.285
 20
839.394
 30
0.000000
  70
    32
  0
VERTEX
  8
0
  5
D0AF
 10
-387.288
 20
839.393
 30
0.000000
  70
    32
  0
VERTEX
  8
0
  5
D0B0
 10
-387.292
 20
839.392
 30
0.000000
  70
    32
  0
VERTEX
  8
0
  5
D0B1
 10
-387.296
 20
839.390
 30
0.000000
  70
    32
  0
VERTEX
  8
0
  5
D0B2
 10
-387.300
 20
839.389
 30
0.000000
  70
    32
  0
VERTEX
  8
0
  5
D0B3
 10
-387.303
 20
839.388
 30
0.000000
  70
    32
  0
VERTEX
  8
0
  5
D0B4
 10
-387.307
 20
839.387
 30
0.000000
  70
    32
  0
VERTEX
  8
0
  5
D0B5
 10
-387.311
 20
839.386
 30
0.000000
  70
    32
  0
VERTEX
  8
0
  5
D0B6
 10
-387.315
 20
839.385
 30
0.000000
  70
    32
  0
VERTEX
  8
0
  5
D0B7
 10
-387.318
 20
839.384
 30
0.000000
  70
    32
  0
VERTEX
  8
0
  5
D0B8
 10
-387.322
 20
839.382
 30
0.000000
  70
    32
  0
VERTEX
  8
0
  5
D0B9
 10
-387.326
 20
839.381
 30
0.000000
  70
    32
  0
VERTEX
  8
0
  5
D0BA
 10
-387.329
 20
839.380
 30
0.000000
  70
    32
  0
VERTEX
  8
0
  5
D0BB
 10
-387.333
 20
839.379
 30
0.000000
  70
    32
  0
VERTEX
  8
0
  5
D0BC
 10
-387.337
 20
839.377
 30
0.000000
  70
    32
  0
VERTEX
  8
0
  5
D0BD
 10
-387.341
 20
839.376
 30
0.000000
  70
    32
  0
VERTEX
  8
0
  5
D0BE
 10
-387.344
 20
839.375
 30
0.000000
  70
    32
  0
VERTEX
  8
0
  5
D0BF
 10
-387.348
 20
839.374
 30
0.000000
  70
    32
  0
VERTEX
  8
0
  5
D0C0
 10
-387.352
 20
839.372
 30
0.000000
  70
    32
  0
VERTEX
  8
0
  5
D0C1
 10
-387.355
 20
839.371
 30
0.000000
  70
    32
  0
VERTEX
  8
0
  5
D0C2
 10
-387.359
 20
839.370
 30
0.000000
  70
    32
  0
VERTEX
  8
0
  5
D0C3
 10
-387.363
 20
839.368
 30
0.000000
  70
    32
  0
VERTEX
  8
0
  5
D0C4
 10
-387.366
 20
839.367
 30
0.000000
  70
    32
  0
VERTEX
  8
0
  5
D0C5
 10
-387.370
 20
839.366
 30
0.000000
  70
    32
  0
VERTEX
  8
0
  5
D0C6
 10
-387.374
 20
839.364
 30
0.000000
  70
    32
  0
VERTEX
  8
0
  5
D0C7
 10
-387.377
 20
839.363
 30
0.000000
  70
    32
  0
VERTEX
  8
0
  5
D0C8
 10
-387.381
 20
839.362
 30
0.000000
  70
    32
  0
VERTEX
  8
0
  5
D0C9
 10
-387.385
 20
839.360
 30
0.000000
  70
    32
  0
VERTEX
  8
0
  5
D0CA
 10
-387.388
 20
839.359
 30
0.000000
  70
    32
  0
VERTEX
  8
0
  5
D0CB
 10
-387.392
 20
839.357
 30
0.000000
  70
    32
  0
VERTEX
  8
0
  5
D0CC
 10
-387.396
 20
839.356
 30
0.000000
  70
    32
  0
VERTEX
  8
0
  5
D0CD
 10
-387.399
 20
839.354
 30
0.000000
  70
    32
  0
VERTEX
  8
0
  5
D0CE
 10
-387.403
 20
839.353
 30
0.000000
  70
    32
  0
VERTEX
  8
0
  5
D0CF
 10
-387.406
 20
839.351
 30
0.000000
  70
    32
  0
VERTEX
  8
0
  5
D0D0
 10
-387.410
 20
839.350
 30
0.000000
  70
    32
  0
VERTEX
  8
0
  5
D0D1
 10
-387.414
 20
839.348
 30
0.000000
  70
    32
  0
VERTEX
  8
0
  5
D0D2
 10
-387.417
 20
839.347
 30
0.000000
  70
    32
  0
VERTEX
  8
0
  5
D0D3
 10
-387.421
 20
839.345
 30
0.000000
  70
    32
  0
VERTEX
  8
0
  5
D0D4
 10
-387.424
 20
839.343
 30
0.000000
  70
    32
  0
VERTEX
  8
0
  5
D0D5
 10
-387.428
 20
839.342
 30
0.000000
  70
    32
  0
VERTEX
  8
0
  5
D0D6
 10
-387.431
 20
839.340
 30
0.000000
  70
    32
  0
VERTEX
  8
0
  5
D0D7
 10
-387.435
 20
839.339
 30
0.000000
  70
    32
  0
VERTEX
  8
0
  5
D0D8
 10
-387.438
 20
839.337
 30
0.000000
  70
    32
  0
VERTEX
  8
0
  5
D0D9
 10
-387.442
 20
839.335
 30
0.000000
  70
    32
  0
VERTEX
  8
0
  5
D0DA
 10
-387.445
 20
839.333
 30
0.000000
  70
    32
  0
VERTEX
  8
0
  5
D0DB
 10
-387.449
 20
839.332
 30
0.000000
  70
    32
  0
VERTEX
  8
0
  5
D0DC
 10
-387.452
 20
839.330
 30
0.000000
  70
    32
  0
VERTEX
  8
0
  5
D0DD
 10
-387.456
 20
839.328
 30
0.000000
  70
    32
  0
VERTEX
  8
0
  5
D0DE
 10
-387.459
 20
839.326
 30
0.000000
  70
    32
  0
VERTEX
  8
0
  5
D0DF
 10
-387.463
 20
839.324
 30
0.000000
  70
    32
  0
VERTEX
  8
0
  5
D0E0
 10
-387.466
 20
839.323
 30
0.000000
  70
    32
  0
VERTEX
  8
0
  5
D0E1
 10
-387.470
 20
839.321
 30
0.000000
  70
    32
  0
VERTEX
  8
0
  5
D0E2
 10
-387.473
 20
839.319
 30
0.000000
  70
    32
  0
VERTEX
  8
0
  5
D0E3
 10
-387.476
 20
839.317
 30
0.000000
  70
    32
  0
VERTEX
  8
0
  5
D0E4
 10
-387.480
 20
839.315
 30
0.000000
  70
    32
  0
VERTEX
  8
0
  5
D0E5
 10
-387.483
 20
839.313
 30
0.000000
  70
    32
  0
VERTEX
  8
0
  5
D0E6
 10
-387.487
 20
839.311
 30
0.000000
  70
    32
  0
VERTEX
  8
0
  5
D0E7
 10
-387.490
 20
839.309
 30
0.000000
  70
    32
  0
VERTEX
  8
0
  5
D0E8
 10
-387.493
 20
839.307
 30
0.000000
  70
    32
  0
VERTEX
  8
0
  5
D0E9
 10
-387.497
 20
839.305
 30
0.000000
  70
    32
  0
VERTEX
  8
0
  5
D0EA
 10
-387.500
 20
839.303
 30
0.000000
  70
    32
  0
VERTEX
  8
0
  5
D0EB
 10
-387.503
 20
839.301
 30
0.000000
  70
    32
  0
VERTEX
  8
0
  5
D0EC
 10
-387.506
 20
839.299
 30
0.000000
  70
    32
  0
VERTEX
  8
0
  5
D0ED
 10
-387.510
 20
839.296
 30
0.000000
  70
    32
  0
VERTEX
  8
0
  5
D0EE
 10
-387.513
 20
839.294
 30
0.000000
  70
    32
  0
VERTEX
  8
0
  5
D0EF
 10
-387.516
 20
839.292
 30
0.000000
  70
    32
  0
VERTEX
  8
0
  5
D0F0
 10
-387.519
 20
839.290
 30
0.000000
  70
    32
  0
VERTEX
  8
0
  5
D0F1
 10
-387.523
 20
839.287
 30
0.000000
  70
    32
  0
VERTEX
  8
0
  5
D0F2
 10
-387.526
 20
839.285
 30
0.000000
  70
    32
  0
VERTEX
  8
0
  5
D0F3
 10
-387.529
 20
839.283
 30
0.000000
  70
    32
  0
VERTEX
  8
0
  5
D0F4
 10
-387.532
 20
839.280
 30
0.000000
  70
    32
  0
VERTEX
  8
0
  5
D0F5
 10
-387.535
 20
839.278
 30
0.000000
  70
    32
  0
VERTEX
  8
0
  5
D0F6
 10
-387.538
 20
839.276
 30
0.000000
  70
    32
  0
VERTEX
  8
0
  5
D0F7
 10
-387.542
 20
839.273
 30
0.000000
  70
    32
  0
VERTEX
  8
0
  5
D0F8
 10
-387.545
 20
839.271
 30
0.000000
  70
    32
  0
VERTEX
  8
0
  5
D0F9
 10
-387.548
 20
839.268
 30
0.000000
  70
    32
  0
VERTEX
  8
0
  5
D0FA
 10
-387.551
 20
839.266
 30
0.000000
  70
    32
  0
VERTEX
  8
0
  5
D0FB
 10
-387.554
 20
839.263
 30
0.000000
  70
    32
  0
VERTEX
  8
0
  5
D0FC
 10
-387.557
 20
839.260
 30
0.000000
  70
    32
  0
VERTEX
  8
0
  5
D0FD
 10
-387.560
 20
839.258
 30
0.000000
  70
    32
  0
VERTEX
  8
0
  5
D0FE
 10
-387.563
 20
839.255
 30
0.000000
  70
    32
  0
VERTEX
  8
0
  5
D0FF
 10
-387.566
 20
839.252
 30
0.000000
  70
    32
  0
VERTEX
  8
0
  5
D100
 10
-387.569
 20
839.250
 30
0.000000
  70
    32
  0
VERTEX
  8
0
  5
D101
 10
-387.572
 20
839.247
 30
0.000000
  70
    32
  0
VERTEX
  8
0
  5
D102
 10
-387.574
 20
839.244
 30
0.000000
  70
    32
  0
VERTEX
  8
0
  5
D103
 10
-387.577
 20
839.241
 30
0.000000
  70
    32
  0
VERTEX
  8
0
  5
D104
 10
-387.580
 20
839.238
 30
0.000000
  70
    32
  0
VERTEX
  8
0
  5
D105
 10
-387.583
 20
839.235
 30
0.000000
  70
    32
  0
VERTEX
  8
0
  5
D106
 10
-387.586
 20
839.233
 30
0.000000
  70
    32
  0
VERTEX
  8
0
  5
D107
 10
-387.588
 20
839.230
 30
0.000000
  70
    32
  0
VERTEX
  8
0
  5
D108
 10
-387.591
 20
839.227
 30
0.000000
  70
    32
  0
VERTEX
  8
0
  5
D109
 10
-387.594
 20
839.224
 30
0.000000
  70
    32
  0
VERTEX
  8
0
  5
D10A
 10
-387.596
 20
839.221
 30
0.000000
  70
    32
  0
VERTEX
  8
0
  5
D10B
 10
-387.599
 20
839.218
 30
0.000000
  70
    32
  0
VERTEX
  8
0
  5
D10C
 10
-387.601
 20
839.214
 30
0.000000
  70
    32
  0
VERTEX
  8
0
  5
D10D
 10
-387.604
 20
839.211
 30
0.000000
  70
    32
  0
VERTEX
  8
0
  5
D10E
 10
-387.606
 20
839.208
 30
0.000000
  70
    32
  0
VERTEX
  8
0
  5
D10F
 10
-387.609
 20
839.205
 30
0.000000
  70
    32
  0
VERTEX
  8
0
  5
D110
 10
-387.611
 20
839.202
 30
0.000000
  70
    32
  0
VERTEX
  8
0
  5
D111
 10
-387.613
 20
839.199
 30
0.000000
  70
    32
  0
VERTEX
  8
0
  5
D112
 10
-387.615
 20
839.195
 30
0.000000
  70
    32
  0
VERTEX
  8
0
  5
D113
 10
-387.618
 20
839.192
 30
0.000000
  70
    32
  0
VERTEX
  8
0
  5
D114
 10
-387.620
 20
839.189
 30
0.000000
  70
    32
  0
VERTEX
  8
0
  5
D115
 10
-387.622
 20
839.185
 30
0.000000
  70
    32
  0
VERTEX
  8
0
  5
D116
 10
-387.624
 20
839.182
 30
0.000000
  70
    32
  0
VERTEX
  8
0
  5
D117
 10
-387.626
 20
839.179
 30
0.000000
  70
    32
  0
VERTEX
  8
0
  5
D118
 10
-387.627
 20
839.175
 30
0.000000
  70
    32
  0
VERTEX
  8
0
  5
D119
 10
-387.629
 20
839.172
 30
0.000000
  70
    32
  0
VERTEX
  8
0
  5
D11A
 10
-387.631
 20
839.168
 30
0.000000
  70
    32
  0
VERTEX
  8
0
  5
D11B
 10
-387.633
 20
839.165
 30
0.000000
  70
    32
  0
VERTEX
  8
0
  5
D11C
 10
-387.634
 20
839.161
 30
0.000000
  70
    32
  0
VERTEX
  8
0
  5
D11D
 10
-387.636
 20
839.158
 30
0.000000
  70
    32
  0
VERTEX
  8
0
  5
D11E
 10
-387.637
 20
839.154
 30
0.000000
  70
    32
  0
VERTEX
  8
0
  5
D11F
 10
-387.639
 20
839.151
 30
0.000000
  70
    32
  0
VERTEX
  8
0
  5
D120
 10
-387.640
 20
839.147
 30
0.000000
  70
    32
  0
VERTEX
  8
0
  5
D121
 10
-387.641
 20
839.143
 30
0.000000
  70
    32
  0
VERTEX
  8
0
  5
D122
 10
-387.642
 20
839.140
 30
0.000000
  70
    32
  0
VERTEX
  8
0
  5
D123
 10
-387.643
 20
839.136
 30
0.000000
  70
    32
  0
VERTEX
  8
0
  5
D124
 10
-387.644
 20
839.132
 30
0.000000
  70
    32
  0
VERTEX
  8
0
  5
D125
 10
-387.645
 20
839.128
 30
0.000000
  70
    32
  0
VERTEX
  8
0
  5
D126
 10
-387.646
 20
839.125
 30
0.000000
  70
    32
  0
VERTEX
  8
0
  5
D127
 10
-387.647
 20
839.121
 30
0.000000
  70
    32
  0
VERTEX
  8
0
  5
D128
 10
-387.648
 20
839.117
 30
0.000000
  70
    32
  0
VERTEX
  8
0
  5
D129
 10
-387.648
 20
839.113
 30
0.000000
  70
    32
  0
VERTEX
  8
0
  5
D12A
 10
-387.649
 20
839.109
 30
0.000000
  70
    32
  0
VERTEX
  8
0
  5
D12B
 10
-387.649
 20
839.106
 30
0.000000
  70
    32
  0
VERTEX
  8
0
  5
D12C
 10
-387.650
 20
839.102
 30
0.000000
  70
    32
  0
VERTEX
  8
0
  5
D12D
 10
-387.650
 20
839.098
 30
0.000000
  70
    32
  0
VERTEX
  8
0
  5
D12E
 10
-387.650
 20
839.094
 30
0.000000
  70
    32
  0
VERTEX
  8
0
  5
D12F
 10
-387.651
 20
839.090
 30
0.000000
  70
    32
  0
VERTEX
  8
0
  5
D130
 10
-387.651
 20
839.086
 30
0.000000
  70
    32
  0
VERTEX
  8
0
  5
D131
 10
-387.651
 20
839.082
 30
0.000000
  70
    32
  0
VERTEX
  8
0
  5
D132
 10
-387.651
 20
839.078
 30
0.000000
  70
    32
  0
VERTEX
  8
0
  5
D133
 10
-387.651
 20
839.074
 30
0.000000
  70
    32
  0
VERTEX
  8
0
  5
D134
 10
-387.651
 20
839.070
 30
0.000000
  70
    32
  0
VERTEX
  8
0
  5
D135
 10
-387.651
 20
839.066
 30
0.000000
  70
    32
  0
VERTEX
  8
0
  5
D136
 10
-387.650
 20
839.062
 30
0.000000
  70
    32
  0
VERTEX
  8
0
  5
D137
 10
-387.650
 20
839.058
 30
0.000000
  70
    32
  0
VERTEX
  8
0
  5
D138
 10
-387.650
 20
839.054
 30
0.000000
  70
    32
  0
VERTEX
  8
0
  5
D139
 10
-387.649
 20
839.050
 30
0.000000
  70
    32
  0
VERTEX
  8
0
  5
D13A
 10
-387.649
 20
839.046
 30
0.000000
  70
    32
  0
VERTEX
  8
0
  5
D13B
 10
-387.648
 20
839.042
 30
0.000000
  70
    32
  0
VERTEX
  8
0
  5
D13C
 10
-387.648
 20
839.038
 30
0.000000
  70
    32
  0
VERTEX
  8
0
  5
D13D
 10
-387.647
 20
839.034
 30
0.000000
  70
    32
  0
VERTEX
  8
0
  5
D13E
 10
-387.646
 20
839.030
 30
0.000000
  70
    32
  0
VERTEX
  8
0
  5
D13F
 10
-387.646
 20
839.026
 30
0.000000
  70
    32
  0
VERTEX
  8
0
  5
D140
 10
-387.645
 20
839.022
 30
0.000000
  70
    32
  0
VERTEX
  8
0
  5
D141
 10
-387.644
 20
839.018
 30
0.000000
  70
    32
  0
VERTEX
  8
0
  5
D142
 10
-387.643
 20
839.014
 30
0.000000
  70
    32
  0
VERTEX
  8
0
  5
D143
 10
-387.642
 20
839.011
 30
0.000000
  70
    32
  0
VERTEX
  8
0
  5
D144
 10
-387.641
 20
839.007
 30
0.000000
  70
    32
  0
VERTEX
  8
0
  5
D145
 10
-387.640
 20
839.003
 30
0.000000
  70
    32
  0
VERTEX
  8
0
  5
D146
 10
-387.639
 20
838.999
 30
0.000000
  70
    32
  0
VERTEX
  8
0
  5
D147
 10
-387.638
 20
838.995
 30
0.000000
  70
    32
  0
VERTEX
  8
0
  5
D148
 10
-387.637
 20
838.991
 30
0.000000
  70
    32
  0
VERTEX
  8
0
  5
D149
 10
-387.636
 20
838.987
 30
0.000000
  70
    32
  0
VERTEX
  8
0
  5
D14A
 10
-387.634
 20
838.983
 30
0.000000
  70
    32
  0
VERTEX
  8
0
  5
D14B
 10
-387.633
 20
838.979
 30
0.000000
  70
    32
  0
VERTEX
  8
0
  5
D14C
 10
-387.632
 20
838.976
 30
0.000000
  70
    32
  0
VERTEX
  8
0
  5
D14D
 10
-387.630
 20
838.972
 30
0.000000
  70
    32
  0
VERTEX
  8
0
  5
D14E
 10
-387.629
 20
838.968
 30
0.000000
  70
    32
  0
VERTEX
  8
0
  5
D14F
 10
-387.628
 20
838.964
 30
0.000000
  70
    32
  0
VERTEX
  8
0
  5
D150
 10
-387.626
 20
838.961
 30
0.000000
  70
    32
  0
VERTEX
  8
0
  5
D151
 10
-387.624
 20
838.957
 30
0.000000
  70
    32
  0
VERTEX
  8
0
  5
D152
 10
-387.623
 20
838.953
 30
0.000000
  70
    32
  0
VERTEX
  8
0
  5
D153
 10
-387.621
 20
838.950
 30
0.000000
  70
    32
  0
VERTEX
  8
0
  5
D154
 10
-387.620
 20
838.946
 30
0.000000
  70
    32
  0
VERTEX
  8
0
  5
D155
 10
-387.618
 20
838.942
 30
0.000000
  70
    32
  0
VERTEX
  8
0
  5
D156
 10
-387.616
 20
838.939
 30
0.000000
  70
    32
  0
VERTEX
  8
0
  5
D157
 10
-387.615
 20
838.935
 30
0.000000
  70
    32
  0
VERTEX
  8
0
  5
D158
 10
-387.613
 20
838.932
 30
0.000000
  70
    32
  0
VERTEX
  8
0
  5
D159
 10
-387.611
 20
838.928
 30
0.000000
  70
    32
  0
VERTEX
  8
0
  5
D15A
 10
-387.609
 20
838.925
 30
0.000000
  70
    32
  0
VERTEX
  8
0
  5
D15B
 10
-387.607
 20
838.921
 30
0.000000
  70
    32
  0
VERTEX
  8
0
  5
D15C
 10
-387.605
 20
838.918
 30
0.000000
  70
    32
  0
VERTEX
  8
0
  5
D15D
 10
-387.604
 20
838.915
 30
0.000000
  70
    32
  0
VERTEX
  8
0
  5
D15E
 10
-387.602
 20
838.911
 30
0.000000
  70
    32
  0
VERTEX
  8
0
  5
D15F
 10
-387.600
 20
838.908
 30
0.000000
  70
    32
  0
VERTEX
  8
0
  5
D160
 10
-387.598
 20
838.904
 30
0.000000
  70
    32
  0
VERTEX
  8
0
  5
D161
 10
-387.596
 20
838.901
 30
0.000000
  70
    32
  0
VERTEX
  8
0
  5
D162
 10
-387.594
 20
838.898
 30
0.000000
  70
    32
  0
VERTEX
  8
0
  5
D163
 10
-387.592
 20
838.894
 30
0.000000
  70
    32
  0
VERTEX
  8
0
  5
D164
 10
-387.590
 20
838.891
 30
0.000000
  70
    32
  0
VERTEX
  8
0
  5
D165
 10
-387.588
 20
838.888
 30
0.000000
  70
    32
  0
VERTEX
  8
0
  5
D166
 10
-387.586
 20
838.884
 30
0.000000
  70
    32
  0
VERTEX
  8
0
  5
D167
 10
-387.584
 20
838.881
 30
0.000000
  70
    32
  0
VERTEX
  8
0
  5
D168
 10
-387.582
 20
838.878
 30
0.000000
  70
    32
  0
VERTEX
  8
0
  5
D169
 10
-387.580
 20
838.874
 30
0.000000
  70
    32
  0
VERTEX
  8
0
  5
D16A
 10
-387.578
 20
838.871
 30
0.000000
  70
    32
  0
VERTEX
  8
0
  5
D16B
 10
-387.576
 20
838.867
 30
0.000000
  70
    32
  0
VERTEX
  8
0
  5
D16C
 10
-387.575
 20
838.864
 30
0.000000
  70
    32
  0
VERTEX
  8
0
  5
D16D
 10
-387.573
 20
838.861
 30
0.000000
  70
    32
  0
VERTEX
  8
0
  5
D16E
 10
-387.571
 20
838.857
 30
0.000000
  70
    32
  0
VERTEX
  8
0
  5
D16F
 10
-387.569
 20
838.854
 30
0.000000
  70
    32
  0
VERTEX
  8
0
  5
D170
 10
-387.567
 20
838.851
 30
0.000000
  70
    32
  0
VERTEX
  8
0
  5
D171
 10
-387.565
 20
838.847
 30
0.000000
  70
    32
  0
VERTEX
  8
0
  5
D172
 10
-387.563
 20
838.844
 30
0.000000
  70
    32
  0
VERTEX
  8
0
  5
D173
 10
-387.562
 20
838.840
 30
0.000000
  70
    32
  0
VERTEX
  8
0
  5
D174
 10
-387.560
 20
838.837
 30
0.000000
  70
    32
  0
VERTEX
  8
0
  5
D175
 10
-387.558
 20
838.833
 30
0.000000
  70
    32
  0
SEQEND
  8
0
  5
D176
  0
POLYLINE
  8
0
  5
D177
  66
     1
 10
0.000000
 20
0.000000
 30
0.000000
  70
     8
  0
VERTEX
  8
0
  5
D178
 10
-386.591
 20
839.433
 30
0.000000
  70
    32
  0
VERTEX
  8
0
  5
D179
 10
-386.586
 20
839.432
 30
0.000000
  70
    32
  0
VERTEX
  8
0
  5
D17A
 10
-386.580
 20
839.432
 30
0.000000
  70
    32
  0
VERTEX
  8
0
  5
D17B
 10
-386.575
 20
839.432
 30
0.000000
  70
    32
  0
VERTEX
  8
0
  5
D17C
 10
-386.570
 20
839.432
 30
0.000000
  70
    32
  0
VERTEX
  8
0
  5
D17D
 10
-386.564
 20
839.432
 30
0.000000
  70
    32
  0
VERTEX
  8
0
  5
D17E
 10
-386.559
 20
839.432
 30
0.000000
  70
    32
  0
VERTEX
  8
0
  5
D17F
 10
-386.553
 20
839.432
 30
0.000000
  70
    32
  0
VERTEX
  8
0
  5
D180
 10
-386.548
 20
839.431
 30
0.000000
  70
    32
  0
VERTEX
  8
0
  5
D181
 10
-386.542
 20
839.431
 30
0.000000
  70
    32
  0
VERTEX
  8
0
  5
D182
 10
-386.537
 20
839.431
 30
0.000000
  70
    32
  0
VERTEX
  8
0
  5
D183
 10
-386.531
 20
839.430
 30
0.000000
  70
    32
  0
VERTEX
  8
0
  5
D184
 10
-386.526
 20
839.430
 30
0.000000
  70
    32
  0
VERTEX
  8
0
  5
D185
 10
-386.520
 20
839.429
 30
0.000000
  70
    32
  0
VERTEX
  8
0
  5
D186
 10
-386.515
 20
839.429
 30
0.000000
  70
    32
  0
VERTEX
  8
0
  5
D187
 10
-386.510
 20
839.428
 30
0.000000
  70
    32
  0
VERTEX
  8
0
  5
D188
 10
-386.504
 20
839.427
 30
0.000000
  70
    32
  0
VERTEX
  8
0
  5
D189
 10
-386.499
 20
839.427
 30
0.000000
  70
    32
  0
VERTEX
  8
0
  5
D18A
 10
-386.493
 20
839.426
 30
0.000000
  70
    32
  0
VERTEX
  8
0
  5
D18B
 10
-386.488
 20
839.425
 30
0.000000
  70
    32
  0
VERTEX
  8
0
  5
D18C
 10
-386.482
 20
839.424
 30
0.000000
  70
    32
  0
VERTEX
  8
0
  5
D18D
 10
-386.477
 20
839.423
 30
0.000000
  70
    32
  0
VERTEX
  8
0
  5
D18E
 10
-386.472
 20
839.422
 30
0.000000
  70
    32
  0
VERTEX
  8
0
  5
D18F
 10
-386.466
 20
839.421
 30
0.000000
  70
    32
  0
VERTEX
  8
0
  5
D190
 10
-386.461
 20
839.420
 30
0.000000
  70
    32
  0
VERTEX
  8
0
  5
D191
 10
-386.455
 20
839.419
 30
0.000000
  70
    32
  0
VERTEX
  8
0
  5
D192
 10
-386.450
 20
839.418
 30
0.000000
  70
    32
  0
VERTEX
  8
0
  5
D193
 10
-386.445
 20
839.417
 30
0.000000
  70
    32
  0
VERTEX
  8
0
  5
D194
 10
-386.439
 20
839.415
 30
0.000000
  70
    32
  0
VERTEX
  8
0
  5
D195
 10
-386.434
 20
839.414
 30
0.000000
  70
    32
  0
VERTEX
  8
0
  5
D196
 10
-386.429
 20
839.413
 30
0.000000
  70
    32
  0
VERTEX
  8
0
  5
D197
 10
-386.424
 20
839.411
 30
0.000000
  70
    32
  0
VERTEX
  8
0
  5
D198
 10
-386.418
 20
839.410
 30
0.000000
  70
    32
  0
VERTEX
  8
0
  5
D199
 10
-386.413
 20
839.408
 30
0.000000
  70
    32
  0
VERTEX
  8
0
  5
D19A
 10
-386.408
 20
839.406
 30
0.000000
  70
    32
  0
VERTEX
  8
0
  5
D19B
 10
-386.403
 20
839.405
 30
0.000000
  70
    32
  0
VERTEX
  8
0
  5
D19C
 10
-386.398
 20
839.403
 30
0.000000
  70
    32
  0
VERTEX
  8
0
  5
D19D
 10
-386.392
 20
839.401
 30
0.000000
  70
    32
  0
VERTEX
  8
0
  5
D19E
 10
-386.387
 20
839.399
 30
0.000000
  70
    32
  0
VERTEX
  8
0
  5
D19F
 10
-386.382
 20
839.397
 30
0.000000
  70
    32
  0
VERTEX
  8
0
  5
D1A0
 10
-386.377
 20
839.395
 30
0.000000
  70
    32
  0
VERTEX
  8
0
  5
D1A1
 10
-386.372
 20
839.393
 30
0.000000
  70
    32
  0
VERTEX
  8
0
  5
D1A2
 10
-386.367
 20
839.391
 30
0.000000
  70
    32
  0
VERTEX
  8
0
  5
D1A3
 10
-386.362
 20
839.389
 30
0.000000
  70
    32
  0
VERTEX
  8
0
  5
D1A4
 10
-386.357
 20
839.387
 30
0.000000
  70
    32
  0
VERTEX
  8
0
  5
D1A5
 10
-386.352
 20
839.385
 30
0.000000
  70
    32
  0
VERTEX
  8
0
  5
D1A6
 10
-386.347
 20
839.382
 30
0.000000
  70
    32
  0
VERTEX
  8
0
  5
D1A7
 10
-386.342
 20
839.380
 30
0.000000
  70
    32
  0
VERTEX
  8
0
  5
D1A8
 10
-386.337
 20
839.377
 30
0.000000
  70
    32
  0
VERTEX
  8
0
  5
D1A9
 10
-386.333
 20
839.375
 30
0.000000
  70
    32
  0
VERTEX
  8
0
  5
D1AA
 10
-386.328
 20
839.372
 30
0.000000
  70
    32
  0
VERTEX
  8
0
  5
D1AB
 10
-386.323
 20
839.370
 30
0.000000
  70
    32
  0
VERTEX
  8
0
  5
D1AC
 10
-386.318
 20
839.367
 30
0.000000
  70
    32
  0
VERTEX
  8
0
  5
D1AD
 10
-386.313
 20
839.364
 30
0.000000
  70
    32
  0
VERTEX
  8
0
  5
D1AE
 10
-386.309
 20
839.361
 30
0.000000
  70
    32
  0
VERTEX
  8
0
  5
D1AF
 10
-386.304
 20
839.358
 30
0.000000
  70
    32
  0
VERTEX
  8
0
  5
D1B0
 10
-386.299
 20
839.356
 30
0.000000
  70
    32
  0
VERTEX
  8
0
  5
D1B1
 10
-386.295
 20
839.353
 30
0.000000
  70
    32
  0
VERTEX
  8
0
  5
D1B2
 10
-386.290
 20
839.350
 30
0.000000
  70
    32
  0
VERTEX
  8
0
  5
D1B3
 10
-386.286
 20
839.346
 30
0.000000
  70
    32
  0
VERTEX
  8
0
  5
D1B4
 10
-386.281
 20
839.343
 30
0.000000
  70
    32
  0
VERTEX
  8
0
  5
D1B5
 10
-386.277
 20
839.340
 30
0.000000
  70
    32
  0
VERTEX
  8
0
  5
D1B6
 10
-386.272
 20
839.337
 30
0.000000
  70
    32
  0
VERTEX
  8
0
  5
D1B7
 10
-386.268
 20
839.334
 30
0.000000
  70
    32
  0
VERTEX
  8
0
  5
D1B8
 10
-386.263
 20
839.330
 30
0.000000
  70
    32
  0
VERTEX
  8
0
  5
D1B9
 10
-386.259
 20
839.327
 30
0.000000
  70
    32
  0
VERTEX
  8
0
  5
D1BA
 10
-386.255
 20
839.324
 30
0.000000
  70
    32
  0
VERTEX
  8
0
  5
D1BB
 10
-386.250
 20
839.320
 30
0.000000
  70
    32
  0
VERTEX
  8
0
  5
D1BC
 10
-386.246
 20
839.317
 30
0.000000
  70
    32
  0
VERTEX
  8
0
  5
D1BD
 10
-386.242
 20
839.313
 30
0.000000
  70
    32
  0
VERTEX
  8
0
  5
D1BE
 10
-386.238
 20
839.310
 30
0.000000
  70
    32
  0
VERTEX
  8
0
  5
D1BF
 10
-386.234
 20
839.306
 30
0.000000
  70
    32
  0
VERTEX
  8
0
  5
D1C0
 10
-386.230
 20
839.302
 30
0.000000
  70
    32
  0
VERTEX
  8
0
  5
D1C1
 10
-386.226
 20
839.299
 30
0.000000
  70
    32
  0
VERTEX
  8
0
  5
D1C2
 10
-386.222
 20
839.295
 30
0.000000
  70
    32
  0
VERTEX
  8
0
  5
D1C3
 10
-386.218
 20
839.291
 30
0.000000
  70
    32
  0
VERTEX
  8
0
  5
D1C4
 10
-386.214
 20
839.287
 30
0.000000
  70
    32
  0
VERTEX
  8
0
  5
D1C5
 10
-386.210
 20
839.283
 30
0.000000
  70
    32
  0
VERTEX
  8
0
  5
D1C6
 10
-386.206
 20
839.279
 30
0.000000
  70
    32
  0
VERTEX
  8
0
  5
D1C7
 10
-386.202
 20
839.275
 30
0.000000
  70
    32
  0
VERTEX
  8
0
  5
D1C8
 10
-386.198
 20
839.271
 30
0.000000
  70
    32
  0
VERTEX
  8
0
  5
D1C9
 10
-386.194
 20
839.267
 30
0.000000
  70
    32
  0
VERTEX
  8
0
  5
D1CA
 10
-386.191
 20
839.263
 30
0.000000
  70
    32
  0
VERTEX
  8
0
  5
D1CB
 10
-386.187
 20
839.259
 30
0.000000
  70
    32
  0
VERTEX
  8
0
  5
D1CC
 10
-386.183
 20
839.255
 30
0.000000
  70
    32
  0
VERTEX
  8
0
  5
D1CD
 10
-386.180
 20
839.251
 30
0.000000
  70
    32
  0
VERTEX
  8
0
  5
D1CE
 10
-386.176
 20
839.247
 30
0.000000
  70
    32
  0
VERTEX
  8
0
  5
D1CF
 10
-386.173
 20
839.243
 30
0.000000
  70
    32
  0
VERTEX
  8
0
  5
D1D0
 10
-386.169
 20
839.238
 30
0.000000
  70
    32
  0
VERTEX
  8
0
  5
D1D1
 10
-386.166
 20
839.234
 30
0.000000
  70
    32
  0
VERTEX
  8
0
  5
D1D2
 10
-386.163
 20
839.230
 30
0.000000
  70
    32
  0
VERTEX
  8
0
  5
D1D3
 10
-386.159
 20
839.225
 30
0.000000
  70
    32
  0
VERTEX
  8
0
  5
D1D4
 10
-386.156
 20
839.221
 30
0.000000
  70
    32
  0
VERTEX
  8
0
  5
D1D5
 10
-386.153
 20
839.217
 30
0.000000
  70
    32
  0
VERTEX
  8
0
  5
D1D6
 10
-386.150
 20
839.212
 30
0.000000
  70
    32
  0
VERTEX
  8
0
  5
D1D7
 10
-386.146
 20
839.208
 30
0.000000
  70
    32
  0
VERTEX
  8
0
  5
D1D8
 10
-386.143
 20
839.203
 30
0.000000
  70
    32
  0
VERTEX
  8
0
  5
D1D9
 10
-386.140
 20
839.199
 30
0.000000
  70
    32
  0
VERTEX
  8
0
  5
D1DA
 10
-386.137
 20
839.194
 30
0.000000
  70
    32
  0
VERTEX
  8
0
  5
D1DB
 10
-386.134
 20
839.190
 30
0.000000
  70
    32
  0
VERTEX
  8
0
  5
D1DC
 10
-386.131
 20
839.185
 30
0.000000
  70
    32
  0
VERTEX
  8
0
  5
D1DD
 10
-386.128
 20
839.180
 30
0.000000
  70
    32
  0
VERTEX
  8
0
  5
D1DE
 10
-386.125
 20
839.176
 30
0.000000
  70
    32
  0
VERTEX
  8
0
  5
D1DF
 10
-386.122
 20
839.171
 30
0.000000
  70
    32
  0
VERTEX
  8
0
  5
D1E0
 10
-386.120
 20
839.166
 30
0.000000
  70
    32
  0
VERTEX
  8
0
  5
D1E1
 10
-386.117
 20
839.162
 30
0.000000
  70
    32
  0
VERTEX
  8
0
  5
D1E2
 10
-386.114
 20
839.157
 30
0.000000
  70
    32
  0
VERTEX
  8
0
  5
D1E3
 10
-386.111
 20
839.152
 30
0.000000
  70
    32
  0
VERTEX
  8
0
  5
D1E4
 10
-386.109
 20
839.147
 30
0.000000
  70
    32
  0
VERTEX
  8
0
  5
D1E5
 10
-386.106
 20
839.142
 30
0.000000
  70
    32
  0
VERTEX
  8
0
  5
D1E6
 10
-386.104
 20
839.138
 30
0.000000
  70
    32
  0
VERTEX
  8
0
  5
D1E7
 10
-386.101
 20
839.133
 30
0.000000
  70
    32
  0
VERTEX
  8
0
  5
D1E8
 10
-386.099
 20
839.128
 30
0.000000
  70
    32
  0
VERTEX
  8
0
  5
D1E9
 10
-386.096
 20
839.123
 30
0.000000
  70
    32
  0
VERTEX
  8
0
  5
D1EA
 10
-386.094
 20
839.118
 30
0.000000
  70
    32
  0
VERTEX
  8
0
  5
D1EB
 10
-386.091
 20
839.113
 30
0.000000
  70
    32
  0
VERTEX
  8
0
  5
D1EC
 10
-386.089
 20
839.108
 30
0.000000
  70
    32
  0
VERTEX
  8
0
  5
D1ED
 10
-386.087
 20
839.103
 30
0.000000
  70
    32
  0
VERTEX
  8
0
  5
D1EE
 10
-386.084
 20
839.098
 30
0.000000
  70
    32
  0
VERTEX
  8
0
  5
D1EF
 10
-386.082
 20
839.093
 30
0.000000
  70
    32
  0
VERTEX
  8
0
  5
D1F0
 10
-386.080
 20
839.088
 30
0.000000
  70
    32
  0
VERTEX
  8
0
  5
D1F1
 10
-386.078
 20
839.083
 30
0.000000
  70
    32
  0
VERTEX
  8
0
  5
D1F2
 10
-386.076
 20
839.078
 30
0.000000
  70
    32
  0
VERTEX
  8
0
  5
D1F3
 10
-386.074
 20
839.073
 30
0.000000
  70
    32
  0
VERTEX
  8
0
  5
D1F4
 10
-386.072
 20
839.067
 30
0.000000
  70
    32
  0
VERTEX
  8
0
  5
D1F5
 10
-386.070
 20
839.062
 30
0.000000
  70
    32
  0
VERTEX
  8
0
  5
D1F6
 10
-386.068
 20
839.057
 30
0.000000
  70
    32
  0
VERTEX
  8
0
  5
D1F7
 10
-386.066
 20
839.052
 30
0.000000
  70
    32
  0
VERTEX
  8
0
  5
D1F8
 10
-386.064
 20
839.047
 30
0.000000
  70
    32
  0
VERTEX
  8
0
  5
D1F9
 10
-386.062
 20
839.042
 30
0.000000
  70
    32
  0
VERTEX
  8
0
  5
D1FA
 10
-386.060
 20
839.036
 30
0.000000
  70
    32
  0
VERTEX
  8
0
  5
D1FB
 10
-386.058
 20
839.031
 30
0.000000
  70
    32
  0
VERTEX
  8
0
  5
D1FC
 10
-386.057
 20
839.026
 30
0.000000
  70
    32
  0
VERTEX
  8
0
  5
D1FD
 10
-386.055
 20
839.021
 30
0.000000
  70
    32
  0
VERTEX
  8
0
  5
D1FE
 10
-386.053
 20
839.015
 30
0.000000
  70
    32
  0
VERTEX
  8
0
  5
D1FF
 10
-386.052
 20
839.010
 30
0.000000
  70
    32
  0
VERTEX
  8
0
  5
D200
 10
-386.050
 20
839.005
 30
0.000000
  70
    32
  0
VERTEX
  8
0
  5
D201
 10
-386.048
 20
839.000
 30
0.000000
  70
    32
  0
VERTEX
  8
0
  5
D202
 10
-386.047
 20
838.994
 30
0.000000
  70
    32
  0
VERTEX
  8
0
  5
D203
 10
-386.045
 20
838.989
 30
0.000000
  70
    32
  0
VERTEX
  8
0
  5
D204
 10
-386.044
 20
838.984
 30
0.000000
  70
    32
  0
VERTEX
  8
0
  5
D205
 10
-386.043
 20
838.978
 30
0.000000
  70
    32
  0
VERTEX
  8
0
  5
D206
 10
-386.041
 20
838.973
 30
0.000000
  70
    32
  0
VERTEX
  8
0
  5
D207
 10
-386.040
 20
838.968
 30
0.000000
  70
    32
  0
VERTEX
  8
0
  5
D208
 10
-386.038
 20
838.962
 30
0.000000
  70
    32
  0
VERTEX
  8
0
  5
D209
 10
-386.037
 20
838.957
 30
0.000000
  70
    32
  0
VERTEX
  8
0
  5
D20A
 10
-386.036
 20
838.952
 30
0.000000
  70
    32
  0
VERTEX
  8
0
  5
D20B
 10
-386.035
 20
838.946
 30
0.000000
  70
    32
  0
VERTEX
  8
0
  5
D20C
 10
-386.034
 20
838.941
 30
0.000000
  70
    32
  0
VERTEX
  8
0
  5
D20D
 10
-386.032
 20
838.935
 30
0.000000
  70
    32
  0
VERTEX
  8
0
  5
D20E
 10
-386.031
 20
838.930
 30
0.000000
  70
    32
  0
VERTEX
  8
0
  5
D20F
 10
-386.030
 20
838.925
 30
0.000000
  70
    32
  0
VERTEX
  8
0
  5
D210
 10
-386.029
 20
838.919
 30
0.000000
  70
    32
  0
VERTEX
  8
0
  5
D211
 10
-386.028
 20
838.914
 30
0.000000
  70
    32
  0
VERTEX
  8
0
  5
D212
 10
-386.027
 20
838.909
 30
0.000000
  70
    32
  0
VERTEX
  8
0
  5
D213
 10
-386.026
 20
838.903
 30
0.000000
  70
    32
  0
VERTEX
  8
0
  5
D214
 10
-386.026
 20
838.898
 30
0.000000
  70
    32
  0
VERTEX
  8
0
  5
D215
 10
-386.025
 20
838.892
 30
0.000000
  70
    32
  0
VERTEX
  8
0
  5
D216
 10
-386.024
 20
838.887
 30
0.000000
  70
    32
  0
VERTEX
  8
0
  5
D217
 10
-386.023
 20
838.881
 30
0.000000
  70
    32
  0
VERTEX
  8
0
  5
D218
 10
-386.022
 20
838.876
 30
0.000000
  70
    32
  0
VERTEX
  8
0
  5
D219
 10
-386.022
 20
838.871
 30
0.000000
  70
    32
  0
VERTEX
  8
0
  5
D21A
 10
-386.021
 20
838.865
 30
0.000000
  70
    32
  0
VERTEX
  8
0
  5
D21B
 10
-386.020
 20
838.860
 30
0.000000
  70
    32
  0
VERTEX
  8
0
  5
D21C
 10
-386.020
 20
838.854
 30
0.000000
  70
    32
  0
VERTEX
  8
0
  5
D21D
 10
-386.019
 20
838.849
 30
0.000000
  70
    32
  0
VERTEX
  8
0
  5
D21E
 10
-386.018
 20
838.843
 30
0.000000
  70
    32
  0
VERTEX
  8
0
  5
D21F
 10
-386.018
 20
838.838
 30
0.000000
  70
    32
  0
VERTEX
  8
0
  5
D220
 10
-386.017
 20
838.833
 30
0.000000
  70
    32
  0
VERTEX
  8
0
  5
D221
 10
-386.017
 20
838.827
 30
0.000000
  70
    32
  0
VERTEX
  8
0
  5
D222
 10
-386.017
 20
838.822
 30
0.000000
  70
    32
  0
VERTEX
  8
0
  5
D223
 10
-386.016
 20
838.816
 30
0.000000
  70
    32
  0
VERTEX
  8
0
  5
D224
 10
-386.016
 20
838.811
 30
0.000000
  70
    32
  0
VERTEX
  8
0
  5
D225
 10
-386.015
 20
838.805
 30
0.000000
  70
    32
  0
VERTEX
  8
0
  5
D226
 10
-386.015
 20
838.800
 30
0.000000
  70
    32
  0
VERTEX
  8
0
  5
D227
 10
-386.015
 20
838.794
 30
0.000000
  70
    32
  0
VERTEX
  8
0
  5
D228
 10
-386.015
 20
838.789
 30
0.000000
  70
    32
  0
VERTEX
  8
0
  5
D229
 10
-386.014
 20
838.783
 30
0.000000
  70
    32
  0
VERTEX
  8
0
  5
D22A
 10
-386.014
 20
838.778
 30
0.000000
  70
    32
  0
VERTEX
  8
0
  5
D22B
 10
-386.014
 20
838.773
 30
0.000000
  70
    32
  0
VERTEX
  8
0
  5
D22C
 10
-386.014
 20
838.767
 30
0.000000
  70
    32
  0
VERTEX
  8
0
  5
D22D
 10
-386.014
 20
838.762
 30
0.000000
  70
    32
  0
VERTEX
  8
0
  5
D22E
 10
-386.014
 20
838.756
 30
0.000000
  70
    32
  0
VERTEX
  8
0
  5
D22F
 10
-386.014
 20
838.751
 30
0.000000
  70
    32
  0
VERTEX
  8
0
  5
D230
 10
-386.014
 20
838.745
 30
0.000000
  70
    32
  0
VERTEX
  8
0
  5
D231
 10
-386.014
 20
838.740
 30
0.000000
  70
    32
  0
VERTEX
  8
0
  5
D232
 10
-386.014
 20
838.734
 30
0.000000
  70
    32
  0
VERTEX
  8
0
  5
D233
 10
-386.014
 20
838.729
 30
0.000000
  70
    32
  0
VERTEX
  8
0
  5
D234
 10
-386.014
 20
838.723
 30
0.000000
  70
    32
  0
VERTEX
  8
0
  5
D235
 10
-386.014
 20
838.718
 30
0.000000
  70
    32
  0
VERTEX
  8
0
  5
D236
 10
-386.014
 20
838.712
 30
0.000000
  70
    32
  0
VERTEX
  8
0
  5
D237
 10
-386.015
 20
838.707
 30
0.000000
  70
    32
  0
VERTEX
  8
0
  5
D238
 10
-386.015
 20
838.702
 30
0.000000
  70
    32
  0
VERTEX
  8
0
  5
D239
 10
-386.015
 20
838.696
 30
0.000000
  70
    32
  0
VERTEX
  8
0
  5
D23A
 10
-386.015
 20
838.691
 30
0.000000
  70
    32
  0
VERTEX
  8
0
  5
D23B
 10
-386.016
 20
838.685
 30
0.000000
  70
    32
  0
VERTEX
  8
0
  5
D23C
 10
-386.016
 20
838.680
 30
0.000000
  70
    32
  0
VERTEX
  8
0
  5
D23D
 10
-386.016
 20
838.674
 30
0.000000
  70
    32
  0
VERTEX
  8
0
  5
D23E
 10
-386.017
 20
838.669
 30
0.000000
  70
    32
  0
VERTEX
  8
0
  5
D23F
 10
-386.017
 20
838.663
 30
0.000000
  70
    32
  0
VERTEX
  8
0
  5
D240
 10
-386.018
 20
838.658
 30
0.000000
  70
    32
  0
VERTEX
  8
0
  5
D241
 10
-386.018
 20
838.652
 30
0.000000
  70
    32
  0
VERTEX
  8
0
  5
D242
 10
-386.019
 20
838.647
 30
0.000000
  70
    32
  0
VERTEX
  8
0
  5
D243
 10
-386.019
 20
838.642
 30
0.000000
  70
    32
  0
VERTEX
  8
0
  5
D244
 10
-386.020
 20
838.636
 30
0.000000
  70
    32
  0
VERTEX
  8
0
  5
D245
 10
-386.020
 20
838.631
 30
0.000000
  70
    32
  0
VERTEX
  8
0
  5
D246
 10
-386.021
 20
838.625
 30
0.000000
  70
    32
  0
VERTEX
  8
0
  5
D247
 10
-386.022
 20
838.620
 30
0.000000
  70
    32
  0
VERTEX
  8
0
  5
D248
 10
-386.022
 20
838.614
 30
0.000000
  70
    32
  0
VERTEX
  8
0
  5
D249
 10
-386.023
 20
838.609
 30
0.000000
  70
    32
  0
VERTEX
  8
0
  5
D24A
 10
-386.024
 20
838.604
 30
0.000000
  70
    32
  0
VERTEX
  8
0
  5
D24B
 10
-386.025
 20
838.598
 30
0.000000
  70
    32
  0
VERTEX
  8
0
  5
D24C
 10
-386.025
 20
838.593
 30
0.000000
  70
    32
  0
VERTEX
  8
0
  5
D24D
 10
-386.026
 20
838.587
 30
0.000000
  70
    32
  0
VERTEX
  8
0
  5
D24E
 10
-386.027
 20
838.582
 30
0.000000
  70
    32
  0
VERTEX
  8
0
  5
D24F
 10
-386.028
 20
838.577
 30
0.000000
  70
    32
  0
VERTEX
  8
0
  5
D250
 10
-386.029
 20
838.571
 30
0.000000
  70
    32
  0
VERTEX
  8
0
  5
D251
 10
-386.030
 20
838.566
 30
0.000000
  70
    32
  0
VERTEX
  8
0
  5
D252
 10
-386.030
 20
838.560
 30
0.000000
  70
    32
  0
VERTEX
  8
0
  5
D253
 10
-386.031
 20
838.555
 30
0.000000
  70
    32
  0
VERTEX
  8
0
  5
D254
 10
-386.032
 20
838.550
 30
0.000000
  70
    32
  0
VERTEX
  8
0
  5
D255
 10
-386.033
 20
838.544
 30
0.000000
  70
    32
  0
VERTEX
  8
0
  5
D256
 10
-386.034
 20
838.539
 30
0.000000
  70
    32
  0
VERTEX
  8
0
  5
D257
 10
-386.036
 20
838.534
 30
0.000000
  70
    32
  0
VERTEX
  8
0
  5
D258
 10
-386.037
 20
838.528
 30
0.000000
  70
    32
  0
VERTEX
  8
0
  5
D259
 10
-386.038
 20
838.523
 30
0.000000
  70
    32
  0
VERTEX
  8
0
  5
D25A
 10
-386.039
 20
838.517
 30
0.000000
  70
    32
  0
VERTEX
  8
0
  5
D25B
 10
-386.040
 20
838.512
 30
0.000000
  70
    32
  0
VERTEX
  8
0
  5
D25C
 10
-386.041
 20
838.507
 30
0.000000
  70
    32
  0
VERTEX
  8
0
  5
D25D
 10
-386.043
 20
838.502
 30
0.000000
  70
    32
  0
VERTEX
  8
0
  5
D25E
 10
-386.044
 20
838.496
 30
0.000000
  70
    32
  0
VERTEX
  8
0
  5
D25F
 10
-386.045
 20
838.491
 30
0.000000
  70
    32
  0
VERTEX
  8
0
  5
D260
 10
-386.046
 20
838.486
 30
0.000000
  70
    32
  0
VERTEX
  8
0
  5
D261
 10
-386.048
 20
838.480
 30
0.000000
  70
    32
  0
VERTEX
  8
0
  5
D262
 10
-386.049
 20
838.475
 30
0.000000
  70
    32
  0
VERTEX
  8
0
  5
D263
 10
-386.051
 20
838.470
 30
0.000000
  70
    32
  0
VERTEX
  8
0
  5
D264
 10
-386.052
 20
838.465
 30
0.000000
  70
    32
  0
VERTEX
  8
0
  5
D265
 10
-386.054
 20
838.460
 30
0.000000
  70
    32
  0
VERTEX
  8
0
  5
D266
 10
-386.056
 20
838.454
 30
0.000000
  70
    32
  0
VERTEX
  8
0
  5
D267
 10
-386.057
 20
838.449
 30
0.000000
  70
    32
  0
VERTEX
  8
0
  5
D268
 10
-386.059
 20
838.444
 30
0.000000
  70
    32
  0
VERTEX
  8
0
  5
D269
 10
-386.061
 20
838.439
 30
0.000000
  70
    32
  0
VERTEX
  8
0
  5
D26A
 10
-386.063
 20
838.434
 30
0.000000
  70
    32
  0
VERTEX
  8
0
  5
D26B
 10
-386.065
 20
838.429
 30
0.000000
  70
    32
  0
VERTEX
  8
0
  5
D26C
 10
-386.067
 20
838.424
 30
0.000000
  70
    32
  0
VERTEX
  8
0
  5
D26D
 10
-386.069
 20
838.419
 30
0.000000
  70
    32
  0
VERTEX
  8
0
  5
D26E
 10
-386.071
 20
838.414
 30
0.000000
  70
    32
  0
VERTEX
  8
0
  5
D26F
 10
-386.073
 20
838.409
 30
0.000000
  70
    32
  0
VERTEX
  8
0
  5
D270
 10
-386.075
 20
838.404
 30
0.000000
  70
    32
  0
VERTEX
  8
0
  5
D271
 10
-386.077
 20
838.399
 30
0.000000
  70
    32
  0
VERTEX
  8
0
  5
D272
 10
-386.080
 20
838.394
 30
0.000000
  70
    32
  0
VERTEX
  8
0
  5
D273
 10
-386.082
 20
838.389
 30
0.000000
  70
    32
  0
VERTEX
  8
0
  5
D274
 10
-386.084
 20
838.384
 30
0.000000
  70
    32
  0
VERTEX
  8
0
  5
D275
 10
-386.087
 20
838.379
 30
0.000000
  70
    32
  0
VERTEX
  8
0
  5
D276
 10
-386.089
 20
838.374
 30
0.000000
  70
    32
  0
VERTEX
  8
0
  5
D277
 10
-386.092
 20
838.369
 30
0.000000
  70
    32
  0
VERTEX
  8
0
  5
D278
 10
-386.095
 20
838.365
 30
0.000000
  70
    32
  0
VERTEX
  8
0
  5
D279
 10
-386.097
 20
838.360
 30
0.000000
  70
    32
  0
VERTEX
  8
0
  5
D27A
 10
-386.100
 20
838.355
 30
0.000000
  70
    32
  0
VERTEX
  8
0
  5
D27B
 10
-386.103
 20
838.350
 30
0.000000
  70
    32
  0
VERTEX
  8
0
  5
D27C
 10
-386.106
 20
838.346
 30
0.000000
  70
    32
  0
VERTEX
  8
0
  5
D27D
 10
-386.108
 20
838.341
 30
0.000000
  70
    32
  0
VERTEX
  8
0
  5
D27E
 10
-386.111
 20
838.336
 30
0.000000
  70
    32
  0
VERTEX
  8
0
  5
D27F
 10
-386.114
 20
838.332
 30
0.000000
  70
    32
  0
VERTEX
  8
0
  5
D280
 10
-386.117
 20
838.327
 30
0.000000
  70
    32
  0
VERTEX
  8
0
  5
D281
 10
-386.120
 20
838.323
 30
0.000000
  70
    32
  0
VERTEX
  8
0
  5
D282
 10
-386.123
 20
838.318
 30
0.000000
  70
    32
  0
VERTEX
  8
0
  5
D283
 10
-386.127
 20
838.314
 30
0.000000
  70
    32
  0
VERTEX
  8
0
  5
D284
 10
-386.130
 20
838.309
 30
0.000000
  70
    32
  0
VERTEX
  8
0
  5
D285
 10
-386.133
 20
838.305
 30
0.000000
  70
    32
  0
VERTEX
  8
0
  5
D286
 10
-386.136
 20
838.300
 30
0.000000
  70
    32
  0
VERTEX
  8
0
  5
D287
 10
-386.139
 20
838.296
 30
0.000000
  70
    32
  0
VERTEX
  8
0
  5
D288
 10
-386.143
 20
838.292
 30
0.000000
  70
    32
  0
VERTEX
  8
0
  5
D289
 10
-386.146
 20
838.287
 30
0.000000
  70
    32
  0
VERTEX
  8
0
  5
D28A
 10
-386.149
 20
838.283
 30
0.000000
  70
    32
  0
VERTEX
  8
0
  5
D28B
 10
-386.153
 20
838.279
 30
0.000000
  70
    32
  0
VERTEX
  8
0
  5
D28C
 10
-386.156
 20
838.274
 30
0.000000
  70
    32
  0
VERTEX
  8
0
  5
D28D
 10
-386.160
 20
838.270
 30
0.000000
  70
    32
  0
VERTEX
  8
0
  5
D28E
 10
-386.163
 20
838.266
 30
0.000000
  70
    32
  0
VERTEX
  8
0
  5
D28F
 10
-386.167
 20
838.262
 30
0.000000
  70
    32
  0
VERTEX
  8
0
  5
D290
 10
-386.170
 20
838.258
 30
0.000000
  70
    32
  0
VERTEX
  8
0
  5
D291
 10
-386.174
 20
838.253
 30
0.000000
  70
    32
  0
VERTEX
  8
0
  5
D292
 10
-386.178
 20
838.249
 30
0.000000
  70
    32
  0
VERTEX
  8
0
  5
D293
 10
-386.181
 20
838.245
 30
0.000000
  70
    32
  0
VERTEX
  8
0
  5
D294
 10
-386.185
 20
838.241
 30
0.000000
  70
    32
  0
VERTEX
  8
0
  5
D295
 10
-386.189
 20
838.237
 30
0.000000
  70
    32
  0
VERTEX
  8
0
  5
D296
 10
-386.192
 20
838.233
 30
0.000000
  70
    32
  0
VERTEX
  8
0
  5
D297
 10
-386.196
 20
838.229
 30
0.000000
  70
    32
  0
SEQEND
  8
0
  5
D298
  0
POLYLINE
  8
0
  5
D299
  66
     1
 10
0.000000
 20
0.000000
 30
0.000000
  70
     8
  0
VERTEX
  8
0
  5
D29A
 10
-386.393
 20
837.618
 30
0.000000
  70
    32
  0
VERTEX
  8
0
  5
D29B
 10
-386.392
 20
837.615
 30
0.000000
  70
    32
  0
VERTEX
  8
0
  5
D29C
 10
-386.391
 20
837.613
 30
0.000000
  70
    32
  0
VERTEX
  8
0
  5
D29D
 10
-386.390
 20
837.610
 30
0.000000
  70
    32
  0
VERTEX
  8
0
  5
D29E
 10
-386.389
 20
837.607
 30
0.000000
  70
    32
  0
VERTEX
  8
0
  5
D29F
 10
-386.388
 20
837.604
 30
0.000000
  70
    32
  0
VERTEX
  8
0
  5
D2A0
 10
-386.387
 20
837.601
 30
0.000000
  70
    32
  0
VERTEX
  8
0
  5
D2A1
 10
-386.386
 20
837.598
 30
0.000000
  70
    32
  0
VERTEX
  8
0
  5
D2A2
 10
-386.386
 20
837.596
 30
0.000000
  70
    32
  0
VERTEX
  8
0
  5
D2A3
 10
-386.385
 20
837.593
 30
0.000000
  70
    32
  0
VERTEX
  8
0
  5
D2A4
 10
-386.384
 20
837.590
 30
0.000000
  70
    32
  0
VERTEX
  8
0
  5
D2A5
 10
-386.383
 20
837.587
 30
0.000000
  70
    32
  0
VERTEX
  8
0
  5
D2A6
 10
-386.383
 20
837.584
 30
0.000000
  70
    32
  0
VERTEX
  8
0
  5
D2A7
 10
-386.382
 20
837.581
 30
0.000000
  70
    32
  0
VERTEX
  8
0
  5
D2A8
 10
-386.381
 20
837.578
 30
0.000000
  70
    32
  0
VERTEX
  8
0
  5
D2A9
 10
-386.380
 20
837.576
 30
0.000000
  70
    32
  0
VERTEX
  8
0
  5
D2AA
 10
-386.380
 20
837.573
 30
0.000000
  70
    32
  0
VERTEX
  8
0
  5
D2AB
 10
-386.379
 20
837.570
 30
0.000000
  70
    32
  0
VERTEX
  8
0
  5
D2AC
 10
-386.378
 20
837.567
 30
0.000000
  70
    32
  0
VERTEX
  8
0
  5
D2AD
 10
-386.378
 20
837.564
 30
0.000000
  70
    32
  0
VERTEX
  8
0
  5
D2AE
 10
-386.377
 20
837.561
 30
0.000000
  70
    32
  0
VERTEX
  8
0
  5
D2AF
 10
-386.377
 20
837.558
 30
0.000000
  70
    32
  0
VERTEX
  8
0
  5
D2B0
 10
-386.376
 20
837.556
 30
0.000000
  70
    32
  0
VERTEX
  8
0
  5
D2B1
 10
-386.375
 20
837.553
 30
0.000000
  70
    32
  0
VERTEX
  8
0
  5
D2B2
 10
-386.375
 20
837.550
 30
0.000000
  70
    32
  0
VERTEX
  8
0
  5
D2B3
 10
-386.374
 20
837.547
 30
0.000000
  70
    32
  0
VERTEX
  8
0
  5
D2B4
 10
-386.374
 20
837.544
 30
0.000000
  70
    32
  0
VERTEX
  8
0
  5
D2B5
 10
-386.373
 20
837.541
 30
0.000000
  70
    32
  0
VERTEX
  8
0
  5
D2B6
 10
-386.373
 20
837.538
 30
0.000000
  70
    32
  0
VERTEX
  8
0
  5
D2B7
 10
-386.373
 20
837.535
 30
0.000000
  70
    32
  0
VERTEX
  8
0
  5
D2B8
 10
-386.372
 20
837.532
 30
0.000000
  70
    32
  0
VERTEX
  8
0
  5
D2B9
 10
-386.372
 20
837.530
 30
0.000000
  70
    32
  0
VERTEX
  8
0
  5
D2BA
 10
-386.371
 20
837.527
 30
0.000000
  70
    32
  0
VERTEX
  8
0
  5
D2BB
 10
-386.371
 20
837.524
 30
0.000000
  70
    32
  0
VERTEX
  8
0
  5
D2BC
 10
-386.371
 20
837.521
 30
0.000000
  70
    32
  0
VERTEX
  8
0
  5
D2BD
 10
-386.370
 20
837.518
 30
0.000000
  70
    32
  0
VERTEX
  8
0
  5
D2BE
 10
-386.370
 20
837.515
 30
0.000000
  70
    32
  0
VERTEX
  8
0
  5
D2BF
 10
-386.370
 20
837.512
 30
0.000000
  70
    32
  0
VERTEX
  8
0
  5
D2C0
 10
-386.369
 20
837.509
 30
0.000000
  70
    32
  0
VERTEX
  8
0
  5
D2C1
 10
-386.369
 20
837.506
 30
0.000000
  70
    32
  0
VERTEX
  8
0
  5
D2C2
 10
-386.369
 20
837.503
 30
0.000000
  70
    32
  0
VERTEX
  8
0
  5
D2C3
 10
-386.369
 20
837.500
 30
0.000000
  70
    32
  0
VERTEX
  8
0
  5
D2C4
 10
-386.368
 20
837.497
 30
0.000000
  70
    32
  0
VERTEX
  8
0
  5
D2C5
 10
-386.368
 20
837.494
 30
0.000000
  70
    32
  0
VERTEX
  8
0
  5
D2C6
 10
-386.368
 20
837.491
 30
0.000000
  70
    32
  0
VERTEX
  8
0
  5
D2C7
 10
-386.368
 20
837.488
 30
0.000000
  70
    32
  0
VERTEX
  8
0
  5
D2C8
 10
-386.368
 20
837.485
 30
0.000000
  70
    32
  0
VERTEX
  8
0
  5
D2C9
 10
-386.368
 20
837.482
 30
0.000000
  70
    32
  0
VERTEX
  8
0
  5
D2CA
 10
-386.368
 20
837.479
 30
0.000000
  70
    32
  0
VERTEX
  8
0
  5
D2CB
 10
-386.368
 20
837.476
 30
0.000000
  70
    32
  0
VERTEX
  8
0
  5
D2CC
 10
-386.368
 20
837.473
 30
0.000000
  70
    32
  0
VERTEX
  8
0
  5
D2CD
 10
-386.368
 20
837.470
 30
0.000000
  70
    32
  0
VERTEX
  8
0
  5
D2CE
 10
-386.368
 20
837.467
 30
0.000000
  70
    32
  0
VERTEX
  8
0
  5
D2CF
 10
-386.368
 20
837.464
 30
0.000000
  70
    32
  0
VERTEX
  8
0
  5
D2D0
 10
-386.368
 20
837.461
 30
0.000000
  70
    32
  0
VERTEX
  8
0
  5
D2D1
 10
-386.368
 20
837.458
 30
0.000000
  70
    32
  0
VERTEX
  8
0
  5
D2D2
 10
-386.368
 20
837.455
 30
0.000000
  70
    32
  0
VERTEX
  8
0
  5
D2D3
 10
-386.368
 20
837.452
 30
0.000000
  70
    32
  0
VERTEX
  8
0
  5
D2D4
 10
-386.368
 20
837.449
 30
0.000000
  70
    32
  0
VERTEX
  8
0
  5
D2D5
 10
-386.368
 20
837.446
 30
0.000000
  70
    32
  0
VERTEX
  8
0
  5
D2D6
 10
-386.368
 20
837.443
 30
0.000000
  70
    32
  0
VERTEX
  8
0
  5
D2D7
 10
-386.369
 20
837.440
 30
0.000000
  70
    32
  0
VERTEX
  8
0
  5
D2D8
 10
-386.369
 20
837.436
 30
0.000000
  70
    32
  0
VERTEX
  8
0
  5
D2D9
 10
-386.369
 20
837.433
 30
0.000000
  70
    32
  0
VERTEX
  8
0
  5
D2DA
 10
-386.369
 20
837.430
 30
0.000000
  70
    32
  0
VERTEX
  8
0
  5
D2DB
 10
-386.370
 20
837.427
 30
0.000000
  70
    32
  0
VERTEX
  8
0
  5
D2DC
 10
-386.370
 20
837.424
 30
0.000000
  70
    32
  0
VERTEX
  8
0
  5
D2DD
 10
-386.370
 20
837.421
 30
0.000000
  70
    32
  0
VERTEX
  8
0
  5
D2DE
 10
-386.371
 20
837.418
 30
0.000000
  70
    32
  0
VERTEX
  8
0
  5
D2DF
 10
-386.371
 20
837.414
 30
0.000000
  70
    32
  0
VERTEX
  8
0
  5
D2E0
 10
-386.372
 20
837.411
 30
0.000000
  70
    32
  0
VERTEX
  8
0
  5
D2E1
 10
-386.372
 20
837.408
 30
0.000000
  70
    32
  0
VERTEX
  8
0
  5
D2E2
 10
-386.372
 20
837.405
 30
0.000000
  70
    32
  0
VERTEX
  8
0
  5
D2E3
 10
-386.373
 20
837.402
 30
0.000000
  70
    32
  0
VERTEX
  8
0
  5
D2E4
 10
-386.373
 20
837.399
 30
0.000000
  70
    32
  0
VERTEX
  8
0
  5
D2E5
 10
-386.374
 20
837.395
 30
0.000000
  70
    32
  0
VERTEX
  8
0
  5
D2E6
 10
-386.374
 20
837.392
 30
0.000000
  70
    32
  0
VERTEX
  8
0
  5
D2E7
 10
-386.375
 20
837.389
 30
0.000000
  70
    32
  0
VERTEX
  8
0
  5
D2E8
 10
-386.376
 20
837.386
 30
0.000000
  70
    32
  0
VERTEX
  8
0
  5
D2E9
 10
-386.376
 20
837.382
 30
0.000000
  70
    32
  0
VERTEX
  8
0
  5
D2EA
 10
-386.377
 20
837.379
 30
0.000000
  70
    32
  0
VERTEX
  8
0
  5
D2EB
 10
-386.378
 20
837.376
 30
0.000000
  70
    32
  0
VERTEX
  8
0
  5
D2EC
 10
-386.378
 20
837.373
 30
0.000000
  70
    32
  0
VERTEX
  8
0
  5
D2ED
 10
-386.379
 20
837.369
 30
0.000000
  70
    32
  0
VERTEX
  8
0
  5
D2EE
 10
-386.380
 20
837.366
 30
0.000000
  70
    32
  0
VERTEX
  8
0
  5
D2EF
 10
-386.381
 20
837.363
 30
0.000000
  70
    32
  0
VERTEX
  8
0
  5
D2F0
 10
-386.381
 20
837.360
 30
0.000000
  70
    32
  0
VERTEX
  8
0
  5
D2F1
 10
-386.382
 20
837.356
 30
0.000000
  70
    32
  0
VERTEX
  8
0
  5
D2F2
 10
-386.383
 20
837.353
 30
0.000000
  70
    32
  0
VERTEX
  8
0
  5
D2F3
 10
-386.384
 20
837.350
 30
0.000000
  70
    32
  0
VERTEX
  8
0
  5
D2F4
 10
-386.385
 20
837.347
 30
0.000000
  70
    32
  0
VERTEX
  8
0
  5
D2F5
 10
-386.386
 20
837.344
 30
0.000000
  70
    32
  0
VERTEX
  8
0
  5
D2F6
 10
-386.387
 20
837.340
 30
0.000000
  70
    32
  0
VERTEX
  8
0
  5
D2F7
 10
-386.388
 20
837.337
 30
0.000000
  70
    32
  0
VERTEX
  8
0
  5
D2F8
 10
-386.389
 20
837.334
 30
0.000000
  70
    32
  0
VERTEX
  8
0
  5
D2F9
 10
-386.390
 20
837.331
 30
0.000000
  70
    32
  0
VERTEX
  8
0
  5
D2FA
 10
-386.391
 20
837.328
 30
0.000000
  70
    32
  0
VERTEX
  8
0
  5
D2FB
 10
-386.392
 20
837.325
 30
0.000000
  70
    32
  0
VERTEX
  8
0
  5
D2FC
 10
-386.393
 20
837.321
 30
0.000000
  70
    32
  0
VERTEX
  8
0
  5
D2FD
 10
-386.394
 20
837.318
 30
0.000000
  70
    32
  0
VERTEX
  8
0
  5
D2FE
 10
-386.395
 20
837.315
 30
0.000000
  70
    32
  0
VERTEX
  8
0
  5
D2FF
 10
-386.397
 20
837.312
 30
0.000000
  70
    32
  0
VERTEX
  8
0
  5
D300
 10
-386.398
 20
837.309
 30
0.000000
  70
    32
  0
VERTEX
  8
0
  5
D301
 10
-386.399
 20
837.306
 30
0.000000
  70
    32
  0
VERTEX
  8
0
  5
D302
 10
-386.400
 20
837.303
 30
0.000000
  70
    32
  0
VERTEX
  8
0
  5
D303
 10
-386.402
 20
837.300
 30
0.000000
  70
    32
  0
VERTEX
  8
0
  5
D304
 10
-386.403
 20
837.297
 30
0.000000
  70
    32
  0
VERTEX
  8
0
  5
D305
 10
-386.404
 20
837.294
 30
0.000000
  70
    32
  0
VERTEX
  8
0
  5
D306
 10
-386.406
 20
837.291
 30
0.000000
  70
    32
  0
VERTEX
  8
0
  5
D307
 10
-386.407
 20
837.288
 30
0.000000
  70
    32
  0
VERTEX
  8
0
  5
D308
 10
-386.409
 20
837.286
 30
0.000000
  70
    32
  0
VERTEX
  8
0
  5
D309
 10
-386.410
 20
837.283
 30
0.000000
  70
    32
  0
VERTEX
  8
0
  5
D30A
 10
-386.412
 20
837.280
 30
0.000000
  70
    32
  0
VERTEX
  8
0
  5
D30B
 10
-386.413
 20
837.277
 30
0.000000
  70
    32
  0
VERTEX
  8
0
  5
D30C
 10
-386.415
 20
837.274
 30
0.000000
  70
    32
  0
VERTEX
  8
0
  5
D30D
 10
-386.416
 20
837.272
 30
0.000000
  70
    32
  0
VERTEX
  8
0
  5
D30E
 10
-386.418
 20
837.269
 30
0.000000
  70
    32
  0
VERTEX
  8
0
  5
D30F
 10
-386.420
 20
837.266
 30
0.000000
  70
    32
  0
VERTEX
  8
0
  5
D310
 10
-386.421
 20
837.264
 30
0.000000
  70
    32
  0
VERTEX
  8
0
  5
D311
 10
-386.423
 20
837.261
 30
0.000000
  70
    32
  0
VERTEX
  8
0
  5
D312
 10
-386.425
 20
837.259
 30
0.000000
  70
    32
  0
VERTEX
  8
0
  5
D313
 10
-386.426
 20
837.256
 30
0.000000
  70
    32
  0
VERTEX
  8
0
  5
D314
 10
-386.428
 20
837.254
 30
0.000000
  70
    32
  0
VERTEX
  8
0
  5
D315
 10
-386.430
 20
837.251
 30
0.000000
  70
    32
  0
VERTEX
  8
0
  5
D316
 10
-386.432
 20
837.249
 30
0.000000
  70
    32
  0
VERTEX
  8
0
  5
D317
 10
-386.434
 20
837.247
 30
0.000000
  70
    32
  0
VERTEX
  8
0
  5
D318
 10
-386.436
 20
837.244
 30
0.000000
  70
    32
  0
VERTEX
  8
0
  5
D319
 10
-386.437
 20
837.242
 30
0.000000
  70
    32
  0
VERTEX
  8
0
  5
D31A
 10
-386.439
 20
837.240
 30
0.000000
  70
    32
  0
VERTEX
  8
0
  5
D31B
 10
-386.441
 20
837.238
 30
0.000000
  70
    32
  0
VERTEX
  8
0
  5
D31C
 10
-386.443
 20
837.236
 30
0.000000
  70
    32
  0
VERTEX
  8
0
  5
D31D
 10
-386.446
 20
837.234
 30
0.000000
  70
    32
  0
VERTEX
  8
0
  5
D31E
 10
-386.448
 20
837.232
 30
0.000000
  70
    32
  0
VERTEX
  8
0
  5
D31F
 10
-386.450
 20
837.230
 30
0.000000
  70
    32
  0
VERTEX
  8
0
  5
D320
 10
-386.452
 20
837.228
 30
0.000000
  70
    32
  0
VERTEX
  8
0
  5
D321
 10
-386.454
 20
837.226
 30
0.000000
  70
    32
  0
VERTEX
  8
0
  5
D322
 10
-386.456
 20
837.224
 30
0.000000
  70
    32
  0
VERTEX
  8
0
  5
D323
 10
-386.458
 20
837.222
 30
0.000000
  70
    32
  0
VERTEX
  8
0
  5
D324
 10
-386.461
 20
837.221
 30
0.000000
  70
    32
  0
VERTEX
  8
0
  5
D325
 10
-386.463
 20
837.219
 30
0.000000
  70
    32
  0
VERTEX
  8
0
  5
D326
 10
-386.465
 20
837.217
 30
0.000000
  70
    32
  0
VERTEX
  8
0
  5
D327
 10
-386.468
 20
837.216
 30
0.000000
  70
    32
  0
VERTEX
  8
0
  5
D328
 10
-386.470
 20
837.214
 30
0.000000
  70
    32
  0
VERTEX
  8
0
  5
D329
 10
-386.472
 20
837.213
 30
0.000000
  70
    32
  0
VERTEX
  8
0
  5
D32A
 10
-386.475
 20
837.212
 30
0.000000
  70
    32
  0
VERTEX
  8
0
  5
D32B
 10
-386.477
 20
837.210
 30
0.000000
  70
    32
  0
VERTEX
  8
0
  5
D32C
 10
-386.480
 20
837.209
 30
0.000000
  70
    32
  0
VERTEX
  8
0
  5
D32D
 10
-386.482
 20
837.208
 30
0.000000
  70
    32
  0
VERTEX
  8
0
  5
D32E
 10
-386.485
 20
837.207
 30
0.000000
  70
    32
  0
VERTEX
  8
0
  5
D32F
 10
-386.488
 20
837.206
 30
0.000000
  70
    32
  0
VERTEX
  8
0
  5
D330
 10
-386.490
 20
837.205
 30
0.000000
  70
    32
  0
VERTEX
  8
0
  5
D331
 10
-386.493
 20
837.204
 30
0.000000
  70
    32
  0
VERTEX
  8
0
  5
D332
 10
-386.496
 20
837.203
 30
0.000000
  70
    32
  0
VERTEX
  8
0
  5
D333
 10
-386.498
 20
837.203
 30
0.000000
  70
    32
  0
VERTEX
  8
0
  5
D334
 10
-386.501
 20
837.202
 30
0.000000
  70
    32
  0
VERTEX
  8
0
  5
D335
 10
-386.504
 20
837.201
 30
0.000000
  70
    32
  0
VERTEX
  8
0
  5
D336
 10
-386.507
 20
837.201
 30
0.000000
  70
    32
  0
VERTEX
  8
0
  5
D337
 10
-386.509
 20
837.200
 30
0.000000
  70
    32
  0
VERTEX
  8
0
  5
D338
 10
-386.512
 20
837.200
 30
0.000000
  70
    32
  0
VERTEX
  8
0
  5
D339
 10
-386.515
 20
837.199
 30
0.000000
  70
    32
  0
VERTEX
  8
0
  5
D33A
 10
-386.518
 20
837.199
 30
0.000000
  70
    32
  0
VERTEX
  8
0
  5
D33B
 10
-386.521
 20
837.198
 30
0.000000
  70
    32
  0
VERTEX
  8
0
  5
D33C
 10
-386.524
 20
837.198
 30
0.000000
  70
    32
  0
VERTEX
  8
0
  5
D33D
 10
-386.527
 20
837.198
 30
0.000000
  70
    32
  0
VERTEX
  8
0
  5
D33E
 10
-386.530
 20
837.198
 30
0.000000
  70
    32
  0
VERTEX
  8
0
  5
D33F
 10
-386.533
 20
837.198
 30
0.000000
  70
    32
  0
VERTEX
  8
0
  5
D340
 10
-386.536
 20
837.197
 30
0.000000
  70
    32
  0
VERTEX
  8
0
  5
D341
 10
-386.539
 20
837.197
 30
0.000000
  70
    32
  0
VERTEX
  8
0
  5
D342
 10
-386.542
 20
837.197
 30
0.000000
  70
    32
  0
VERTEX
  8
0
  5
D343
 10
-386.545
 20
837.197
 30
0.000000
  70
    32
  0
VERTEX
  8
0
  5
D344
 10
-386.548
 20
837.197
 30
0.000000
  70
    32
  0
VERTEX
  8
0
  5
D345
 10
-386.551
 20
837.197
 30
0.000000
  70
    32
  0
VERTEX
  8
0
  5
D346
 10
-386.554
 20
837.197
 30
0.000000
  70
    32
  0
VERTEX
  8
0
  5
D347
 10
-386.557
 20
837.197
 30
0.000000
  70
    32
  0
VERTEX
  8
0
  5
D348
 10
-386.560
 20
837.197
 30
0.000000
  70
    32
  0
VERTEX
  8
0
  5
D349
 10
-386.563
 20
837.197
 30
0.000000
  70
    32
  0
VERTEX
  8
0
  5
D34A
 10
-386.566
 20
837.197
 30
0.000000
  70
    32
  0
VERTEX
  8
0
  5
D34B
 10
-386.569
 20
837.197
 30
0.000000
  70
    32
  0
VERTEX
  8
0
  5
D34C
 10
-386.572
 20
837.198
 30
0.000000
  70
    32
  0
VERTEX
  8
0
  5
D34D
 10
-386.575
 20
837.198
 30
0.000000
  70
    32
  0
VERTEX
  8
0
  5
D34E
 10
-386.579
 20
837.198
 30
0.000000
  70
    32
  0
VERTEX
  8
0
  5
D34F
 10
-386.582
 20
837.198
 30
0.000000
  70
    32
  0
VERTEX
  8
0
  5
D350
 10
-386.585
 20
837.198
 30
0.000000
  70
    32
  0
VERTEX
  8
0
  5
D351
 10
-386.588
 20
837.198
 30
0.000000
  70
    32
  0
VERTEX
  8
0
  5
D352
 10
-386.591
 20
837.198
 30
0.000000
  70
    32
  0
VERTEX
  8
0
  5
D353
 10
-386.594
 20
837.198
 30
0.000000
  70
    32
  0
VERTEX
  8
0
  5
D354
 10
-386.597
 20
837.198
 30
0.000000
  70
    32
  0
VERTEX
  8
0
  5
D355
 10
-386.600
 20
837.198
 30
0.000000
  70
    32
  0
VERTEX
  8
0
  5
D356
 10
-386.603
 20
837.198
 30
0.000000
  70
    32
  0
VERTEX
  8
0
  5
D357
 10
-386.606
 20
837.198
 30
0.000000
  70
    32
  0
VERTEX
  8
0
  5
D358
 10
-386.609
 20
837.198
 30
0.000000
  70
    32
  0
VERTEX
  8
0
  5
D359
 10
-386.612
 20
837.198
 30
0.000000
  70
    32
  0
SEQEND
  8
0
  5
D35A
  0
POLYLINE
  8
0
  5
D35B
  66
     1
 10
0.000000
 20
0.000000
 30
0.000000
  70
     8
  0
VERTEX
  8
0
  5
D35C
 10
-386.196
 20
838.229
 30
0.000000
  70
    32
  0
VERTEX
  8
0
  5
D35D
 10
-386.195
 20
838.226
 30
0.000000
  70
    32
  0
VERTEX
  8
0
  5
D35E
 10
-386.194
 20
838.222
 30
0.000000
  70
    32
  0
VERTEX
  8
0
  5
D35F
 10
-386.193
 20
838.219
 30
0.000000
  70
    32
  0
VERTEX
  8
0
  5
D360
 10
-386.192
 20
838.215
 30
0.000000
  70
    32
  0
VERTEX
  8
0
  5
D361
 10
-386.191
 20
838.212
 30
0.000000
  70
    32
  0
VERTEX
  8
0
  5
D362
 10
-386.191
 20
838.208
 30
0.000000
  70
    32
  0
VERTEX
  8
0
  5
D363
 10
-386.190
 20
838.205
 30
0.000000
  70
    32
  0
VERTEX
  8
0
  5
D364
 10
-386.189
 20
838.201
 30
0.000000
  70
    32
  0
VERTEX
  8
0
  5
D365
 10
-386.188
 20
838.198
 30
0.000000
  70
    32
  0
VERTEX
  8
0
  5
D366
 10
-386.187
 20
838.194
 30
0.000000
  70
    32
  0
VERTEX
  8
0
  5
D367
 10
-386.186
 20
838.191
 30
0.000000
  70
    32
  0
VERTEX
  8
0
  5
D368
 10
-386.185
 20
838.187
 30
0.000000
  70
    32
  0
VERTEX
  8
0
  5
D369
 10
-386.185
 20
838.183
 30
0.000000
  70
    32
  0
VERTEX
  8
0
  5
D36A
 10
-386.184
 20
838.180
 30
0.000000
  70
    32
  0
VERTEX
  8
0
  5
D36B
 10
-386.183
 20
838.176
 30
0.000000
  70
    32
  0
VERTEX
  8
0
  5
D36C
 10
-386.182
 20
838.173
 30
0.000000
  70
    32
  0
VERTEX
  8
0
  5
D36D
 10
-386.181
 20
838.169
 30
0.000000
  70
    32
  0
VERTEX
  8
0
  5
D36E
 10
-386.181
 20
838.166
 30
0.000000
  70
    32
  0
VERTEX
  8
0
  5
D36F
 10
-386.180
 20
838.162
 30
0.000000
  70
    32
  0
VERTEX
  8
0
  5
D370
 10
-386.179
 20
838.159
 30
0.000000
  70
    32
  0
VERTEX
  8
0
  5
D371
 10
-386.178
 20
838.155
 30
0.000000
  70
    32
  0
VERTEX
  8
0
  5
D372
 10
-386.178
 20
838.151
 30
0.000000
  70
    32
  0
VERTEX
  8
0
  5
D373
 10
-386.177
 20
838.148
 30
0.000000
  70
    32
  0
VERTEX
  8
0
  5
D374
 10
-386.176
 20
838.144
 30
0.000000
  70
    32
  0
VERTEX
  8
0
  5
D375
 10
-386.176
 20
838.141
 30
0.000000
  70
    32
  0
VERTEX
  8
0
  5
D376
 10
-386.175
 20
838.137
 30
0.000000
  70
    32
  0
VERTEX
  8
0
  5
D377
 10
-386.174
 20
838.134
 30
0.000000
  70
    32
  0
VERTEX
  8
0
  5
D378
 10
-386.174
 20
838.130
 30
0.000000
  70
    32
  0
VERTEX
  8
0
  5
D379
 10
-386.173
 20
838.126
 30
0.000000
  70
    32
  0
VERTEX
  8
0
  5
D37A
 10
-386.173
 20
838.123
 30
0.000000
  70
    32
  0
VERTEX
  8
0
  5
D37B
 10
-386.172
 20
838.119
 30
0.000000
  70
    32
  0
VERTEX
  8
0
  5
D37C
 10
-386.172
 20
838.116
 30
0.000000
  70
    32
  0
VERTEX
  8
0
  5
D37D
 10
-386.171
 20
838.112
 30
0.000000
  70
    32
  0
VERTEX
  8
0
  5
D37E
 10
-386.170
 20
838.108
 30
0.000000
  70
    32
  0
VERTEX
  8
0
  5
D37F
 10
-386.170
 20
838.105
 30
0.000000
  70
    32
  0
VERTEX
  8
0
  5
D380
 10
-386.169
 20
838.101
 30
0.000000
  70
    32
  0
VERTEX
  8
0
  5
D381
 10
-386.169
 20
838.097
 30
0.000000
  70
    32
  0
VERTEX
  8
0
  5
D382
 10
-386.168
 20
838.094
 30
0.000000
  70
    32
  0
VERTEX
  8
0
  5
D383
 10
-386.168
 20
838.090
 30
0.000000
  70
    32
  0
VERTEX
  8
0
  5
D384
 10
-386.168
 20
838.087
 30
0.000000
  70
    32
  0
VERTEX
  8
0
  5
D385
 10
-386.167
 20
838.083
 30
0.000000
  70
    32
  0
VERTEX
  8
0
  5
D386
 10
-386.167
 20
838.079
 30
0.000000
  70
    32
  0
VERTEX
  8
0
  5
D387
 10
-386.166
 20
838.076
 30
0.000000
  70
    32
  0
VERTEX
  8
0
  5
D388
 10
-386.166
 20
838.072
 30
0.000000
  70
    32
  0
VERTEX
  8
0
  5
D389
 10
-386.166
 20
838.068
 30
0.000000
  70
    32
  0
VERTEX
  8
0
  5
D38A
 10
-386.165
 20
838.065
 30
0.000000
  70
    32
  0
VERTEX
  8
0
  5
D38B
 10
-386.165
 20
838.061
 30
0.000000
  70
    32
  0
VERTEX
  8
0
  5
D38C
 10
-386.165
 20
838.057
 30
0.000000
  70
    32
  0
VERTEX
  8
0
  5
D38D
 10
-386.164
 20
838.054
 30
0.000000
  70
    32
  0
VERTEX
  8
0
  5
D38E
 10
-386.164
 20
838.050
 30
0.000000
  70
    32
  0
VERTEX
  8
0
  5
D38F
 10
-386.164
 20
838.046
 30
0.000000
  70
    32
  0
VERTEX
  8
0
  5
D390
 10
-386.163
 20
838.043
 30
0.000000
  70
    32
  0
VERTEX
  8
0
  5
D391
 10
-386.163
 20
838.039
 30
0.000000
  70
    32
  0
VERTEX
  8
0
  5
D392
 10
-386.163
 20
838.035
 30
0.000000
  70
    32
  0
VERTEX
  8
0
  5
D393
 10
-386.163
 20
838.031
 30
0.000000
  70
    32
  0
VERTEX
  8
0
  5
D394
 10
-386.163
 20
838.028
 30
0.000000
  70
    32
  0
VERTEX
  8
0
  5
D395
 10
-386.162
 20
838.024
 30
0.000000
  70
    32
  0
VERTEX
  8
0
  5
D396
 10
-386.162
 20
838.020
 30
0.000000
  70
    32
  0
VERTEX
  8
0
  5
D397
 10
-386.162
 20
838.017
 30
0.000000
  70
    32
  0
VERTEX
  8
0
  5
D398
 10
-386.162
 20
838.013
 30
0.000000
  70
    32
  0
VERTEX
  8
0
  5
D399
 10
-386.162
 20
838.009
 30
0.000000
  70
    32
  0
VERTEX
  8
0
  5
D39A
 10
-386.162
 20
838.005
 30
0.000000
  70
    32
  0
VERTEX
  8
0
  5
D39B
 10
-386.162
 20
838.002
 30
0.000000
  70
    32
  0
VERTEX
  8
0
  5
D39C
 10
-386.162
 20
837.998
 30
0.000000
  70
    32
  0
VERTEX
  8
0
  5
D39D
 10
-386.162
 20
837.994
 30
0.000000
  70
    32
  0
VERTEX
  8
0
  5
D39E
 10
-386.162
 20
837.991
 30
0.000000
  70
    32
  0
VERTEX
  8
0
  5
D39F
 10
-386.162
 20
837.987
 30
0.000000
  70
    32
  0
VERTEX
  8
0
  5
D3A0
 10
-386.162
 20
837.983
 30
0.000000
  70
    32
  0
VERTEX
  8
0
  5
D3A1
 10
-386.162
 20
837.979
 30
0.000000
  70
    32
  0
VERTEX
  8
0
  5
D3A2
 10
-386.162
 20
837.976
 30
0.000000
  70
    32
  0
VERTEX
  8
0
  5
D3A3
 10
-386.162
 20
837.972
 30
0.000000
  70
    32
  0
VERTEX
  8
0
  5
D3A4
 10
-386.162
 20
837.968
 30
0.000000
  70
    32
  0
VERTEX
  8
0
  5
D3A5
 10
-386.163
 20
837.965
 30
0.000000
  70
    32
  0
VERTEX
  8
0
  5
D3A6
 10
-386.163
 20
837.961
 30
0.000000
  70
    32
  0
VERTEX
  8
0
  5
D3A7
 10
-386.163
 20
837.957
 30
0.000000
  70
    32
  0
VERTEX
  8
0
  5
D3A8
 10
-386.163
 20
837.953
 30
0.000000
  70
    32
  0
VERTEX
  8
0
  5
D3A9
 10
-386.164
 20
837.950
 30
0.000000
  70
    32
  0
VERTEX
  8
0
  5
D3AA
 10
-386.164
 20
837.946
 30
0.000000
  70
    32
  0
VERTEX
  8
0
  5
D3AB
 10
-386.164
 20
837.942
 30
0.000000
  70
    32
  0
VERTEX
  8
0
  5
D3AC
 10
-386.165
 20
837.939
 30
0.000000
  70
    32
  0
VERTEX
  8
0
  5
D3AD
 10
-386.165
 20
837.935
 30
0.000000
  70
    32
  0
VERTEX
  8
0
  5
D3AE
 10
-386.165
 20
837.931
 30
0.000000
  70
    32
  0
VERTEX
  8
0
  5
D3AF
 10
-386.166
 20
837.928
 30
0.000000
  70
    32
  0
VERTEX
  8
0
  5
D3B0
 10
-386.166
 20
837.924
 30
0.000000
  70
    32
  0
VERTEX
  8
0
  5
D3B1
 10
-386.167
 20
837.920
 30
0.000000
  70
    32
  0
VERTEX
  8
0
  5
D3B2
 10
-386.167
 20
837.917
 30
0.000000
  70
    32
  0
VERTEX
  8
0
  5
D3B3
 10
-386.168
 20
837.913
 30
0.000000
  70
    32
  0
VERTEX
  8
0
  5
D3B4
 10
-386.168
 20
837.909
 30
0.000000
  70
    32
  0
VERTEX
  8
0
  5
D3B5
 10
-386.169
 20
837.906
 30
0.000000
  70
    32
  0
VERTEX
  8
0
  5
D3B6
 10
-386.170
 20
837.902
 30
0.000000
  70
    32
  0
VERTEX
  8
0
  5
D3B7
 10
-386.170
 20
837.899
 30
0.000000
  70
    32
  0
VERTEX
  8
0
  5
D3B8
 10
-386.171
 20
837.895
 30
0.000000
  70
    32
  0
VERTEX
  8
0
  5
D3B9
 10
-386.172
 20
837.891
 30
0.000000
  70
    32
  0
VERTEX
  8
0
  5
D3BA
 10
-386.173
 20
837.888
 30
0.000000
  70
    32
  0
VERTEX
  8
0
  5
D3BB
 10
-386.174
 20
837.884
 30
0.000000
  70
    32
  0
VERTEX
  8
0
  5
D3BC
 10
-386.174
 20
837.881
 30
0.000000
  70
    32
  0
VERTEX
  8
0
  5
D3BD
 10
-386.175
 20
837.877
 30
0.000000
  70
    32
  0
VERTEX
  8
0
  5
D3BE
 10
-386.176
 20
837.874
 30
0.000000
  70
    32
  0
VERTEX
  8
0
  5
D3BF
 10
-386.177
 20
837.870
 30
0.000000
  70
    32
  0
VERTEX
  8
0
  5
D3C0
 10
-386.178
 20
837.867
 30
0.000000
  70
    32
  0
VERTEX
  8
0
  5
D3C1
 10
-386.179
 20
837.863
 30
0.000000
  70
    32
  0
VERTEX
  8
0
  5
D3C2
 10
-386.180
 20
837.860
 30
0.000000
  70
    32
  0
VERTEX
  8
0
  5
D3C3
 10
-386.181
 20
837.856
 30
0.000000
  70
    32
  0
VERTEX
  8
0
  5
D3C4
 10
-386.182
 20
837.853
 30
0.000000
  70
    32
  0
VERTEX
  8
0
  5
D3C5
 10
-386.184
 20
837.850
 30
0.000000
  70
    32
  0
VERTEX
  8
0
  5
D3C6
 10
-386.185
 20
837.846
 30
0.000000
  70
    32
  0
VERTEX
  8
0
  5
D3C7
 10
-386.186
 20
837.843
 30
0.000000
  70
    32
  0
VERTEX
  8
0
  5
D3C8
 10
-386.187
 20
837.839
 30
0.000000
  70
    32
  0
VERTEX
  8
0
  5
D3C9
 10
-386.189
 20
837.836
 30
0.000000
  70
    32
  0
VERTEX
  8
0
  5
D3CA
 10
-386.190
 20
837.833
 30
0.000000
  70
    32
  0
VERTEX
  8
0
  5
D3CB
 10
-386.192
 20
837.829
 30
0.000000
  70
    32
  0
VERTEX
  8
0
  5
D3CC
 10
-386.193
 20
837.826
 30
0.000000
  70
    32
  0
VERTEX
  8
0
  5
D3CD
 10
-386.194
 20
837.823
 30
0.000000
  70
    32
  0
VERTEX
  8
0
  5
D3CE
 10
-386.196
 20
837.819
 30
0.000000
  70
    32
  0
VERTEX
  8
0
  5
D3CF
 10
-386.198
 20
837.816
 30
0.000000
  70
    32
  0
VERTEX
  8
0
  5
D3D0
 10
-386.199
 20
837.813
 30
0.000000
  70
    32
  0
VERTEX
  8
0
  5
D3D1
 10
-386.201
 20
837.810
 30
0.000000
  70
    32
  0
VERTEX
  8
0
  5
D3D2
 10
-386.202
 20
837.807
 30
0.000000
  70
    32
  0
VERTEX
  8
0
  5
D3D3
 10
-386.204
 20
837.803
 30
0.000000
  70
    32
  0
VERTEX
  8
0
  5
D3D4
 10
-386.206
 20
837.800
 30
0.000000
  70
    32
  0
VERTEX
  8
0
  5
D3D5
 10
-386.208
 20
837.797
 30
0.000000
  70
    32
  0
VERTEX
  8
0
  5
D3D6
 10
-386.210
 20
837.794
 30
0.000000
  70
    32
  0
VERTEX
  8
0
  5
D3D7
 10
-386.211
 20
837.791
 30
0.000000
  70
    32
  0
VERTEX
  8
0
  5
D3D8
 10
-386.213
 20
837.788
 30
0.000000
  70
    32
  0
VERTEX
  8
0
  5
D3D9
 10
-386.215
 20
837.785
 30
0.000000
  70
    32
  0
VERTEX
  8
0
  5
D3DA
 10
-386.217
 20
837.782
 30
0.000000
  70
    32
  0
VERTEX
  8
0
  5
D3DB
 10
-386.219
 20
837.779
 30
0.000000
  70
    32
  0
VERTEX
  8
0
  5
D3DC
 10
-386.221
 20
837.776
 30
0.000000
  70
    32
  0
VERTEX
  8
0
  5
D3DD
 10
-386.223
 20
837.773
 30
0.000000
  70
    32
  0
VERTEX
  8
0
  5
D3DE
 10
-386.225
 20
837.770
 30
0.000000
  70
    32
  0
VERTEX
  8
0
  5
D3DF
 10
-386.228
 20
837.767
 30
0.000000
  70
    32
  0
VERTEX
  8
0
  5
D3E0
 10
-386.230
 20
837.764
 30
0.000000
  70
    32
  0
VERTEX
  8
0
  5
D3E1
 10
-386.232
 20
837.761
 30
0.000000
  70
    32
  0
VERTEX
  8
0
  5
D3E2
 10
-386.234
 20
837.758
 30
0.000000
  70
    32
  0
VERTEX
  8
0
  5
D3E3
 10
-386.236
 20
837.755
 30
0.000000
  70
    32
  0
VERTEX
  8
0
  5
D3E4
 10
-386.239
 20
837.752
 30
0.000000
  70
    32
  0
VERTEX
  8
0
  5
D3E5
 10
-386.241
 20
837.749
 30
0.000000
  70
    32
  0
VERTEX
  8
0
  5
D3E6
 10
-386.243
 20
837.746
 30
0.000000
  70
    32
  0
VERTEX
  8
0
  5
D3E7
 10
-386.246
 20
837.743
 30
0.000000
  70
    32
  0
VERTEX
  8
0
  5
D3E8
 10
-386.248
 20
837.741
 30
0.000000
  70
    32
  0
VERTEX
  8
0
  5
D3E9
 10
-386.250
 20
837.738
 30
0.000000
  70
    32
  0
VERTEX
  8
0
  5
D3EA
 10
-386.253
 20
837.735
 30
0.000000
  70
    32
  0
VERTEX
  8
0
  5
D3EB
 10
-386.255
 20
837.732
 30
0.000000
  70
    32
  0
VERTEX
  8
0
  5
D3EC
 10
-386.258
 20
837.729
 30
0.000000
  70
    32
  0
VERTEX
  8
0
  5
D3ED
 10
-386.260
 20
837.727
 30
0.000000
  70
    32
  0
VERTEX
  8
0
  5
D3EE
 10
-386.263
 20
837.724
 30
0.000000
  70
    32
  0
VERTEX
  8
0
  5
D3EF
 10
-386.265
 20
837.721
 30
0.000000
  70
    32
  0
VERTEX
  8
0
  5
D3F0
 10
-386.268
 20
837.719
 30
0.000000
  70
    32
  0
VERTEX
  8
0
  5
D3F1
 10
-386.271
 20
837.716
 30
0.000000
  70
    32
  0
VERTEX
  8
0
  5
D3F2
 10
-386.273
 20
837.713
 30
0.000000
  70
    32
  0
VERTEX
  8
0
  5
D3F3
 10
-386.276
 20
837.711
 30
0.000000
  70
    32
  0
VERTEX
  8
0
  5
D3F4
 10
-386.278
 20
837.708
 30
0.000000
  70
    32
  0
VERTEX
  8
0
  5
D3F5
 10
-386.281
 20
837.705
 30
0.000000
  70
    32
  0
VERTEX
  8
0
  5
D3F6
 10
-386.284
 20
837.703
 30
0.000000
  70
    32
  0
VERTEX
  8
0
  5
D3F7
 10
-386.287
 20
837.700
 30
0.000000
  70
    32
  0
VERTEX
  8
0
  5
D3F8
 10
-386.289
 20
837.698
 30
0.000000
  70
    32
  0
VERTEX
  8
0
  5
D3F9
 10
-386.292
 20
837.695
 30
0.000000
  70
    32
  0
VERTEX
  8
0
  5
D3FA
 10
-386.295
 20
837.693
 30
0.000000
  70
    32
  0
VERTEX
  8
0
  5
D3FB
 10
-386.298
 20
837.690
 30
0.000000
  70
    32
  0
VERTEX
  8
0
  5
D3FC
 10
-386.300
 20
837.688
 30
0.000000
  70
    32
  0
VERTEX
  8
0
  5
D3FD
 10
-386.303
 20
837.685
 30
0.000000
  70
    32
  0
VERTEX
  8
0
  5
D3FE
 10
-386.306
 20
837.683
 30
0.000000
  70
    32
  0
VERTEX
  8
0
  5
D3FF
 10
-386.309
 20
837.680
 30
0.000000
  70
    32
  0
VERTEX
  8
0
  5
D400
 10
-386.312
 20
837.678
 30
0.000000
  70
    32
  0
VERTEX
  8
0
  5
D401
 10
-386.315
 20
837.675
 30
0.000000
  70
    32
  0
VERTEX
  8
0
  5
D402
 10
-386.318
 20
837.673
 30
0.000000
  70
    32
  0
VERTEX
  8
0
  5
D403
 10
-386.320
 20
837.671
 30
0.000000
  70
    32
  0
VERTEX
  8
0
  5
D404
 10
-386.323
 20
837.668
 30
0.000000
  70
    32
  0
VERTEX
  8
0
  5
D405
 10
-386.326
 20
837.666
 30
0.000000
  70
    32
  0
VERTEX
  8
0
  5
D406
 10
-386.329
 20
837.664
 30
0.000000
  70
    32
  0
VERTEX
  8
0
  5
D407
 10
-386.332
 20
837.661
 30
0.000000
  70
    32
  0
VERTEX
  8
0
  5
D408
 10
-386.335
 20
837.659
 30
0.000000
  70
    32
  0
VERTEX
  8
0
  5
D409
 10
-386.338
 20
837.657
 30
0.000000
  70
    32
  0
VERTEX
  8
0
  5
D40A
 10
-386.341
 20
837.654
 30
0.000000
  70
    32
  0
VERTEX
  8
0
  5
D40B
 10
-386.344
 20
837.652
 30
0.000000
  70
    32
  0
VERTEX
  8
0
  5
D40C
 10
-386.347
 20
837.650
 30
0.000000
  70
    32
  0
VERTEX
  8
0
  5
D40D
 10
-386.350
 20
837.648
 30
0.000000
  70
    32
  0
VERTEX
  8
0
  5
D40E
 10
-386.353
 20
837.645
 30
0.000000
  70
    32
  0
VERTEX
  8
0
  5
D40F
 10
-386.356
 20
837.643
 30
0.000000
  70
    32
  0
VERTEX
  8
0
  5
D410
 10
-386.359
 20
837.641
 30
0.000000
  70
    32
  0
VERTEX
  8
0
  5
D411
 10
-386.362
 20
837.639
 30
0.000000
  70
    32
  0
VERTEX
  8
0
  5
D412
 10
-386.365
 20
837.637
 30
0.000000
  70
    32
  0
VERTEX
  8
0
  5
D413
 10
-386.368
 20
837.635
 30
0.000000
  70
    32
  0
VERTEX
  8
0
  5
D414
 10
-386.371
 20
837.633
 30
0.000000
  70
    32
  0
VERTEX
  8
0
  5
D415
 10
-386.374
 20
837.630
 30
0.000000
  70
    32
  0
VERTEX
  8
0
  5
D416
 10
-386.377
 20
837.628
 30
0.000000
  70
    32
  0
VERTEX
  8
0
  5
D417
 10
-386.380
 20
837.626
 30
0.000000
  70
    32
  0
VERTEX
  8
0
  5
D418
 10
-386.383
 20
837.624
 30
0.000000
  70
    32
  0
VERTEX
  8
0
  5
D419
 10
-386.386
 20
837.622
 30
0.000000
  70
    32
  0
VERTEX
  8
0
  5
D41A
 10
-386.389
 20
837.620
 30
0.000000
  70
    32
  0
VERTEX
  8
0
  5
D41B
 10
-386.393
 20
837.618
 30
0.000000
  70
    32
  0
SEQEND
  8
0
  5
D41C
  0
VIEWPORT
  5
BADA
 67
     1
  8
0
 10
5.249999665167536
 20
4.0168608648543129
 30
0.0
 40
16.212536403349191
 41
8.0154416672020492
 68
     1
 69
     1
1001
ACAD
1000
MVIEW
1002
{
1070
    16
1010
0.0
1020
0.0
1030
0.0
1010
0.0
1020
0.0
1030
1.0
1040
0.0
1040
8.0154416672020492
1040
5.249999665167536
1040
4.0168608648543129
1040
50.0
1040
0.0
1040
0.0
1070
     0
1070
   100
1070
     1
1070
     1
1070
     0
1070
     0
1070
     0
1070
     0
1040
0.0
1040
0.0
1040
0.0
1040
0.5
1040
0.5
1040
0.5
1040
0.5
1070
     0
1002
{
1002
}
1002
}
  0
VIEWPORT
  5
BADD
 67
     1
  8
0
 10
5.2499996294871929
 20
4.0166741807634683
 30
0.0
 40
10.44245679893058
 41
7.8813805131999892
 68
     2
 69
     2
1001
ACAD
1000
MVIEW
1002
{
1070
    16
1010
0.0
1020
0.0
1030
0.0
1010
0.0
1020
0.0
1030
1.0
1040
0.0
1040
7.8813805007985804
1040
-386.27910609723159
1040
838.13175072271338
1040
50.0
1040
0.0
1040
0.0
1070
     0
1070
   100
1070
     1
1070
     2
1070
     0
1070
     0
1070
     0
1070
     0
1040
0.0
1040
0.0
1040
0.0
1040
0.5
1040
0.5
1040
0.5
1040
0.5
1070
     0
1002
{
1002
}
1002
}
  0
ENDSEC
  0
EOF
