  0
SECTION
  2
HEADER
  9
$ACADVER
  1
AC1009
  9
$INSBASE
 10
0.0
 20
0.0
 30
0.0
  9
$EXTMIN
 10
-389.39149520612779
 20
832.04903982714245
 30
0.0
  9
$EXTMAX
 10
-383.54043202233248
 20
850.04275037683647
 30
0.0
  9
$LIMMIN
 10
0.0
 20
0.0
  9
$LIMMAX
 10
1500.0
 20
1500.0
  9
$ORTHOMODE
 70
     0
  9
$REGENMODE
 70
     1
  9
$FILLMODE
 70
     1
  9
$QTEXTMODE
 70
     0
  9
$MIRRTEXT
 70
     1
  9
$DRAGMODE
 70
     2
  9
$LTSCALE
 40
1.0
  9
$OSMODE
 70
    37
  9
$ATTMODE
 70
     1
  9
$TEXTSIZE
 40
1.5
  9
$TRACEWID
 40
0.05
  9
$TEXTSTYLE
  7
STANDARD
  9
$CLAYER
  8
0
  9
$CELTYPE
  6
BYLAYER
  9
$CECOLOR
 62
   256
  9
$DIMSCALE
 40
1.0
  9
$DIMASZ
 40
0.75
  9
$DIMEXO
 40
1.5
  9
$DIMDLI
 40
2.0
  9
$DIMRND
 40
0.0
  9
$DIMDLE
 40
0.0
  9
$DIMEXE
 40
1.0
  9
$DIMTP
 40
0.0
  9
$DIMTM
 40
0.0
  9
$DIMTXT
 40
1.5
  9
$DIMCEN
 40
2.0
  9
$DIMTSZ
 40
0.0
  9
$DIMTOL
 70
     0
  9
$DIMLIM
 70
     0
  9
$DIMTIH
 70
     0
  9
$DIMTOH
 70
     0
  9
$DIMSE1
 70
     0
  9
$DIMSE2
 70
     0
  9
$DIMTAD
 70
     1
  9
$DIMZIN
 70
     0
  9
$DIMBLK
  1
ARCHTICK
  9
$DIMASO
 70
     1
  9
$DIMSHO
 70
     1
  9
$DIMPOST
  1
"
  9
$DIMAPOST
  1

  9
$DIMALT
 70
     0
  9
$DIMALTD
 70
     2
  9
$DIMALTF
 40
25.399999999999999
  9
$DIMLFAC
 40
1.0
  9
$DIMTOFL
 70
     0
  9
$DIMTVP
 40
0.0
  9
$DIMTIX
 70
     1
  9
$DIMSOXD
 70
     0
  9
$DIMSAH
 70
     0
  9
$DIMBLK1
  1

  9
$DIMBLK2
  1

  9
$DIMSTYLE
  2
THREE_QUARTER_INCH_SCALE
  9
$DIMCLRD
 70
     0
  9
$DIMCLRE
 70
     0
  9
$DIMCLRT
 70
     0
  9
$DIMTFAC
 40
1.0
  9
$DIMGAP
 40
1.0
  9
$LUNITS
 70
     2
  9
$LUPREC
 70
     4
  9
$SKETCHINC
 40
0.1
  9
$FILLETRAD
 40
0.0
  9
$AUNITS
 70
     0
  9
$AUPREC
 70
     0
  9
$MENU
  1
.
  9
$ELEVATION
 40
0.0
  9
$PELEVATION
 40
0.0
  9
$THICKNESS
 40
0.0
  9
$LIMCHECK
 70
     0
  9
$BLIPMODE
 70
     0
  9
$CHAMFERA
 40
0.5
  9
$CHAMFERB
 40
0.5
  9
$SKPOLY
 70
     0
  9
$TDCREATE
 40
2452089.395738773
  9
$TDUPDATE
 40
2453607.3260573959
  9
$TDINDWG
 40
1.0053863542000001
  9
$TDUSRTIMER
 40
1.0053863542000001
  9
$USRTIMER
 70
     1
  9
$ANGBASE
 50
0.0
  9
$ANGDIR
 70
     0
  9
$PDMODE
 70
     0
  9
$PDSIZE
 40
10.0
  9
$PLINEWID
 40
0.0
  9
$COORDS
 70
     1
  9
$SPLFRAME
 70
     0
  9
$SPLINETYPE
 70
     6
  9
$SPLINESEGS
 70
     8
  9
$ATTDIA
 70
     0
  9
$ATTREQ
 70
     1
  9
$HANDLING
 70
     1
  9
$HANDSEED
  5
D204
  9
$SURFTAB1
 70
     6
  9
$SURFTAB2
 70
     6
  9
$SURFTYPE
 70
     6
  9
$SURFU
 70
     6
  9
$SURFV
 70
     6
  9
$UCSNAME
  2

  9
$UCSORG
 10
0.0
 20
0.0
 30
0.0
  9
$UCSXDIR
 10
1.0
 20
0.0
 30
0.0
  9
$UCSYDIR
 10
0.0
 20
1.0
 30
0.0
  9
$PUCSNAME
  2

  9
$PUCSORG
 10
0.0
 20
0.0
 30
0.0
  9
$PUCSXDIR
 10
1.0
 20
0.0
 30
0.0
  9
$PUCSYDIR
 10
0.0
 20
1.0
 30
0.0
  9
$USERI1
 70
     0
  9
$USERI2
 70
     0
  9
$USERI3
 70
     0
  9
$USERI4
 70
     0
  9
$USERI5
 70
     0
  9
$USERR1
 40
0.0
  9
$USERR2
 40
0.0
  9
$USERR3
 40
0.0
  9
$USERR4
 40
0.0
  9
$USERR5
 40
0.0
  9
$WORLDVIEW
 70
     1
  9
$SHADEDGE
 70
     3
  9
$SHADEDIF
 70
    70
  9
$TILEMODE
 70
     0
  9
$MAXACTVP
 70
    64
  9
$PLIMCHECK
 70
     0
  9
$PEXTMIN
 10
0.0287712300219028
 20
0.0759839241634737
 30
0.0
  9
$PEXTMAX
 10
10.47122802895248
 20
7.957364437363462
 30
0.0
  9
$PLIMMIN
 10
-0.2500002402958907
 20
-0.2499999962453767
  9
$PLIMMAX
 10
10.74999951940821
 20
8.2499997634587316
  9
$UNITMODE
 70
     0
  9
$VISRETAIN
 70
     1
  9
$PLINEGEN
 70
     0
  9
$PSLTSCALE
 70
     1
  0
ENDSEC
  0
SECTION
  2
TABLES
  0
TABLE
  2
VPORT
 70
    16
  0
VPORT
  2
*ACTIVE
 70
     0
 10
0.0
 20
0.0
 11
1.0
 21
1.0
 12
-386.65964032447761
 22
838.12308483841969
 13
0.0
 23
0.0
 14
0.5
 24
0.5
 15
0.5
 25
0.5
 16
0.0
 26
0.0
 36
1.0
 17
0.0
 27
0.0
 37
0.0
 40
5.0036027428113776
 41
2.0226628895184131
 42
50.0
 43
0.0
 44
0.0
 50
0.0
 51
0.0
 71
     0
 72
   100
 73
     1
 74
     2
 75
     0
 76
     0
 77
     0
 78
     0
  0
ENDTAB
  0
TABLE
  2
LTYPE
 70
     1
  0
LTYPE
  2
CONTINUOUS
 70
     0
  3
Solid line
 72
    65
 73
     0
 40
0.0
  0
ENDTAB
  0
TABLE
  2
LAYER
 70
    10
  0
LAYER
  2
0
 70
     0
 62
     7
  6
CONTINUOUS
  0
LAYER
  2
DEFPOINTS
 70
     0
 62
     7
  6
CONTINUOUS
  0
LAYER
  2
FRAME_200
 70
     0
 62
     8
  6
CONTINUOUS
  0
LAYER
  2
FRAME_070
 70
     0
 62
     5
  6
CONTINUOUS
  0
LAYER
  2
FRAME_050
 70
     0
 62
     6
  6
CONTINUOUS
  0
LAYER
  2
TITLE_BLOCK
 70
     0
 62
     7
  6
CONTINUOUS
  0
LAYER
  2
FRAME_025
 70
     0
 62
     7
  6
CONTINUOUS
  0
LAYER
  2
VIEWPORT
 70
     0
 62
     7
  6
CONTINUOUS
  0
LAYER
  2
PROF
 70
     0
 62
     7
  6
CONTINUOUS
  0
LAYER
  2
PROFILE
 70
     0
 62
     7
  6
CONTINUOUS
  0
ENDTAB
  0
TABLE
  2
STYLE
 70
     2
  0
STYLE
  2
STANDARD
 70
     0
 40
0.0
 41
1.0
 50
0.0
 71
     0
 42
1.5
  3
txt
  4

  0
STYLE
  2
ISO_PROPORTIONAL
 70
     0
 40
0.0
 41
1.0
 50
0.0
 71
     0
 42
2.5
  3
isocp.shx
  4

  0
ENDTAB
  0
TABLE
  2
VIEW
 70
    16
  0
ENDTAB
  0
TABLE
  2
UCS
 70
     0
  0
ENDTAB
  0
TABLE
  2
APPID
 70
     6
  0
APPID
  2
ACAD
 70
     0
  0
APPID
  2
DCO15
 70
     0
  0
APPID
  2
ACAD_EXEMPT_FROM_CAD_STANDARDS
 70
     0
  0
APPID
  2
ACAD_PSEXT
 70
     0
  0
APPID
  2
CONTENTBLOCKDESCRIPTION
 70
     0
  0
APPID
  2
CONTENTBLOCKICON
 70
     0
  0
ENDTAB
  0
TABLE
  2
DIMSTYLE
 70
     5
  0
DIMSTYLE
  2
FULL_SCALE
 70
     0
  3
"
  4

  5
ARCHTICK
  6

  7

 40
1.0
 41
0.046875
 42
0.09375
 43
0.125
 44
0.0625
 45
0.0
 46
0.0
 47
0.0
 48
0.0
140
0.125
141
0.125
142
0.0
143
25.399999999999999
144
1.0
145
0.0
146
1.0
147
0.0625
 71
     0
 72
     0
 73
     0
 74
     0
 75
     0
 76
     0
 77
     1
 78
     0
170
     0
171
     2
172
     0
173
     0
174
     1
175
     0
176
     0
177
     0
178
     0
  0
DIMSTYLE
  2
HALF_SCALE
 70
     0
  3
"
  4

  5
ARCHTICK
  6

  7

 40
1.0
 41
0.09375
 42
0.1875
 43
0.25
 44
0.125
 45
0.0
 46
0.0
 47
0.0
 48
0.0
140
0.25
141
0.25
142
0.0
143
25.399999999999999
144
1.0
145
0.0
146
1.0
147
0.125
 71
     0
 72
     0
 73
     0
 74
     0
 75
     0
 76
     0
 77
     1
 78
     0
170
     0
171
     2
172
     0
173
     0
174
     1
175
     0
176
     0
177
     0
178
     0
  0
DIMSTYLE
  2
INCH_SCALE
 70
     0
  3
"
  4

  5
ARCHTICK
  6

  7

 40
1.0
 41
0.5625
 42
1.125
 43
1.5
 44
0.75
 45
0.0
 46
0.0
 47
0.0
 48
0.0
140
1.125
141
1.5
142
0.0
143
25.399999999999999
144
1.0
145
0.0
146
1.0
147
0.75
 71
     0
 72
     0
 73
     0
 74
     0
 75
     0
 76
     0
 77
     1
 78
     0
170
     0
171
     2
172
     0
173
     0
174
     1
175
     0
176
     0
177
     0
178
     0
  0
DIMSTYLE
  2
THREE_QUARTER_INCH_SCALE
 70
     0
  3
"
  4

  5
ARCHTICK
  6

  7

 40
1.0
 41
0.75
 42
1.5
 43
2.0
 44
1.0
 45
0.0
 46
0.0
 47
0.0
 48
0.0
140
1.5
141
2.0
142
0.0
143
25.399999999999999
144
1.0
145
0.0
146
1.0
147
1.0
 71
     0
 72
     0
 73
     0
 74
     0
 75
     0
 76
     0
 77
     1
 78
     0
170
     0
171
     2
172
     0
173
     0
174
     1
175
     0
176
     0
177
     0
178
     0
  0
DIMSTYLE
  2
ZHALF_INCH_SCALE
 70
     0
  3
"
  4

  5
ARCHTICK
  6

  7

 40
1.0
 41
1.125
 42
2.25
 43
3.0
 44
1.5
 45
0.0
 46
0.0
 47
0.0
 48
0.0
140
2.25
141
3.0
142
0.0
143
25.399999999999999
144
1.0
145
0.0
146
1.0
147
1.5
 71
     0
 72
     0
 73
     0
 74
     0
 75
     0
 76
     0
 77
     1
 78
     0
170
     0
171
     2
172
     0
173
     0
174
     1
175
     0
176
     0
177
     0
178
     0
  0
ENDTAB
  0
ENDSEC
  0
SECTION
  2
BLOCKS
  0
BLOCK
  8
0
  2
$MODEL_SPACE
 70
     0
 10
0.0
 20
0.0
 30
0.0
  3
$MODEL_SPACE
  1

  0
ENDBLK
  5
21
  8
0
  0
BLOCK
 67
     1
  8
0
  2
$PAPER_SPACE
 70
     0
 10
0.0
 20
0.0
 30
0.0
  3
$PAPER_SPACE
  1

  0
ENDBLK
  5
BAD5
 67
     1
  8
0
  0
BLOCK
  8
0
  2
_ARCHTICK
 70
     0
 10
0.0
 20
0.0
 30
0.0
  3
_ARCHTICK
  1

  0
POLYLINE
  5
158
  8
0
  6
BYBLOCK
 62
     0
 66
     1
 10
0.0
 20
0.0
 30
0.0
 40
0.15
 41
0.15
  0
VERTEX
  5
CF36
  8
0
  6
BYBLOCK
 62
     0
 10
-0.5
 20
-0.5
 30
0.0
  0
VERTEX
  5
CF37
  8
0
  6
BYBLOCK
 62
     0
 10
0.5
 20
0.5
 30
0.0
  0
SEQEND
  5
CF38
  8
0
  6
BYBLOCK
 62
     0
  0
ENDBLK
  5
15A
  8
0
  0
BLOCK
  8
0
  2
_OPEN30
 70
     0
 10
0.0
 20
0.0
 30
0.0
  3
_OPEN30
  1

  0
LINE
  5
15C
  8
0
  6
BYBLOCK
 62
     0
 10
-1.0
 20
0.26794919
 30
0.0
 11
0.0
 21
0.0
 31
0.0
  0
LINE
  5
15D
  8
0
  6
BYBLOCK
 62
     0
 10
0.0
 20
0.0
 30
0.0
 11
-1.0
 21
-0.26794919
 31
0.0
  0
LINE
  5
15E
  8
0
  6
BYBLOCK
 62
     0
 10
0.0
 20
0.0
 30
0.0
 11
-1.0
 21
0.0
 31
0.0
  0
ENDBLK
  5
160
  8
0
  0
BLOCK
  8
0
  2
ISO_A2_TITLE_BLOCK
 70
     2
 10
0.0
 20
0.0
 30
0.0
  3
ISO_A2_TITLE_BLOCK
  1

  0
LINE
  5
BDD
  8
FRAME_050
 10
299.5
 20
12.5
 30
0.0
 11
297.0
 21
7.5
 31
0.0
  0
LINE
  5
BDE
  8
FRAME_050
 10
294.5
 20
12.5
 30
0.0
 11
299.5
 21
12.5
 31
0.0
  0
LINE
  5
BDF
  8
FRAME_050
 10
247.0
 20
5.0
 30
0.0
 11
347.0
 21
5.0
 31
0.0
  0
LINE
  5
BE0
  8
FRAME_070
 10
584.0
 20
410.0
 30
0.0
 11
10.0
 21
410.0
 31
0.0
  0
LINE
  5
BE1
  8
FRAME_070
 10
10.0
 20
10.0
 30
0.0
 11
584.0
 21
10.0
 31
0.0
  0
LINE
  5
BE2
  8
FRAME_050
 10
12.5
 20
207.5
 30
0.0
 11
7.5
 21
210.0
 31
0.0
  0
LINE
  5
BE3
  8
FRAME_050
 10
12.5
 20
212.5
 30
0.0
 11
12.5
 21
207.5
 31
0.0
  0
LINE
  5
BE4
  8
FRAME_070
 10
10.0
 20
410.0
 30
0.0
 11
10.0
 21
10.0
 31
0.0
  0
LINE
  5
BE5
  8
FRAME_200
 10
0.0
 20
0.0
 30
0.0
 11
0.0
 21
10.0
 31
0.0
  0
LINE
  5
BE6
  8
FRAME_200
 10
0.0
 20
0.0
 30
0.0
 11
10.0
 21
0.0
 31
0.0
  0
TEXT
  5
BE7
  8
FRAME_050
 10
5.9000000000000004
 20
35.0
 30
0.0
 40
4.0
  1
H
  7
ISO_PROPORTIONAL
 72
     4
 11
7.5
 21
37.0
 31
0.0
  0
LINE
  5
BE8
  8
FRAME_050
 10
10.0
 20
60.0
 30
0.0
 11
5.0
 21
60.0
 31
0.0
  0
LINE
  5
BE9
  8
FRAME_050
 10
81.75
 20
5.0
 30
0.0
 11
81.75
 21
10.0
 31
0.0
  0
TEXT
  5
BEA
  8
FRAME_050
 10
44.874999999999993
 20
5.5
 30
0.0
 40
4.0
  1
1
  7
ISO_PROPORTIONAL
 72
     4
 11
45.875
 21
7.5
 31
0.0
  0
TEXT
  5
BEB
  8
FRAME_050
 10
6.0035533905932743
 20
85.0
 30
0.0
 40
4.0
  1
G
  7
ISO_PROPORTIONAL
 72
     4
 11
7.5
 21
87.0
 31
0.0
  0
LINE
  5
BEC
  8
FRAME_050
 10
10.0
 20
110.0
 30
0.0
 11
5.0
 21
110.0
 31
0.0
  0
TEXT
  5
BED
  8
FRAME_050
 10
6.0999999999999988
 20
135.0
 30
0.0
 40
4.0
  1
F
  7
ISO_PROPORTIONAL
 72
     4
 11
7.5
 21
137.0
 31
0.0
  0
LINE
  5
BEE
  8
FRAME_050
 10
10.0
 20
160.0
 30
0.0
 11
5.0
 21
160.0
 31
0.0
  0
TEXT
  5
BEF
  8
FRAME_050
 10
6.0999999999999988
 20
185.0
 30
0.0
 40
4.0
  1
E
  7
ISO_PROPORTIONAL
 72
     4
 11
7.5
 21
187.0
 31
0.0
  0
LINE
  5
BF0
  8
FRAME_050
 10
153.5
 20
5.0
 30
0.0
 11
153.5
 21
10.0
 31
0.0
  0
TEXT
  5
BF1
  8
FRAME_050
 10
116.1556692913386
 20
5.3996062992125982
 30
0.0
 40
4.0
  1
2
  7
ISO_PROPORTIONAL
 72
     4
 11
117.625
 21
7.5
 31
0.0
  0
TEXT
  5
BF2
  8
FRAME_050
 10
187.89215728752529
 20
5.5828427124746138
 30
0.0
 40
4.0
  1
3
  7
ISO_PROPORTIONAL
 72
     4
 11
189.375
 21
7.5
 31
0.0
  0
LINE
  5
BF3
  8
FRAME_050
 10
225.25
 20
5.0
 30
0.0
 11
225.25
 21
10.0
 31
0.0
  0
LINE
  5
BF4
  8
FRAME_050
 10
297.0
 20
7.5
 30
0.0
 11
294.5
 21
12.5
 31
0.0
  0
LINE
  5
BF5
  8
FRAME_050
 10
287.0
 20
5.0
 30
0.0
 11
287.0
 21
10.0
 31
0.0
  0
LINE
  5
BF6
  8
FRAME_050
 10
277.0
 20
5.0
 30
0.0
 11
277.0
 21
10.0
 31
0.0
  0
LINE
  5
BF7
  8
FRAME_050
 10
267.0
 20
5.0
 30
0.0
 11
267.0
 21
10.0
 31
0.0
  0
LINE
  5
BF8
  8
FRAME_050
 10
257.0
 20
5.0
 30
0.0
 11
257.0
 21
10.0
 31
0.0
  0
LINE
  5
BF9
  8
FRAME_050
 10
247.0
 20
5.0
 30
0.0
 11
247.0
 21
10.0
 31
0.0
  0
LINE
  5
BFA
  8
FRAME_050
 10
297.0
 20
10.0
 30
0.0
 11
297.0
 21
5.0
 31
0.0
  0
LINE
  5
BFB
  8
FRAME_050
 10
297.0
 20
10.0
 30
0.0
 11
297.0
 21
15.0
 31
0.0
  0
LINE
  5
BFC
  8
FRAME_050
 10
5.0
 20
210.0
 30
0.0
 11
15.0
 21
210.0
 31
0.0
  0
LINE
  5
BFD
  8
FRAME_050
 10
7.5
 20
210.0
 30
0.0
 11
12.5
 21
212.5
 31
0.0
  0
TEXT
  5
BFE
  8
FRAME_050
 10
5.7860912703473977
 20
235.0
 30
0.0
 40
4.0
  1
D
  7
ISO_PROPORTIONAL
 72
     4
 11
7.5
 21
237.0
 31
0.0
  0
LINE
  5
BFF
  8
FRAME_050
 10
10.0
 20
260.0
 30
0.0
 11
5.0
 21
260.0
 31
0.0
  0
TEXT
  5
C00
  8
FRAME_050
 10
6.1931980515339466
 20
285.0
 30
0.0
 40
4.0
  1
C
  7
ISO_PROPORTIONAL
 72
     4
 11
7.5
 21
287.0
 31
0.0
  0
LINE
  5
C01
  8
FRAME_050
 10
10.0
 20
310.0
 30
0.0
 11
5.0
 21
310.0
 31
0.0
  0
TEXT
  5
C02
  8
FRAME_050
 10
5.8999999999999959
 20
335.0
 30
0.0
 40
4.0
  1
B
  7
ISO_PROPORTIONAL
 72
     4
 11
7.5
 21
337.0
 31
0.0
  0
LINE
  5
C03
  8
FRAME_050
 10
10.0
 20
360.0
 30
0.0
 11
5.0
 21
360.0
 31
0.0
  0
TEXT
  5
C04
  8
FRAME_050
 10
5.6999999999999993
 20
385.0
 30
0.0
 40
4.0
  1
A
  7
ISO_PROPORTIONAL
 72
     4
 11
7.5
 21
387.0
 31
0.0
  0
LINE
  5
C05
  8
FRAME_200
 10
10.0
 20
420.0
 30
0.0
 11
0.0
 21
420.0
 31
0.0
  0
LINE
  5
C06
  8
FRAME_200
 10
0.0
 20
420.0
 30
0.0
 11
0.0
 21
410.0
 31
0.0
  0
TEXT
  5
C07
  8
FRAME_050
 10
44.874999999999993
 20
410.5
 30
0.0
 40
4.0
  1
1
  7
ISO_PROPORTIONAL
 72
     4
 11
45.875
 21
412.5
 31
0.0
  0
LINE
  5
C08
  8
FRAME_050
 10
81.75
 20
410.0
 30
0.0
 11
81.75
 21
415.0
 31
0.0
  0
TEXT
  5
C09
  8
FRAME_050
 10
116.1556692913386
 20
410.39960629921262
 30
0.0
 40
4.0
  1
2
  7
ISO_PROPORTIONAL
 72
     4
 11
117.625
 21
412.5
 31
0.0
  0
LINE
  5
C0A
  8
FRAME_050
 10
153.5
 20
410.0
 30
0.0
 11
153.5
 21
415.0
 31
0.0
  0
TEXT
  5
C0B
  8
FRAME_050
 10
187.89215728752529
 20
410.58284271247459
 30
0.0
 40
4.0
  1
3
  7
ISO_PROPORTIONAL
 72
     4
 11
189.375
 21
412.5
 31
0.0
  0
LINE
  5
C0C
  8
FRAME_050
 10
297.0
 20
405.0
 30
0.0
 11
297.0
 21
415.0
 31
0.0
  0
LINE
  5
C0D
  8
FRAME_050
 10
225.25
 20
410.0
 30
0.0
 11
225.25
 21
415.0
 31
0.0
  0
TEXT
  5
C0E
  8
FRAME_050
 10
259.52499999999998
 20
410.5
 30
0.0
 40
4.0
  1
4
  7
ISO_PROPORTIONAL
 72
     4
 11
261.125
 21
412.5
 31
0.0
  0
LINE
  5
C0F
  8
FRAME_070
 10
584.0
 20
10.0
 30
0.0
 11
584.0
 21
410.0
 31
0.0
  0
ATTDEF
  5
C10
  8
FRAME_025
 10
473.0
 20
31.75
 30
0.0
 40
2.5
  1
XXX - 00/00/00
  7
ISO_PROPORTIONAL
 11
473.0
 21
33.0
 31
0.0
  3
Approved by - Date
  2
APPROVED_BY_DATE
 70
     8
 74
     2
  0
TEXT
  5
C11
  8
FRAME_025
 10
448.0
 20
41.749999999999993
 30
0.0
 40
2.5
  1
Title/Name, designation, material, dimension etc
  7
ISO_PROPORTIONAL
 11
448.0
 21
43.0
 31
0.0
 73
     2
  0
TEXT
  5
C12
  8
FRAME_025
 10
473.0
 20
35.75
 30
0.0
 40
2.5
  1
Approved by - date
  7
ISO_PROPORTIONAL
 11
473.0
 21
37.0
 31
0.0
 73
     2
  0
LINE
  5
C13
  8
FRAME_070
 10
414.0
 20
46.0
 30
0.0
 11
584.0
 21
46.0
 31
0.0
  0
LINE
  5
C14
  8
FRAME_070
 10
414.0
 20
40.0
 30
0.0
 11
584.0
 21
40.0
 31
0.0
  0
LINE
  5
C15
  8
FRAME_070
 10
414.0
 20
30.0
 30
0.0
 11
584.0
 21
30.0
 31
0.0
  0
LINE
  5
C16
  8
FRAME_050
 10
368.75
 20
5.0
 30
0.0
 11
368.75
 21
10.0
 31
0.0
  0
LINE
  5
C17
  8
FRAME_050
 10
337.0
 20
5.0
 30
0.0
 11
337.0
 21
10.0
 31
0.0
  0
LINE
  5
C18
  8
FRAME_050
 10
327.0
 20
5.0
 30
0.0
 11
327.0
 21
10.0
 31
0.0
  0
LINE
  5
C19
  8
FRAME_050
 10
317.0
 20
5.0
 30
0.0
 11
317.0
 21
10.0
 31
0.0
  0
LINE
  5
C1A
  8
FRAME_050
 10
307.0
 20
5.0
 30
0.0
 11
307.0
 21
10.0
 31
0.0
  0
LINE
  5
C1B
  8
FRAME_050
 10
347.0
 20
5.0
 30
0.0
 11
347.0
 21
10.0
 31
0.0
  0
LINE
  5
C1C
  8
FRAME_050
 10
440.5
 20
5.0
 30
0.0
 11
440.5
 21
10.0
 31
0.0
  0
TEXT
  5
C1D
  8
FRAME_050
 10
403.24547244094481
 20
5.4102362204724406
 30
0.0
 40
4.0
  1
6
  7
ISO_PROPORTIONAL
 72
     4
 11
404.62499999999989
 21
7.5
 31
0.0
  0
TEXT
  5
C1E
  8
FRAME_050
 10
474.97500000000002
 20
5.5
 30
0.0
 40
4.0
  1
7
  7
ISO_PROPORTIONAL
 72
     4
 11
476.37499999999989
 21
7.5
 31
0.0
  0
TEXT
  5
C1F
  8
FRAME_025
 10
431.0
 20
41.749999999999993
 30
0.0
 40
2.5
  1
Quantity
  7
ISO_PROPORTIONAL
 11
431.0
 21
43.0
 31
0.0
 73
     2
  0
TEXT
  5
C20
  8
FRAME_025
 10
416.0
 20
41.749999999999993
 30
0.0
 40
2.5
  1
Itemref
  7
ISO_PROPORTIONAL
 11
416.0
 21
43.0
 31
0.0
 73
     2
  0
LINE
  5
C21
  8
FRAME_070
 10
414.0
 20
40.0
 30
0.0
 11
414.0
 21
46.0
 31
0.0
  0
LINE
  5
C22
  8
FRAME_070
 10
429.0
 20
40.0
 30
0.0
 11
429.0
 21
46.0
 31
0.0
  0
LINE
  5
C23
  8
FRAME_070
 10
414.0
 20
10.0
 30
0.0
 11
414.0
 21
40.0
 31
0.0
  0
ATTDEF
  5
C24
  8
FRAME_025
 10
416.0
 20
31.75
 30
0.0
 40
2.5
  1
XXX
  7
ISO_PROPORTIONAL
 11
416.0
 21
33.0
 31
0.0
  3
Designed by
  2
DESIGNED_BY
 70
     8
 74
     2
  0
TEXT
  5
C25
  8
FRAME_025
 10
416.0
 20
35.75
 30
0.0
 40
2.5
  1
Designed by
  7
ISO_PROPORTIONAL
 11
416.0
 21
37.0
 31
0.0
 73
     2
  0
LINE
  5
C26
  8
FRAME_070
 10
446.0
 20
40.0
 30
0.0
 11
446.0
 21
46.0
 31
0.0
  0
ATTDEF
  5
C27
  8
FRAME_025
 10
448.0
 20
31.75
 30
0.0
 40
2.5
  1
XXX
  7
ISO_PROPORTIONAL
 11
448.0
 21
33.0
 31
0.0
  3
Checked by
  2
CHECKED_BY
 70
     8
 74
     2
  0
TEXT
  5
C28
  8
FRAME_025
 10
448.0
 20
35.75
 30
0.0
 40
2.5
  1
Checked by
  7
ISO_PROPORTIONAL
 11
448.0
 21
37.0
 31
0.0
 73
     2
  0
ATTDEF
  5
C29
  8
FRAME_050
 10
444.74999999999989
 20
17.5
 30
0.0
 40
5.0
  1
XXX
  7
ISO_PROPORTIONAL
 72
     4
 11
451.49999999999989
 21
20.0
 31
0.0
  3
Owner
  2
OWNER
 70
     8
  0
LINE
  5
C2A
  8
FRAME_070
 10
446.0
 20
30.0
 30
0.0
 11
446.0
 21
40.0
 31
0.0
  0
LINE
  5
C2B
  8
FRAME_070
 10
471.0
 20
30.0
 30
0.0
 11
471.0
 21
40.0
 31
0.0
  0
LINE
  5
C2C
  8
FRAME_070
 10
489.0
 20
20.0
 30
0.0
 11
584.0
 21
20.0
 31
0.0
  0
LINE
  5
C2D
  8
FRAME_050
 10
512.25
 20
5.0
 30
0.0
 11
512.25
 21
10.0
 31
0.0
  0
TEXT
  5
C2E
  8
FRAME_050
 10
546.72499999999991
 20
5.5
 30
0.0
 40
4.0
  1
8
  7
ISO_PROPORTIONAL
 72
     4
 11
548.125
 21
7.5
 31
0.0
  0
ATTDEF
  5
C2F
  8
FRAME_050
 10
517.64999999999986
 20
13.5
 30
0.0
 40
3.0
  1
X
  7
ISO_PROPORTIONAL
 72
     4
 11
519.0
 21
15.0
 31
0.0
  3
Drawing number
  2
DRAWING_NUMBER
 70
     8
  0
ATTDEF
  5
C30
  8
FRAME_050
 10
529.75
 20
22.5
 30
0.0
 40
5.0
  1
XXX
  7
ISO_PROPORTIONAL
 72
     4
 11
536.5
 21
25.0
 31
0.0
  3
Title / Name
  2
TITLE
 70
     8
  0
LINE
  5
C31
  8
FRAME_070
 10
489.0
 20
10.0
 30
0.0
 11
489.0
 21
30.0
 31
0.0
  0
ATTDEF
  5
C32
  8
FRAME_025
 10
511.0
 20
31.75
 30
0.0
 40
2.5
  1
XXX
  7
ISO_PROPORTIONAL
 11
511.0
 21
33.0
 31
0.0
  3
Filename
  2
FILENAME
 70
     8
 74
     2
  0
TEXT
  5
C33
  8
FRAME_025
 10
511.0
 20
35.75
 30
0.0
 40
2.5
  1
Filename
  7
ISO_PROPORTIONAL
 11
511.0
 21
37.0
 31
0.0
 73
     2
  0
LINE
  5
C34
  8
FRAME_070
 10
509.0
 20
30.0
 30
0.0
 11
509.0
 21
40.0
 31
0.0
  0
TEXT
  5
C35
  8
FRAME_025
 10
536.0
 20
41.749999999999993
 30
0.0
 40
2.5
  1
Article No./Reference
  7
ISO_PROPORTIONAL
 11
536.0
 21
43.0
 31
0.0
 73
     2
  0
LINE
  5
C36
  8
FRAME_070
 10
534.0
 20
40.0
 30
0.0
 11
534.0
 21
46.0
 31
0.0
  0
ATTDEF
  5
C37
  8
FRAME_025
 10
551.0
 20
11.75
 30
0.0
 40
2.5
  1
0
  7
ISO_PROPORTIONAL
 11
551.0
 21
13.0
 31
0.0
  3
Edition
  2
EDITION
 70
     8
 74
     2
  0
TEXT
  5
C38
  8
FRAME_025
 10
551.0
 20
15.75
 30
0.0
 40
2.5
  1
Edition
  7
ISO_PROPORTIONAL
 11
551.0
 21
17.0
 31
0.0
 73
     2
  0
LINE
  5
C39
  8
FRAME_070
 10
549.0
 20
10.0
 30
0.0
 11
549.0
 21
20.0
 31
0.0
  0
ATTDEF
  5
C3A
  8
FRAME_025
 10
536.0
 20
31.75
 30
0.0
 40
2.5
  1
00/00/00
  7
ISO_PROPORTIONAL
 11
536.0
 21
33.0
 31
0.0
  3
Date
  2
DATE
 70
     8
 74
     2
  0
TEXT
  5
C3B
  8
FRAME_025
 10
536.0
 20
35.75
 30
0.0
 40
2.5
  1
Date
  7
ISO_PROPORTIONAL
 11
536.0
 21
37.0
 31
0.0
 73
     2
  0
LINE
  5
C3C
  8
FRAME_070
 10
534.0
 20
30.0
 30
0.0
 11
534.0
 21
40.0
 31
0.0
  0
ATTDEF
  5
C3D
  8
FRAME_025
 10
566.0
 20
11.75
 30
0.0
 40
2.5
  1
1/1
  7
ISO_PROPORTIONAL
 11
566.0
 21
13.0
 31
0.0
  3
Sheet
  2
SHEET
 70
     8
 74
     2
  0
TEXT
  5
C3E
  8
FRAME_025
 10
566.0
 20
15.75
 30
0.0
 40
2.5
  1
Sheet
  7
ISO_PROPORTIONAL
 11
566.0
 21
17.0
 31
0.0
 73
     2
  0
LINE
  5
C3F
  8
FRAME_070
 10
564.0
 20
10.0
 30
0.0
 11
564.0
 21
20.0
 31
0.0
  0
ATTDEF
  5
C40
  8
FRAME_025
 10
566.0
 20
31.75
 30
0.0
 40
2.5
  1
1:1
  7
ISO_PROPORTIONAL
 11
566.0
 21
33.0
 31
0.0
  3
Scale
  2
SCALE
 70
     8
 74
     2
  0
TEXT
  5
C41
  8
FRAME_025
 10
566.0
 20
35.75
 30
0.0
 40
2.5
  1
Scale
  7
ISO_PROPORTIONAL
 11
566.0
 21
37.0
 31
0.0
 73
     2
  0
LINE
  5
C42
  8
FRAME_070
 10
564.0
 20
30.0
 30
0.0
 11
564.0
 21
40.0
 31
0.0
  0
LINE
  5
C43
  8
FRAME_200
 10
594.0
 20
0.0
 30
0.0
 11
594.0
 21
10.0
 31
0.0
  0
LINE
  5
C44
  8
FRAME_200
 10
594.0
 20
0.0
 30
0.0
 11
584.0
 21
0.0
 31
0.0
  0
TEXT
  5
C45
  8
FRAME_050
 10
584.89999999999998
 20
35.0
 30
0.0
 40
4.0
  1
H
  7
ISO_PROPORTIONAL
 72
     4
 11
586.5
 21
37.0
 31
0.0
  0
LINE
  5
C46
  8
FRAME_050
 10
589.0
 20
60.0
 30
0.0
 11
584.0
 21
60.0
 31
0.0
  0
TEXT
  5
C47
  8
FRAME_050
 10
585.0035533905932
 20
85.0
 30
0.0
 40
4.0
  1
G
  7
ISO_PROPORTIONAL
 72
     4
 11
586.5
 21
87.0
 31
0.0
  0
LINE
  5
C48
  8
FRAME_050
 10
589.0
 20
110.0
 30
0.0
 11
584.0
 21
110.0
 31
0.0
  0
TEXT
  5
C49
  8
FRAME_050
 10
585.09999999999991
 20
135.0
 30
0.0
 40
4.0
  1
F
  7
ISO_PROPORTIONAL
 72
     4
 11
586.5
 21
137.0
 31
0.0
  0
LINE
  5
C4A
  8
FRAME_050
 10
589.0
 20
160.0
 30
0.0
 11
584.0
 21
160.0
 31
0.0
  0
TEXT
  5
C4B
  8
FRAME_050
 10
585.09999999999991
 20
185.0
 30
0.0
 40
4.0
  1
E
  7
ISO_PROPORTIONAL
 72
     4
 11
586.5
 21
187.0
 31
0.0
  0
LINE
  5
C4C
  8
FRAME_070
 10
414.0
 20
404.0
 30
0.0
 11
584.0
 21
404.0
 31
0.0
  0
TEXT
  5
C4D
  8
FRAME_050
 10
331.39215728752538
 20
410.58284271247459
 30
0.0
 40
4.0
  1
5
  7
ISO_PROPORTIONAL
 72
     4
 11
332.875
 21
412.5
 31
0.0
  0
LINE
  5
C4E
  8
FRAME_050
 10
368.75
 20
410.0
 30
0.0
 11
368.75
 21
415.0
 31
0.0
  0
TEXT
  5
C4F
  8
FRAME_025
 10
428.0
 20
405.75
 30
0.0
 40
2.5
  1
Revision note
  7
ISO_PROPORTIONAL
 11
428.0
 21
407.0
 31
0.0
 73
     2
  0
TEXT
  5
C50
  8
FRAME_025
 10
416.0
 20
405.75
 30
0.0
 40
2.5
  1
RevNo
  7
ISO_PROPORTIONAL
 11
416.0
 21
407.0
 31
0.0
 73
     2
  0
LINE
  5
C51
  8
FRAME_070
 10
426.0
 20
404.0
 30
0.0
 11
426.0
 21
410.0
 31
0.0
  0
LINE
  5
C52
  8
FRAME_070
 10
414.0
 20
404.0
 30
0.0
 11
414.0
 21
410.0
 31
0.0
  0
TEXT
  5
C53
  8
FRAME_050
 10
403.24547244094481
 20
410.41023622047243
 30
0.0
 40
4.0
  1
6
  7
ISO_PROPORTIONAL
 72
     4
 11
404.62499999999989
 21
412.5
 31
0.0
  0
LINE
  5
C54
  8
FRAME_050
 10
440.5
 20
410.0
 30
0.0
 11
440.5
 21
415.0
 31
0.0
  0
TEXT
  5
C55
  8
FRAME_050
 10
474.97500000000002
 20
410.5
 30
0.0
 40
4.0
  1
7
  7
ISO_PROPORTIONAL
 72
     4
 11
476.37499999999989
 21
412.5
 31
0.0
  0
LINE
  5
C56
  8
FRAME_050
 10
579.0
 20
210.0
 30
0.0
 11
589.0
 21
210.0
 31
0.0
  0
TEXT
  5
C57
  8
FRAME_050
 10
584.78609127034736
 20
235.0
 30
0.0
 40
4.0
  1
D
  7
ISO_PROPORTIONAL
 72
     4
 11
586.5
 21
237.0
 31
0.0
  0
LINE
  5
C58
  8
FRAME_050
 10
589.0
 20
260.0
 30
0.0
 11
584.0
 21
260.0
 31
0.0
  0
TEXT
  5
C59
  8
FRAME_050
 10
585.19319805153395
 20
285.0
 30
0.0
 40
4.0
  1
C
  7
ISO_PROPORTIONAL
 72
     4
 11
586.5
 21
287.0
 31
0.0
  0
LINE
  5
C5A
  8
FRAME_050
 10
589.0
 20
310.0
 30
0.0
 11
584.0
 21
310.0
 31
0.0
  0
TEXT
  5
C5B
  8
FRAME_050
 10
584.89999999999998
 20
335.0
 30
0.0
 40
4.0
  1
B
  7
ISO_PROPORTIONAL
 72
     4
 11
586.5
 21
337.0
 31
0.0
  0
TEXT
  5
C5C
  8
FRAME_025
 10
571.08299391850551
 20
405.75
 30
0.0
 40
2.5
  1
Checked
  7
ISO_PROPORTIONAL
 11
571.08299391850551
 21
407.0
 31
0.0
 73
     2
  0
TEXT
  5
C5D
  8
FRAME_025
 10
555.36099797283532
 20
405.75
 30
0.0
 40
2.5
  1
Signature
  7
ISO_PROPORTIONAL
 11
555.36099797283532
 21
407.0
 31
0.0
 73
     2
  0
TEXT
  5
C5E
  8
FRAME_025
 10
537.0
 20
405.75
 30
0.0
 40
2.5
  1
Date
  7
ISO_PROPORTIONAL
 11
537.0
 21
407.0
 31
0.0
 73
     2
  0
LINE
  5
C5F
  8
FRAME_070
 10
570.0
 20
404.0
 30
0.0
 11
570.0
 21
410.0
 31
0.0
  0
LINE
  5
C60
  8
FRAME_070
 10
555.0
 20
404.0
 30
0.0
 11
555.0
 21
410.0
 31
0.0
  0
LINE
  5
C61
  8
FRAME_070
 10
535.0
 20
404.0
 30
0.0
 11
535.0
 21
410.0
 31
0.0
  0
LINE
  5
C62
  8
FRAME_050
 10
512.25
 20
410.0
 30
0.0
 11
512.25
 21
415.0
 31
0.0
  0
TEXT
  5
C63
  8
FRAME_050
 10
546.72499999999991
 20
410.5
 30
0.0
 40
4.0
  1
8
  7
ISO_PROPORTIONAL
 72
     4
 11
548.125
 21
412.5
 31
0.0
  0
LINE
  5
C64
  8
FRAME_050
 10
589.0
 20
360.0
 30
0.0
 11
584.0
 21
360.0
 31
0.0
  0
TEXT
  5
C65
  8
FRAME_050
 10
584.70000000000005
 20
385.0
 30
0.0
 40
4.0
  1
A
  7
ISO_PROPORTIONAL
 72
     4
 11
586.5
 21
387.0
 31
0.0
  0
LINE
  5
C66
  8
FRAME_200
 10
594.0
 20
420.0
 30
0.0
 11
584.0
 21
420.0
 31
0.0
  0
LINE
  5
C67
  8
FRAME_200
 10
594.0
 20
410.0
 30
0.0
 11
594.0
 21
420.0
 31
0.0
  0
ENDBLK
  5
C69
  8
0
  0
BLOCK
  8
0
  2
WOBB001END
 70
     0
 10
0.0
 20
0.0
 30
0.0
  3
WOBB001END
  1

  0
LINE
  5
4D66
  8
0
  6
CONTINUOUS
 10
0.0
 20
0.0
 30
0.0
 11
0.8749999999999998
 21
0.0
 31
0.0
  0
ARC
  5
4D67
  8
0
  6
CONTINUOUS
 10
0.0331648379439287
 20
-0.5087238935900232
 30
0.0
 40
0.8790130605592325
 50
284.06490243660443
 51
312.19222981924361
  0
ARC
  5
4D68
  8
0
  6
CONTINUOUS
 10
0.2841534338796767
 20
-1.510548310625538
 30
0.0
 40
0.1537731892806598
 50
104.0649024366044
 51
179.4721730735024
  0
LINE
  5
4D69
  8
0
  6
CONTINUOUS
 10
0.0
 20
0.0
 30
0.0
 11
-0.0000000000000003
 21
-1.7501564476661919
 31
0.0
  0
ARC
  5
4D6A
  8
0
  6
CONTINUOUS
 10
0.1404622019506122
 20
-1.6303137183546199
 30
0.0
 40
0.1198427293115722
 50
275.0
 51
85.000000000000057
  0
LINE
  5
4D6B
  8
0
  6
CONTINUOUS
 10
-0.0000000000000003
 20
-1.7501564476661919
 30
0.0
 11
0.1456946485130855
 21
-1.7501564476661919
 31
0.0
  0
LINE
  5
4D6C
  8
0
  6
CONTINUOUS
 10
0.1377603739254348
 20
-1.7508506067459131
 30
0.0
 11
0.150907184036669
 21
-1.749700409899652
 31
0.0
  0
LINE
  5
4D6D
  8
0
  6
CONTINUOUS
 10
0.1303867696719884
 20
-1.5091317231818231
 30
0.0
 11
0.1509071840366689
 21
-1.5109270268095869
 31
0.0
  0
LINE
  5
4D6E
  8
0
  6
CONTINUOUS
 10
0.8749999999999998
 20
0.0
 30
0.0
 11
0.8749999999999996
 21
-0.8649327026588228
 31
0.0
  0
LINE
  5
4D6F
  8
0
  6
CONTINUOUS
 10
0.727014513830997
 20
-0.8726882933550612
 30
0.0
 11
0.727014513830997
 21
-0.9264923397184784
 31
0.0
  0
ARC
  5
4D70
  8
0
  6
CONTINUOUS
 10
0.41187090827646
 20
-0.9264923397184784
 30
0.0
 40
0.315143605554537
 50
312.19222981924361
 51
0.0
  0
LINE
  5
4D71
  8
0
  6
CONTINUOUS
 10
0.727014513830997
 20
-0.8726882933550612
 30
0.0
 11
0.8749999999999996
 21
-0.8649327026588228
 31
0.0
  0
ENDBLK
  5
4D72
  8
0
  0
BLOCK
  8
0
  2
A$C0A61123B
 70
     0
 10
0.0
 20
0.0
 30
0.0
  3
A$C0A61123B
  1

  0
LINE
  5
C0AD
  8
PROF
  6
CONTINUOUS
 10
4.9012016798694162
 20
13.325025853350891
 30
0.0000000000000002
 11
4.9012016798694162
 21
12.88585218805485
 31
0.0000000000000003
  0
INSERT
  5
C0AE
  8
0
  2
*U20
 10
0.0
 20
0.0
 30
0.0
  0
LINE
  5
C0AF
  8
PROF
 10
4.5198575031869259
 20
12.72227734589444
 30
0.0000000000000001
 11
4.5198575031869259
 21
12.88585218805485
 31
0.0000000000000001
  0
LINE
  5
C0B0
  8
PROF
  6
CONTINUOUS
 10
3.6306271195888371
 20
13.325025853350891
 30
0.0000000000000002
 11
4.9012016798694162
 21
13.325025853350891
 31
0.0000000000000002
  0
LINE
  5
C0B1
  8
PROF
 10
1.9750295148747341
 20
10.37671325491794
 30
0.0000000000000002
 11
1.9750295148747341
 21
10.11391186758919
 31
0.0000000000000002
  0
LINE
  5
C0B2
  8
PROF
 10
1.607967335755631
 20
10.11391186758919
 30
0.0000000000000001
 11
1.9750295148747341
 21
10.11391186758919
 31
0.0000000000000001
  0
LINE
  5
C0B3
  8
PROF
 10
1.9750295148747341
 20
10.11391186758919
 30
0.0000000000000001
 11
1.944958486898144
 21
10.11391186758919
 31
0.0000000000000001
  0
LINE
  5
C0B4
  8
PROF
 10
1.9750295148747341
 20
10.11391186758919
 30
0.0000000000000001
 11
1.944958486898144
 21
10.11391186758919
 31
0.0000000000000001
  0
LINE
  5
C0B5
  8
PROF
 10
0.3222605517169654
 20
7.5247473351056442
 30
-0.0000000000000002
 11
-0.0000008570117416
 21
7.5247473351056442
 31
0.0
  0
LINE
  5
C0B6
  8
PROF
 10
-0.0000008570117416
 20
7.5247473351056442
 30
0.0
 11
-0.0000008570117416
 21
9.1943336957369866
 31
0.0
  0
POLYLINE
  5
C0B7
  8
PROF
 66
     1
 10
0.0
 20
0.0
 30
0.0000000000000001
 70
     4
 75
     6
  0
VERTEX
  5
C0B8
  8
PROF
 10
1.607967335755631
 20
10.11391186758919
 30
0.0000000000000001
 70
    16
  0
VERTEX
  5
C0B9
  8
PROF
 10
1.607967335755631
 20
10.11391186758919
 30
0.0000000000000001
 70
     8
  0
VERTEX
  5
C0BA
  8
PROF
 10
1.646813232648582
 20
10.02198069336111
 30
0.0000000000000001
 70
     8
  0
VERTEX
  5
C0BB
  8
PROF
 10
1.67335966680929
 20
9.9344134163010267
 30
0.0000000000000001
 70
     8
  0
VERTEX
  5
C0BC
  8
PROF
 10
1.689008640046324
 20
9.8512576644480987
 30
0.0000000000000001
 70
     8
  0
VERTEX
  5
C0BD
  8
PROF
 10
1.695162154168258
 20
9.7725610658417281
 30
0.0000000000000001
 70
     8
  0
VERTEX
  5
C0BE
  8
PROF
 10
1.6932222109836059
 20
9.6983712485214255
 30
0.0000000000000001
 70
     8
  0
VERTEX
  5
C0BF
  8
PROF
 10
1.6845908123009961
 20
9.6287358405263603
 30
0.0000000000000001
 70
     8
  0
VERTEX
  5
C0C0
  8
PROF
 10
1.6706699599288859
 20
9.5637024698960431
 30
0.0000000000000001
 70
     8
  0
VERTEX
  5
C0C1
  8
PROF
 10
1.6528616556759621
 20
9.503318764669757
 30
0.0000000000000001
 70
     8
  0
VERTEX
  5
C0C2
  8
PROF
 10
1.6323562992730549
 20
9.4475843259650674
 30
0.0000000000000001
 70
     8
  0
VERTEX
  5
C0C3
  8
PROF
 10
1.609497882140658
 20
9.3963066472123273
 30
0.0000000000000001
 70
     8
  0
VERTEX
  5
C0C4
  8
PROF
 10
1.584418793621637
 20
9.3492451949202842
 30
0.0000000000000001
 70
     8
  0
VERTEX
  5
C0C5
  8
PROF
 10
1.557251423058744
 20
9.3061594355972375
 30
0.0000000000000001
 70
     8
  0
VERTEX
  5
C0C6
  8
PROF
 10
1.5281281597949601
 20
9.2668088357519292
 30
0.0000000000000001
 70
     8
  0
VERTEX
  5
C0C7
  8
PROF
 10
1.4971813931729789
 20
9.2309528618930017
 30
0.0000000000000001
 70
     8
  0
VERTEX
  5
C0C8
  8
PROF
 10
1.464543512535726
 20
9.1983509805288577
 30
0.0000000000000001
 70
     8
  0
VERTEX
  5
C0C9
  8
PROF
 10
1.4303469072260091
 20
9.1687626581682462
 30
0.0000000000000001
 70
     8
  0
VERTEX
  5
C0CA
  8
PROF
 10
1.3947360332574019
 20
9.1419547918675335
 30
0.0000000000000001
 70
     8
  0
VERTEX
  5
C0CB
  8
PROF
 10
1.3579036133264131
 20
9.1177240008747731
 30
0.0000000000000001
 70
     8
  0
VERTEX
  5
C0CC
  8
PROF
 10
1.3200544368004321
 20
9.0958743349860924
 30
0.0000000000000001
 70
     8
  0
VERTEX
  5
C0CD
  8
PROF
 10
1.281393293046676
 20
9.0762098439975034
 30
0.0000000000000001
 70
     8
  0
VERTEX
  5
C0CE
  8
PROF
 10
1.242124971432417
 20
9.0585345777049042
 30
0.0000000000000001
 70
     8
  0
VERTEX
  5
C0CF
  8
PROF
 10
1.2024542613249869
 20
9.0426525859044204
 30
0.0000000000000001
 70
     8
  0
VERTEX
  5
C0D0
  8
PROF
 10
1.1625859520916599
 20
9.0283679183919503
 30
0.0000000000000001
 70
     8
  0
VERTEX
  5
C0D1
  8
PROF
 10
1.1227248330997091
 20
9.0154846249635057
 30
0.0000000000000001
 70
     8
  0
VERTEX
  5
C0D2
  8
PROF
 10
1.0829726247361
 20
9.0034643862466055
 30
0.0000000000000001
 70
     8
  0
VERTEX
  5
C0D3
  8
PROF
 10
1.043018771466222
 20
8.9903994061946833
 30
0.0000000000000001
 70
     8
  0
VERTEX
  5
C0D4
  8
PROF
 10
1.002449648775211
 20
8.9740395195925657
 30
0.0000000000000001
 70
     8
  0
VERTEX
  5
C0D5
  8
PROF
 10
0.9608516321480919
 20
8.9521345612251935
 30
0.0000000000000001
 70
     8
  0
VERTEX
  5
C0D6
  8
PROF
 10
0.9178110970699435
 20
8.9224343658775052
 30
0.0000000000000001
 70
     8
  0
VERTEX
  5
C0D7
  8
PROF
 10
0.8729144190259034
 20
8.8826887683343312
 30
0.0000000000000001
 70
     8
  0
VERTEX
  5
C0D8
  8
PROF
 10
0.8257479735009951
 20
8.8306476033806121
 30
0.0000000000000001
 70
     8
  0
VERTEX
  5
C0D9
  8
PROF
 10
0.7758981359802988
 20
8.764060705801171
 30
0.0000000000000001
 70
     8
  0
VERTEX
  5
C0DA
  8
PROF
 10
1.729201901609656
 20
9.8629858761255491
 30
0.0000000000000001
 70
    16
  0
VERTEX
  5
C0DB
  8
PROF
 10
1.6793731231140889
 20
9.4532143012734196
 30
0.0000000000000001
 70
    16
  0
VERTEX
  5
C0DC
  8
PROF
 10
1.4455611507419801
 20
9.1391837193732481
 30
0.0000000000000001
 70
    16
  0
VERTEX
  5
C0DD
  8
PROF
 10
1.120463717273821
 20
9.0026267702428413
 30
0.0000000000000001
 70
    16
  0
VERTEX
  5
C0DE
  8
PROF
 10
0.9127765582653638
 20
8.9630202230383702
 30
0.0000000000000001
 70
    16
  0
VERTEX
  5
C0DF
  8
PROF
 10
0.7758981359802988
 20
8.764060705801171
 30
0.0000000000000001
 70
    16
  0
SEQEND
  5
C0E0
  8
PROF
  0
ARC
  5
C0E1
  8
PROF
 10
0.733429816733235
 20
8.4849506952165257
 30
0.0000000000000001
 40
0.2823224329524727
 50
269.73652020831901
 51
81.348449993176914
  0
LINE
  5
C0E2
  8
PROF
  6
CONTINUOUS
 10
-0.0000008570117416
 20
9.1943336957369866
 30
-0.0000000000000001
 11
3.6306271195888371
 21
13.325025853350891
 31
0.0000000000000002
  0
POLYLINE
  5
C0E3
  8
PROF
 66
     1
 10
0.0
 20
0.0
 30
0.0000000000000001
 70
     4
 75
     6
  0
VERTEX
  5
C0E4
  8
PROF
 10
4.5198575031869259
 20
12.72227734589444
 30
0.0000000000000001
 70
    16
  0
VERTEX
  5
C0E5
  8
PROF
 10
4.5198575031869259
 20
12.72227734589444
 30
0.0000000000000001
 70
     8
  0
VERTEX
  5
C0E6
  8
PROF
 10
4.4467035366886298
 20
12.741128108778071
 30
0.0000000000000001
 70
     8
  0
VERTEX
  5
C0E7
  8
PROF
 10
4.3786645761268801
 20
12.754675269913941
 30
0.0000000000000001
 70
     8
  0
VERTEX
  5
C0E8
  8
PROF
 10
4.3154364111440477
 20
12.76334314092332
 30
0.0000000000000001
 70
     8
  0
VERTEX
  5
C0E9
  8
PROF
 10
4.256714831382566
 20
12.76755603342724
 30
0.0000000000000001
 70
     8
  0
VERTEX
  5
C0EA
  8
PROF
 10
4.2021956264849791
 20
12.76773825904672
 30
0.0000000000000001
 70
     8
  0
VERTEX
  5
C0EB
  8
PROF
 10
4.1515745860935453
 20
12.764314129403139
 30
0.0000000000000001
 70
     8
  0
VERTEX
  5
C0EC
  8
PROF
 10
4.1045474998508658
 20
12.75770795611743
 30
0.0000000000000001
 70
     8
  0
VERTEX
  5
C0ED
  8
PROF
 10
4.0608101573993158
 20
12.748344050810831
 30
0.0000000000000001
 70
     8
  0
VERTEX
  5
C0EE
  8
PROF
 10
4.0200583483813261
 20
12.736646725104491
 30
0.0000000000000001
 70
     8
  0
VERTEX
  5
C0EF
  8
PROF
 10
3.9819878624393819
 20
12.72304029061945
 30
0.0000000000000001
 70
     8
  0
VERTEX
  5
C0F0
  8
PROF
 10
3.946294489215858
 20
12.707949058976959
 30
0.0000000000000001
 70
     8
  0
VERTEX
  5
C0F1
  8
PROF
 10
3.9126740183532429
 20
12.691797341798059
 30
0.0000000000000001
 70
     8
  0
VERTEX
  5
C0F2
  8
PROF
 10
3.8808638350742508
 20
12.67494295718654
 30
0.0000000000000001
 70
     8
  0
VERTEX
  5
C0F3
  8
PROF
 10
3.850767706922738
 20
12.65747774917668
 30
0.0000000000000001
 70
     8
  0
VERTEX
  5
C0F4
  8
PROF
 10
3.8223309970228452
 20
12.639427068285499
 30
0.0000000000000001
 70
     8
  0
VERTEX
  5
C0F5
  8
PROF
 10
3.7954990684987129
 20
12.62081626503004
 30
0.0000000000000001
 70
     8
  0
VERTEX
  5
C0F6
  8
PROF
 10
3.7702172844744828
 20
12.601670689926999
 30
0.0000000000000001
 70
     8
  0
VERTEX
  5
C0F7
  8
PROF
 10
3.746431008074353
 20
12.58201569349364
 30
0.0000000000000001
 70
     8
  0
VERTEX
  5
C0F8
  8
PROF
 10
3.7240856024224618
 20
12.56187662624666
 30
0.0000000000000001
 70
     8
  0
VERTEX
  5
C0F9
  8
PROF
 10
3.7031264306428961
 20
12.541278838703191
 30
0.0000000000000001
 70
     8
  0
VERTEX
  5
C0FA
  8
PROF
 10
3.6834988558599089
 20
12.520247681380051
 30
0.0000000000000001
 70
     8
  0
VERTEX
  5
C0FB
  8
PROF
 10
3.665148241197528
 20
12.49880850479428
 30
0.0000000000000001
 70
     8
  0
VERTEX
  5
C0FC
  8
PROF
 10
3.6480199497799499
 20
12.47698665946279
 30
0.0000000000000001
 70
     8
  0
VERTEX
  5
C0FD
  8
PROF
 10
3.6320593447313172
 20
12.45480749590263
 30
0.0000000000000001
 70
     8
  0
VERTEX
  5
C0FE
  8
PROF
 10
3.6171895848866589
 20
12.43223790353807
 30
0.0000000000000001
 70
     8
  0
VERTEX
  5
C0FF
  8
PROF
 10
3.6032450119242858
 20
12.40901092742285
 30
0.0000000000000001
 70
     8
  0
VERTEX
  5
C100
  8
PROF
 10
3.590037763233453
 20
12.38480115151844
 30
0.0000000000000001
 70
     8
  0
VERTEX
  5
C101
  8
PROF
 10
3.5773799762033032
 20
12.35928315978594
 30
0.0000000000000001
 70
     8
  0
VERTEX
  5
C102
  8
PROF
 10
3.5650837882230908
 20
12.33213153618658
 30
0.0000000000000001
 70
     8
  0
VERTEX
  5
C103
  8
PROF
 10
3.5529613366819599
 20
12.303020864681571
 30
0.0000000000000001
 70
     8
  0
VERTEX
  5
C104
  8
PROF
 10
3.540824758969165
 20
12.271625729232371
 30
0.0000000000000001
 70
     8
  0
VERTEX
  5
C105
  8
PROF
 10
3.5284861924738489
 20
12.23762071379997
 30
0.0000000000000001
 70
     8
  0
VERTEX
  5
C106
  8
PROF
 10
3.5157577745852668
 20
12.200680402345711
 30
0.0000000000000001
 70
     8
  0
VERTEX
  5
C107
  8
PROF
 10
3.5024516426926189
 20
12.16047937883093
 30
0.0000000000000001
 70
     8
  0
VERTEX
  5
C108
  8
PROF
 10
3.4883799341851041
 20
12.116692227216619
 30
0.0000000000000001
 70
     8
  0
VERTEX
  5
C109
  8
PROF
 10
3.4733547864519201
 20
12.06899353146423
 30
0.0000000000000001
 70
     8
  0
VERTEX
  5
C10A
  8
PROF
 10
3.45723654619428
 20
12.0172095445447
 30
0.0000000000000001
 70
     8
  0
VERTEX
  5
C10B
  8
PROF
 10
3.4400783973613889
 20
11.961773195467799
 30
0.0000000000000001
 70
     8
  0
VERTEX
  5
C10C
  8
PROF
 10
3.421981733214579
 20
11.90326908225302
 30
0.0000000000000001
 70
     8
  0
VERTEX
  5
C10D
  8
PROF
 10
3.4030479470150108
 20
11.842281802919951
 30
0.0000000000000001
 70
     8
  0
VERTEX
  5
C10E
  8
PROF
 10
3.383378432024017
 20
11.779395955487979
 30
0.0000000000000001
 70
     8
  0
VERTEX
  5
C10F
  8
PROF
 10
3.3630745815028709
 20
11.715196137976809
 30
0.0000000000000001
 70
     8
  0
VERTEX
  5
C110
  8
PROF
 10
3.3422377887127359
 20
11.650266948405831
 30
0.0000000000000001
 70
     8
  0
VERTEX
  5
C111
  8
PROF
 10
3.320969446915
 20
11.58519298479461
 30
0.0000000000000001
 70
     8
  0
VERTEX
  5
C112
  8
PROF
 10
3.2993709493707679
 20
11.520558845162549
 30
0.0000000000000001
 70
     8
  0
VERTEX
  5
C113
  8
PROF
 10
3.277543689341428
 20
11.456949127529469
 30
0.0000000000000001
 70
     8
  0
VERTEX
  5
C114
  8
PROF
 10
3.2555890600881412
 20
11.3949484299145
 30
0.0000000000000001
 70
     8
  0
VERTEX
  5
C115
  8
PROF
 10
3.233608454872182
 20
11.335141350337491
 30
0.0000000000000001
 70
     8
  0
VERTEX
  5
C116
  8
PROF
 10
3.2116715641212181
 20
11.27799544797778
 30
0.0000000000000001
 70
     8
  0
VERTEX
  5
C117
  8
PROF
 10
3.189721266927847
 20
11.22351012665467
 30
0.0000000000000001
 70
     8
  0
VERTEX
  5
C118
  8
PROF
 10
3.1676687395512881
 20
11.17156775134765
 30
0.0000000000000001
 70
     8
  0
VERTEX
  5
C119
  8
PROF
 10
3.1454251582505321
 20
11.12205068703588
 30
0.0000000000000001
 70
     8
  0
VERTEX
  5
C11A
  8
PROF
 10
3.122901699284625
 20
11.07484129869874
 30
0.0000000000000001
 70
     8
  0
VERTEX
  5
C11B
  8
PROF
 10
3.1000095389127291
 20
11.02982195131551
 30
0.0000000000000001
 70
     8
  0
VERTEX
  5
C11C
  8
PROF
 10
3.0766598533938909
 20
10.986875009865679
 30
0.0000000000000001
 70
     8
  0
VERTEX
  5
C11D
  8
PROF
 10
3.0527638189871591
 20
10.9458828393283
 30
0.0000000000000001
 70
     8
  0
VERTEX
  5
C11E
  8
PROF
 10
3.0282326119516361
 20
10.90672780468298
 30
0.0000000000000001
 70
     8
  0
VERTEX
  5
C11F
  8
PROF
 10
3.002977408546371
 20
10.869292270908771
 30
0.0000000000000001
 70
     8
  0
VERTEX
  5
C120
  8
PROF
 10
2.9769093850304098
 20
10.833458602985161
 30
0.0000000000000001
 70
     8
  0
VERTEX
  5
C121
  8
PROF
 10
2.9499397176628568
 20
10.799109165891419
 30
0.0000000000000001
 70
     8
  0
VERTEX
  5
C122
  8
PROF
 10
2.9220006098404379
 20
10.76614363969508
 30
0.0000000000000001
 70
     8
  0
VERTEX
  5
C123
  8
PROF
 10
2.8931083735103011
 20
10.7345309648158
 30
0.0000000000000001
 70
     8
  0
VERTEX
  5
C124
  8
PROF
 10
2.8633003477572738
 20
10.70425739676193
 30
0.0000000000000001
 70
     8
  0
VERTEX
  5
C125
  8
PROF
 10
2.8326138716660689
 20
10.67530919104115
 30
0.0000000000000001
 70
     8
  0
VERTEX
  5
C126
  8
PROF
 10
2.8010862843216269
 20
10.647672603161711
 30
0.0000000000000001
 70
     8
  0
VERTEX
  5
C127
  8
PROF
 10
2.7687549248087171
 20
10.62133388863162
 30
0.0000000000000001
 70
     8
  0
VERTEX
  5
C128
  8
PROF
 10
2.735657132212054
 20
10.5962793029588
 30
0.0000000000000001
 70
     8
  0
VERTEX
  5
C129
  8
PROF
 10
2.7018302456165202
 20
10.572495101651381
 30
0.0000000000000001
 70
     8
  0
VERTEX
  5
C12A
  8
PROF
 10
2.6673116041068852
 20
10.54996754021726
 30
0.0000000000000001
 70
     8
  0
VERTEX
  5
C12B
  8
PROF
 10
2.6321385467680321
 20
10.528682874164581
 30
0.0000000000000001
 70
     8
  0
VERTEX
  5
C12C
  8
PROF
 10
2.5963484126846188
 20
10.508627359001251
 30
0.0000000000000001
 70
     8
  0
VERTEX
  5
C12D
  8
PROF
 10
2.5599785409415849
 20
10.489787250235279
 30
0.0000000000000001
 70
     8
  0
VERTEX
  5
C12E
  8
PROF
 10
2.522998630314361
 20
10.472162234281081
 30
0.0000000000000001
 70
     8
  0
VERTEX
  5
C12F
  8
PROF
 10
2.4851078183409072
 20
10.455805721177621
 30
0.0000000000000001
 70
     8
  0
VERTEX
  5
C130
  8
PROF
 10
2.4459376022498982
 20
10.44078455187036
 30
0.0000000000000001
 70
     8
  0
VERTEX
  5
C131
  8
PROF
 10
2.4051194792701258
 20
10.42716556730465
 30
0.0000000000000001
 70
     8
  0
VERTEX
  5
C132
  8
PROF
 10
2.3622849466301541
 20
10.415015608425851
 30
0.0000000000000001
 70
     8
  0
VERTEX
  5
C133
  8
PROF
 10
2.3170655015587149
 20
10.40440151617929
 30
0.0000000000000001
 70
     8
  0
VERTEX
  5
C134
  8
PROF
 10
2.2690926412844301
 20
10.395390131510339
 30
0.0000000000000001
 70
     8
  0
VERTEX
  5
C135
  8
PROF
 10
2.2179978630360888
 20
10.388048295364451
 30
0.0000000000000001
 70
     8
  0
VERTEX
  5
C136
  8
PROF
 10
2.1634126640422551
 20
10.38244284868688
 30
0.0000000000000001
 70
     8
  0
VERTEX
  5
C137
  8
PROF
 10
2.104968541531604
 20
10.37864063242295
 30
0.0000000000000001
 70
     8
  0
VERTEX
  5
C138
  8
PROF
 10
2.0422969927328718
 20
10.37670848751816
 30
0.0000000000000001
 70
     8
  0
VERTEX
  5
C139
  8
PROF
 10
1.9750295148747341
 20
10.37671325491794
 30
0.0000000000000001
 70
     8
  0
VERTEX
  5
C13A
  8
PROF
 10
4.2166060115107484
 20
12.80885334975255
 30
0.0000000000000001
 70
    16
  0
VERTEX
  5
C13B
  8
PROF
 10
3.8702254102732918
 20
12.707065515763929
 30
0.0000000000000001
 70
    16
  0
VERTEX
  5
C13C
  8
PROF
 10
3.605346156896871
 20
12.46277472098552
 30
0.0000000000000001
 70
    16
  0
VERTEX
  5
C13D
  8
PROF
 10
3.500746030527238
 20
12.170680575709749
 30
0.0000000000000001
 70
    16
  0
VERTEX
  5
C13E
  8
PROF
 10
3.231798439705698
 20
11.26846416496107
 30
0.0000000000000001
 70
    16
  0
VERTEX
  5
C13F
  8
PROF
 10
2.9737109398832891
 20
10.76631086647069
 30
0.0000000000000001
 70
    16
  0
VERTEX
  5
C140
  8
PROF
 10
2.5729961067384011
 20
10.460947364504699
 30
0.0000000000000001
 70
    16
  0
VERTEX
  5
C141
  8
PROF
 10
2.253782621454604
 20
10.372731239449759
 30
0.0000000000000001
 70
    16
  0
VERTEX
  5
C142
  8
PROF
 10
1.9750295148747341
 20
10.37671325491794
 30
0.0000000000000001
 70
    16
  0
SEQEND
  5
C143
  8
PROF
  0
LINE
  5
C144
  8
PROF
 10
4.9012016798694162
 20
12.88585218805485
 30
0.0000000000000003
 11
4.5198575031869259
 21
12.88585218805485
 31
0.0000000000000003
  0
LINE
  5
C145
  8
PROF
 10
0.7321315362267457
 20
8.2026312473991538
 30
0.0000000000000006
 11
0.7321315362267457
 21
8.0511853963434987
 31
0.0000000000000006
  0
ARC
  5
C146
  8
PROF
 10
0.7977322214551919
 20
7.5773339332026799
 30
0.0000000000000006
 40
0.4783708383912012
 50
97.882010168942529
 51
186.31119505698649
  0
LINE
  5
C147
  8
FRAME_050
 10
7.8016377197432121
 20
17.99371054969447
 30
0.0
 11
7.8016377197432121
 21
0.0000000000002274
 31
0.0
  0
ENDBLK
  5
C149
  8
0
  0
BLOCK
  8
0
  2
*U20
 70
     1
 10
0.0
 20
0.0
 30
0.0
  3
*U20
  1

  0
TEXT
  5
CF44
  8
0
 10
3.5177832928899071
 20
10.38601584255777
 30
0.0
 40
0.125
  1
Crown Moulding
  0
TEXT
  5
CF45
  8
0
 10
3.5223876585106431
 20
10.17717091304435
 30
0.0
 40
0.125
  1
TL-AB509
  0
TEXT
  5
CF46
  8
0
 10
3.5074661032582561
 20
9.9667059289606801
 30
0.0
 40
0.125
  1
1-5/16" x 7-9/16"
  0
TEXT
  5
CF47
  8
0
 10
3.519403347460166
 20
9.7562409448770051
 30
0.0
 40
0.125
  1
800.66.TAGUE
  0
ENDBLK
  5
CF49
  8
0
  0
BLOCK
  8
0
  2
*U21
 70
     1
 10
0.0
 20
0.0
 30
0.0
  3
*U21
  1

  0
TEXT
  5
CF4B
  8
0
 10
5.3066868277875692
 20
1.767659498411035
 30
0.0
 40
0.125
  1
Back Band
  0
TEXT
  5
CF4C
  8
0
 10
5.3153839628489603
 20
1.55881456889762
 30
0.0
 40
0.125
  1
TL-1
  0
TEXT
  5
CF4D
  8
0
 10
5.3004624075965721
 20
1.3483495848139451
 30
0.0
 40
0.125
  1
1-3/8" x 1-9/16"
  0
TEXT
  5
CF4E
  8
0
 10
5.3123996517984819
 20
1.137884600730271
 30
0.0
 40
0.125
  1
800.66.TAGUE
  0
ENDBLK
  5
CF50
  8
0
  0
BLOCK
  8
0
  2
*U22
 70
     1
 10
0.0
 20
0.0
 30
0.0
  3
*U22
  1

  0
TEXT
  5
CF52
  8
0
 10
2.551252809835812
 20
0.9623111621543785
 30
0.0
 40
0.125
  1
Back Band
  0
TEXT
  5
CF53
  8
0
 10
2.5599499448972041
 20
0.7534662326409634
 30
0.0
 40
0.125
  1
TL-288
  0
TEXT
  5
CF54
  8
0
 10
2.5450283896448158
 20
0.5430012485572889
 30
0.0
 40
0.125
  1
1-11/16" x 1-13/16"
  0
TEXT
  5
CF55
  8
0
 10
2.5569656338467261
 20
0.3325362644736145
 30
0.0
 40
0.125
  1
800.66.TAGUE
  0
ENDBLK
  5
CF57
  8
0
  0
BLOCK
  8
0
  2
*U23
 70
     1
 10
0.0
 20
0.0
 30
0.0
  3
*U23
  1

  0
TEXT
  5
CF59
  8
0
 10
1.8364329238504911
 20
0.882982778245946
 30
0.0
 40
0.125
  1
Back Band
  0
TEXT
  5
CF5A
  8
0
 10
1.845130058911882
 20
0.6741378487325309
 30
0.0
 40
0.125
  1
TL-289
  0
TEXT
  5
CF5B
  8
0
 10
1.8302085036594951
 20
0.4636728646488565
 30
0.0
 40
0.125
  1
1-1/16" x 1-11/16"
  0
TEXT
  5
CF5C
  8
0
 10
1.8421457478614049
 20
0.2532078805651821
 30
0.0
 40
0.125
  1
800.66.TAGUE
  0
ENDBLK
  5
CF5E
  8
0
  0
BLOCK
  8
0
  2
*U24
 70
     1
 10
0.0
 20
0.0
 30
0.0
  3
*U24
  1

  0
TEXT
  5
CF60
  8
0
 10
1.929931786774016
 20
0.8512665098620573
 30
0.0
 40
0.125
  1
Back Band
  0
TEXT
  5
CF61
  8
0
 10
1.9386289218354069
 20
0.6424215803486422
 30
0.0
 40
0.125
  1
TL-601
  0
TEXT
  5
CF62
  8
0
 10
1.92370736658302
 20
0.4319565962649678
 30
0.0
 40
0.125
  1
1-5/16" x 1-3/8"
  0
TEXT
  5
CF63
  8
0
 10
1.9356446107849301
 20
0.2214916121812933
 30
0.0
 40
0.125
  1
800.66.TAGUE
  0
ENDBLK
  5
CF65
  8
0
  0
BLOCK
  8
0
  2
*U25
 70
     1
 10
0.0
 20
0.0
 30
0.0
  3
*U25
  1

  0
TEXT
  5
CF67
  8
0
 10
1.8237739904796331
 20
0.9081704084311468
 30
0.0
 40
0.125
  1
Back Band
  0
TEXT
  5
CF68
  8
0
 10
1.832471125541024
 20
0.6993254789177317
 30
0.0
 40
0.125
  1
TL-2075
  0
TEXT
  5
CF69
  8
0
 10
1.8175495702886371
 20
0.4888604948340573
 30
0.0
 40
0.125
  1
1-5/16" x 1-5/8"
  0
TEXT
  5
CF6A
  8
0
 10
1.829486814490547
 20
0.2783955107503828
 30
0.0
 40
0.125
  1
800.66.TAGUE
  0
ENDBLK
  5
CF6C
  8
0
  0
BLOCK
  8
0
  2
*U26
 70
     1
 10
0.0
 20
0.0
 30
0.0
  3
*U26
  1

  0
TEXT
  5
CF6E
  8
0
 10
1.9545668919090351
 20
0.8644213446237927
 30
0.0
 40
0.125
  1
Back Band
  0
TEXT
  5
CF6F
  8
0
 10
1.963264026970426
 20
0.6555764151103776
 30
0.0
 40
0.125
  1
TL-2208 
  0
TEXT
  5
CF70
  8
0
 10
1.9483424717180391
 20
0.4451114310267032
 30
0.0
 40
0.125
  1
1-3/8" x 1-5/8"
  0
TEXT
  5
CF71
  8
0
 10
1.960279715919949
 20
0.2346464469430287
 30
0.0
 40
0.125
  1
800.66.TAGUE
  0
ENDBLK
  5
CF73
  8
0
  0
BLOCK
  8
0
  2
*U27
 70
     1
 10
0.0
 20
0.0
 30
0.0
  3
*U27
  1

  0
TEXT
  5
CF75
  8
0
 10
2.7644474121262692
 20
0.8344220463493456
 30
0.0
 40
0.125
  1
Back Band
  0
TEXT
  5
CF76
  8
0
 10
2.7731445471876608
 20
0.6255771168359307
 30
0.0
 40
0.125
  1
TL-2221 
  0
TEXT
  5
CF77
  8
0
 10
2.7689665117169922
 20
0.4151121327522561
 30
0.0
 40
0.125
  1
7/8" x 1-3/4"
  0
TEXT
  5
CF78
  8
0
 10
2.7701602361371829
 20
0.2046471486685817
 30
0.0
 40
0.125
  1
800.66.TAGUE
  0
ENDBLK
  5
CF7A
  8
0
  0
BLOCK
  8
0
  2
*U28
 70
     1
 10
0.0
 20
0.0
 30
0.0
  3
*U28
  1

  0
TEXT
  5
CF7C
  8
0
 10
2.6915324485008609
 20
1.1836703361148011
 30
0.0
 40
0.125
  1
Back Band
  0
TEXT
  5
CF7D
  8
0
 10
2.700229583562253
 20
0.974825406601386
 30
0.0
 40
0.125
  1
TL-2266
  0
TEXT
  5
CF7E
  8
0
 10
2.685308028309866
 20
0.7643604225177115
 30
0.0
 40
0.125
  1
1-11/32" x 1-15/32"
  0
TEXT
  5
CF7F
  8
0
 10
2.697245272511775
 20
0.5538954384340372
 30
0.0
 40
0.125
  1
800.66.TAGUE
  0
ENDBLK
  5
CF81
  8
0
  0
BLOCK
  8
0
  2
*U29
 70
     1
 10
0.0
 20
0.0
 30
0.0
  3
*U29
  1

  0
TEXT
  5
CF83
  8
0
 10
3.1852595440213172
 20
1.4826139655959869
 30
0.0
 40
0.125
  1
Back Band
  0
TEXT
  5
CF84
  8
0
 10
3.1939566790827079
 20
1.273769036082572
 30
0.0
 40
0.125
  1
TL-2293
  0
TEXT
  5
CF85
  8
0
 10
3.1790351238303209
 20
1.0147194680971241
 30
0.0
 40
0.125
  1
1-
  0
TEXT
  5
CF86
  8
0
 10
3.3285150010472382
 20
1.1040697409484199
 30
0.0
 40
0.0875
  1
7
  0
LINE
  5
CF87
  8
0
 10
3.3553421833758441
 20
1.032393937073133
 30
0.0
 11
3.4557180597372761
 21
1.1757455448237071
 31
0.0
  0
TEXT
  5
CF88
  8
0
 10
3.4151594985461009
 20
0.9855528014304578
 30
0.0
 40
0.0875
  1
8
  0
TEXT
  5
CF89
  8
0
 10
3.483619594044054
 20
1.0147194680971241
 30
0.0
 40
0.125
  1
" x 2-
  0
TEXT
  5
CF8A
  8
0
 10
3.8794330319703851
 20
1.1040697409484199
 30
0.0
 40
0.0875
  1
7
  0
LINE
  5
CF8B
  8
0
 10
3.9062602142989902
 20
1.032393937073133
 30
0.0
 11
4.0066360906604244
 21
1.1757455448237071
 31
0.0
  0
TEXT
  5
CF8C
  8
0
 10
3.957721458527911
 20
0.9855528014304578
 30
0.0
 40
0.0875
  1
16
  0
TEXT
  5
CF8D
  8
0
 10
4.0939254148717028
 20
1.0147194680971241
 30
0.0
 40
0.125
  1
"
  0
TEXT
  5
CF8E
  8
0
 10
3.1909723680322308
 20
0.8459211506801169
 30
0.0
 40
0.125
  1
800.66.TAGUE
  0
ENDBLK
  5
CF90
  8
0
  0
BLOCK
  8
0
  2
*U30
 70
     1
 10
0.0
 20
0.0
 30
0.0
  3
*U30
  1

  0
TEXT
  5
CF92
  8
0
 10
2.4900996379053408
 20
1.0092498715596481
 30
0.0
 40
0.125
  1
Baluster Stock
  0
TEXT
  5
CF93
  8
0
 10
2.4987967729667329
 20
0.800404942046233
 30
0.0
 40
0.125
  1
TL-236
  0
TEXT
  5
CF94
  8
0
 10
2.4838752177143451
 20
0.5899399579625585
 30
0.0
 40
0.125
  1
1-9/16" x 1-9/16"
  0
TEXT
  5
CF95
  8
0
 10
2.4958124619162549
 20
0.3794749738788841
 30
0.0
 40
0.125
  1
800.66.TAGUE
  0
ENDBLK
  5
CF97
  8
0
  0
BLOCK
  8
0
  2
*U31
 70
     1
 10
0.0
 20
0.0
 30
0.0
  3
*U31
  1

  0
TEXT
  5
CF99
  8
0
 10
2.3591545502839431
 20
0.9010435759007737
 30
0.0
 40
0.125
  1
Baluster Stock
  0
TEXT
  5
CF9A
  8
0
 10
2.3678516853453342
 20
0.6921986463873587
 30
0.0
 40
0.125
  1
TL-237
  0
TEXT
  5
CF9B
  8
0
 10
2.3529301300929468
 20
0.4817336623036842
 30
0.0
 40
0.125
  1
1-5/16" x 1-5/16"
  0
TEXT
  5
CF9C
  8
0
 10
2.3648673742948572
 20
0.2712686782200098
 30
0.0
 40
0.125
  1
800.66.TAGUE
  0
ENDBLK
  5
CF9E
  8
0
  0
BLOCK
  8
0
  2
*U32
 70
     1
 10
0.0
 20
0.0
 30
0.0
  3
*U32
  1

  0
TEXT
  5
CFA0
  8
0
 10
2.098510450655322
 20
0.7826568183311498
 30
0.0
 40
0.125
  1
Baluster Stock
  0
TEXT
  5
CFA1
  8
0
 10
2.1072075857167132
 20
0.5738118888177346
 30
0.0
 40
0.125
  1
TL-238
  0
TEXT
  5
CFA2
  8
0
 10
2.0922860304643258
 20
0.3633469047340601
 30
0.0
 40
0.125
  1
1-1/16" x 1-1/16"
  0
TEXT
  5
CFA3
  8
0
 10
2.1042232746662362
 20
0.1528819206503857
 30
0.0
 40
0.125
  1
800.66.TAGUE
  0
ENDBLK
  5
CFA5
  8
0
  0
BLOCK
  8
0
  2
*U33
 70
     1
 10
0.0
 20
0.0
 30
0.0
  3
*U33
  1

  0
TEXT
  5
CFA7
  8
0
 10
1.7835912292499461
 20
0.6784890753194919
 30
0.0
 40
0.125
  1
Baluster Stock
  0
TEXT
  5
CFA8
  8
0
 10
1.792288364311337
 20
0.4696441458060768
 30
0.0
 40
0.125
  1
TL-239
  0
TEXT
  5
CFA9
  8
0
 10
1.7890482551708189
 20
0.2591791617224023
 30
0.0
 40
0.125
  1
3/4" x 3/4"
  0
TEXT
  5
CFAA
  8
0
 10
1.78930405326086
 20
0.0487141776387279
 30
0.0
 40
0.125
  1
800.66.TAGUE
  0
ENDBLK
  5
CFAC
  8
0
  0
BLOCK
  8
0
  2
*U34
 70
     1
 10
0.0
 20
0.0
 30
0.0
  3
*U34
  1

  0
TEXT
  5
CFAE
  8
0
 10
2.750346038648086
 20
1.209669783574115
 30
0.0
 40
0.125
  1
Baluster Stock
  0
TEXT
  5
CFAF
  8
0
 10
2.7590431737094772
 20
1.0008248540607001
 30
0.0
 40
0.125
  1
TL-526
  0
TEXT
  5
CFB0
  8
0
 10
2.7441216184570898
 20
0.7903598699770261
 30
0.0
 40
0.125
  1
1-3/4" x 1-3/4"
  0
TEXT
  5
CFB1
  8
0
 10
2.7560588626590001
 20
0.5798948858933518
 30
0.0
 40
0.125
  1
800.66.TAGUE
  0
ENDBLK
  5
CFB3
  8
0
  0
BLOCK
  8
0
  2
*U35
 70
     1
 10
0.0
 20
0.0
 30
0.0
  3
*U35
  1

  0
TEXT
  5
CFB5
  8
0
 10
4.1934393821158942
 20
3.6154353709422362
 30
0.0
 40
0.125
  1
Bar Rail
  0
TEXT
  5
CFB6
  8
0
 10
4.2021365171772853
 20
3.4065904414288211
 30
0.0
 40
0.125
  1
TL-13
  0
TEXT
  5
CFB7
  8
0
 10
4.19898167406678
 20
3.1961254573451461
 30
0.0
 40
0.125
  1
5-1/2" x 1-5/8"
  0
TEXT
  5
CFB8
  8
0
 10
4.199152206126807
 20
2.985660473261472
 30
0.0
 40
0.125
  1
800.66.TAGUE
  0
ENDBLK
  5
CFBA
  8
0
  0
BLOCK
  8
0
  2
*U36
 70
     1
 10
0.0
 20
0.0
 30
0.0
  3
*U36
  1

  0
TEXT
  5
CFBC
  8
0
 10
-385.19805563521152
 20
839.97877856027378
 30
0.0
 40
0.125
  1
Bar Rail
  0
TEXT
  5
CFBD
  8
0
 10
-385.18935850015009
 20
839.76993363076053
 30
0.0
 40
0.125
  1
TL-13
  0
TEXT
  5
CFBE
  8
0
 10
-385.1925133432606
 20
839.55946864667658
 30
0.0
 40
0.125
  1
5-1/2" x 1-5/8"
  0
TEXT
  5
CFBF
  8
0
 10
-385.19234281120049
 20
839.34900366259296
 30
0.0
 40
0.125
  1
800.66.TAGUE
  0
ENDBLK
  5
CFC1
  8
0
  0
ENDSEC
  0
SECTION
  2
ENTITIES
  0
INSERT
  5
CF29
  8
0
  2
*U36
 10
0.0
 20
0.0
 30
0.0
  0
LINE
  5
CF2A
  8
0
 10
-384.26226271771321
 20
836.36334237109975
 30
0.0
 11
-383.97459408284612
 21
837.27566289882111
 31
0.0
  0
LINE
  5
CF2B
  8
0
 10
-384.90945401097832
 20
837.52249095605225
 30
0.0
 11
-384.90945401097832
 21
836.61449123117279
 31
0.0
  0
LINE
  5
CF2C
  8
0
 10
-388.04881476189121
 20
838.37253325168388
 30
0.0
 11
-388.11643176268012
 21
837.52249095605225
 31
0.0
  0
LINE
  5
CF2D
  8
0
 10
-384.90945401097832
 20
836.61449123117279
 30
0.0
 11
-384.26226271771321
 21
836.36334237109975
 31
0.0
  0
LINE
  5
CF2E
  8
0
 10
-388.11643176268012
 20
837.52249095605225
 30
0.0
 11
-384.90945401097832
 21
837.52249095605225
 31
0.0
  0
LINE
  5
CF2F
  8
0
 10
-389.39149520612779
 20
838.37253325168388
 30
0.0
 11
-388.04881476189121
 21
838.37253325168388
 31
0.0
  0
POLYLINE
  8
0
  5
CFC2
  66
     1
 10
0.000000
 20
0.000000
 30
0.000000
  70
     8
  0
VERTEX
  8
0
  5
CFC3
 10
-389.391
 20
838.373
 30
0.000000
  70
    32
  0
VERTEX
  8
0
  5
CFC4
 10
-389.387
 20
838.383
 30
0.000000
  70
    32
  0
VERTEX
  8
0
  5
CFC5
 10
-389.382
 20
838.392
 30
0.000000
  70
    32
  0
VERTEX
  8
0
  5
CFC6
 10
-389.377
 20
838.402
 30
0.000000
  70
    32
  0
VERTEX
  8
0
  5
CFC7
 10
-389.373
 20
838.412
 30
0.000000
  70
    32
  0
VERTEX
  8
0
  5
CFC8
 10
-389.368
 20
838.422
 30
0.000000
  70
    32
  0
VERTEX
  8
0
  5
CFC9
 10
-389.363
 20
838.432
 30
0.000000
  70
    32
  0
VERTEX
  8
0
  5
CFCA
 10
-389.358
 20
838.442
 30
0.000000
  70
    32
  0
VERTEX
  8
0
  5
CFCB
 10
-389.353
 20
838.452
 30
0.000000
  70
    32
  0
VERTEX
  8
0
  5
CFCC
 10
-389.349
 20
838.462
 30
0.000000
  70
    32
  0
VERTEX
  8
0
  5
CFCD
 10
-389.344
 20
838.472
 30
0.000000
  70
    32
  0
VERTEX
  8
0
  5
CFCE
 10
-389.339
 20
838.482
 30
0.000000
  70
    32
  0
VERTEX
  8
0
  5
CFCF
 10
-389.333
 20
838.491
 30
0.000000
  70
    32
  0
VERTEX
  8
0
  5
CFD0
 10
-389.328
 20
838.501
 30
0.000000
  70
    32
  0
VERTEX
  8
0
  5
CFD1
 10
-389.323
 20
838.511
 30
0.000000
  70
    32
  0
VERTEX
  8
0
  5
CFD2
 10
-389.318
 20
838.521
 30
0.000000
  70
    32
  0
VERTEX
  8
0
  5
CFD3
 10
-389.312
 20
838.530
 30
0.000000
  70
    32
  0
VERTEX
  8
0
  5
CFD4
 10
-389.307
 20
838.540
 30
0.000000
  70
    32
  0
VERTEX
  8
0
  5
CFD5
 10
-389.301
 20
838.549
 30
0.000000
  70
    32
  0
VERTEX
  8
0
  5
CFD6
 10
-389.296
 20
838.559
 30
0.000000
  70
    32
  0
VERTEX
  8
0
  5
CFD7
 10
-389.290
 20
838.568
 30
0.000000
  70
    32
  0
VERTEX
  8
0
  5
CFD8
 10
-389.284
 20
838.578
 30
0.000000
  70
    32
  0
VERTEX
  8
0
  5
CFD9
 10
-389.278
 20
838.587
 30
0.000000
  70
    32
  0
VERTEX
  8
0
  5
CFDA
 10
-389.273
 20
838.596
 30
0.000000
  70
    32
  0
VERTEX
  8
0
  5
CFDB
 10
-389.266
 20
838.605
 30
0.000000
  70
    32
  0
VERTEX
  8
0
  5
CFDC
 10
-389.260
 20
838.615
 30
0.000000
  70
    32
  0
VERTEX
  8
0
  5
CFDD
 10
-389.254
 20
838.624
 30
0.000000
  70
    32
  0
VERTEX
  8
0
  5
CFDE
 10
-389.248
 20
838.633
 30
0.000000
  70
    32
  0
VERTEX
  8
0
  5
CFDF
 10
-389.241
 20
838.642
 30
0.000000
  70
    32
  0
VERTEX
  8
0
  5
CFE0
 10
-389.235
 20
838.651
 30
0.000000
  70
    32
  0
VERTEX
  8
0
  5
CFE1
 10
-389.228
 20
838.660
 30
0.000000
  70
    32
  0
VERTEX
  8
0
  5
CFE2
 10
-389.222
 20
838.669
 30
0.000000
  70
    32
  0
VERTEX
  8
0
  5
CFE3
 10
-389.215
 20
838.678
 30
0.000000
  70
    32
  0
VERTEX
  8
0
  5
CFE4
 10
-389.208
 20
838.686
 30
0.000000
  70
    32
  0
VERTEX
  8
0
  5
CFE5
 10
-389.202
 20
838.695
 30
0.000000
  70
    32
  0
VERTEX
  8
0
  5
CFE6
 10
-389.195
 20
838.704
 30
0.000000
  70
    32
  0
VERTEX
  8
0
  5
CFE7
 10
-389.188
 20
838.712
 30
0.000000
  70
    32
  0
VERTEX
  8
0
  5
CFE8
 10
-389.180
 20
838.721
 30
0.000000
  70
    32
  0
VERTEX
  8
0
  5
CFE9
 10
-389.173
 20
838.729
 30
0.000000
  70
    32
  0
VERTEX
  8
0
  5
CFEA
 10
-389.166
 20
838.738
 30
0.000000
  70
    32
  0
VERTEX
  8
0
  5
CFEB
 10
-389.159
 20
838.746
 30
0.000000
  70
    32
  0
VERTEX
  8
0
  5
CFEC
 10
-389.151
 20
838.754
 30
0.000000
  70
    32
  0
VERTEX
  8
0
  5
CFED
 10
-389.144
 20
838.762
 30
0.000000
  70
    32
  0
VERTEX
  8
0
  5
CFEE
 10
-389.136
 20
838.771
 30
0.000000
  70
    32
  0
VERTEX
  8
0
  5
CFEF
 10
-389.129
 20
838.779
 30
0.000000
  70
    32
  0
VERTEX
  8
0
  5
CFF0
 10
-389.121
 20
838.787
 30
0.000000
  70
    32
  0
VERTEX
  8
0
  5
CFF1
 10
-389.113
 20
838.795
 30
0.000000
  70
    32
  0
VERTEX
  8
0
  5
CFF2
 10
-389.105
 20
838.802
 30
0.000000
  70
    32
  0
VERTEX
  8
0
  5
CFF3
 10
-389.098
 20
838.810
 30
0.000000
  70
    32
  0
VERTEX
  8
0
  5
CFF4
 10
-389.090
 20
838.818
 30
0.000000
  70
    32
  0
VERTEX
  8
0
  5
CFF5
 10
-389.082
 20
838.826
 30
0.000000
  70
    32
  0
VERTEX
  8
0
  5
CFF6
 10
-389.073
 20
838.833
 30
0.000000
  70
    32
  0
VERTEX
  8
0
  5
CFF7
 10
-389.065
 20
838.841
 30
0.000000
  70
    32
  0
VERTEX
  8
0
  5
CFF8
 10
-389.057
 20
838.848
 30
0.000000
  70
    32
  0
VERTEX
  8
0
  5
CFF9
 10
-389.049
 20
838.856
 30
0.000000
  70
    32
  0
VERTEX
  8
0
  5
CFFA
 10
-389.040
 20
838.863
 30
0.000000
  70
    32
  0
VERTEX
  8
0
  5
CFFB
 10
-389.032
 20
838.870
 30
0.000000
  70
    32
  0
VERTEX
  8
0
  5
CFFC
 10
-389.023
 20
838.877
 30
0.000000
  70
    32
  0
VERTEX
  8
0
  5
CFFD
 10
-389.015
 20
838.885
 30
0.000000
  70
    32
  0
VERTEX
  8
0
  5
CFFE
 10
-389.006
 20
838.892
 30
0.000000
  70
    32
  0
VERTEX
  8
0
  5
CFFF
 10
-388.997
 20
838.899
 30
0.000000
  70
    32
  0
VERTEX
  8
0
  5
D000
 10
-388.988
 20
838.905
 30
0.000000
  70
    32
  0
VERTEX
  8
0
  5
D001
 10
-388.980
 20
838.912
 30
0.000000
  70
    32
  0
VERTEX
  8
0
  5
D002
 10
-388.971
 20
838.919
 30
0.000000
  70
    32
  0
VERTEX
  8
0
  5
D003
 10
-388.962
 20
838.926
 30
0.000000
  70
    32
  0
VERTEX
  8
0
  5
D004
 10
-388.953
 20
838.932
 30
0.000000
  70
    32
  0
VERTEX
  8
0
  5
D005
 10
-388.943
 20
838.938
 30
0.000000
  70
    32
  0
VERTEX
  8
0
  5
D006
 10
-388.934
 20
838.945
 30
0.000000
  70
    32
  0
VERTEX
  8
0
  5
D007
 10
-388.925
 20
838.951
 30
0.000000
  70
    32
  0
VERTEX
  8
0
  5
D008
 10
-388.916
 20
838.957
 30
0.000000
  70
    32
  0
VERTEX
  8
0
  5
D009
 10
-388.906
 20
838.963
 30
0.000000
  70
    32
  0
VERTEX
  8
0
  5
D00A
 10
-388.897
 20
838.969
 30
0.000000
  70
    32
  0
VERTEX
  8
0
  5
D00B
 10
-388.887
 20
838.975
 30
0.000000
  70
    32
  0
VERTEX
  8
0
  5
D00C
 10
-388.878
 20
838.980
 30
0.000000
  70
    32
  0
VERTEX
  8
0
  5
D00D
 10
-388.868
 20
838.986
 30
0.000000
  70
    32
  0
VERTEX
  8
0
  5
D00E
 10
-388.859
 20
838.991
 30
0.000000
  70
    32
  0
VERTEX
  8
0
  5
D00F
 10
-388.849
 20
838.996
 30
0.000000
  70
    32
  0
VERTEX
  8
0
  5
D010
 10
-388.839
 20
839.002
 30
0.000000
  70
    32
  0
VERTEX
  8
0
  5
D011
 10
-388.829
 20
839.007
 30
0.000000
  70
    32
  0
VERTEX
  8
0
  5
D012
 10
-388.819
 20
839.011
 30
0.000000
  70
    32
  0
VERTEX
  8
0
  5
D013
 10
-388.809
 20
839.016
 30
0.000000
  70
    32
  0
VERTEX
  8
0
  5
D014
 10
-388.799
 20
839.021
 30
0.000000
  70
    32
  0
VERTEX
  8
0
  5
D015
 10
-388.789
 20
839.025
 30
0.000000
  70
    32
  0
VERTEX
  8
0
  5
D016
 10
-388.779
 20
839.029
 30
0.000000
  70
    32
  0
VERTEX
  8
0
  5
D017
 10
-388.769
 20
839.033
 30
0.000000
  70
    32
  0
VERTEX
  8
0
  5
D018
 10
-388.758
 20
839.037
 30
0.000000
  70
    32
  0
VERTEX
  8
0
  5
D019
 10
-388.748
 20
839.041
 30
0.000000
  70
    32
  0
VERTEX
  8
0
  5
D01A
 10
-388.738
 20
839.045
 30
0.000000
  70
    32
  0
VERTEX
  8
0
  5
D01B
 10
-388.727
 20
839.048
 30
0.000000
  70
    32
  0
VERTEX
  8
0
  5
D01C
 10
-388.717
 20
839.051
 30
0.000000
  70
    32
  0
VERTEX
  8
0
  5
D01D
 10
-388.706
 20
839.054
 30
0.000000
  70
    32
  0
VERTEX
  8
0
  5
D01E
 10
-388.695
 20
839.057
 30
0.000000
  70
    32
  0
VERTEX
  8
0
  5
D01F
 10
-388.685
 20
839.060
 30
0.000000
  70
    32
  0
VERTEX
  8
0
  5
D020
 10
-388.674
 20
839.063
 30
0.000000
  70
    32
  0
VERTEX
  8
0
  5
D021
 10
-388.663
 20
839.065
 30
0.000000
  70
    32
  0
VERTEX
  8
0
  5
D022
 10
-388.653
 20
839.067
 30
0.000000
  70
    32
  0
VERTEX
  8
0
  5
D023
 10
-388.642
 20
839.069
 30
0.000000
  70
    32
  0
VERTEX
  8
0
  5
D024
 10
-388.631
 20
839.071
 30
0.000000
  70
    32
  0
VERTEX
  8
0
  5
D025
 10
-388.620
 20
839.073
 30
0.000000
  70
    32
  0
VERTEX
  8
0
  5
D026
 10
-388.609
 20
839.075
 30
0.000000
  70
    32
  0
VERTEX
  8
0
  5
D027
 10
-388.598
 20
839.076
 30
0.000000
  70
    32
  0
VERTEX
  8
0
  5
D028
 10
-388.587
 20
839.078
 30
0.000000
  70
    32
  0
VERTEX
  8
0
  5
D029
 10
-388.576
 20
839.079
 30
0.000000
  70
    32
  0
VERTEX
  8
0
  5
D02A
 10
-388.565
 20
839.080
 30
0.000000
  70
    32
  0
VERTEX
  8
0
  5
D02B
 10
-388.554
 20
839.081
 30
0.000000
  70
    32
  0
VERTEX
  8
0
  5
D02C
 10
-388.543
 20
839.082
 30
0.000000
  70
    32
  0
VERTEX
  8
0
  5
D02D
 10
-388.532
 20
839.083
 30
0.000000
  70
    32
  0
VERTEX
  8
0
  5
D02E
 10
-388.521
 20
839.084
 30
0.000000
  70
    32
  0
VERTEX
  8
0
  5
D02F
 10
-388.510
 20
839.084
 30
0.000000
  70
    32
  0
VERTEX
  8
0
  5
D030
 10
-388.499
 20
839.085
 30
0.000000
  70
    32
  0
VERTEX
  8
0
  5
D031
 10
-388.488
 20
839.085
 30
0.000000
  70
    32
  0
VERTEX
  8
0
  5
D032
 10
-388.477
 20
839.085
 30
0.000000
  70
    32
  0
VERTEX
  8
0
  5
D033
 10
-388.465
 20
839.085
 30
0.000000
  70
    32
  0
VERTEX
  8
0
  5
D034
 10
-388.454
 20
839.085
 30
0.000000
  70
    32
  0
VERTEX
  8
0
  5
D035
 10
-388.443
 20
839.085
 30
0.000000
  70
    32
  0
VERTEX
  8
0
  5
D036
 10
-388.432
 20
839.085
 30
0.000000
  70
    32
  0
VERTEX
  8
0
  5
D037
 10
-388.421
 20
839.085
 30
0.000000
  70
    32
  0
VERTEX
  8
0
  5
D038
 10
-388.410
 20
839.084
 30
0.000000
  70
    32
  0
VERTEX
  8
0
  5
D039
 10
-388.399
 20
839.084
 30
0.000000
  70
    32
  0
VERTEX
  8
0
  5
D03A
 10
-388.388
 20
839.083
 30
0.000000
  70
    32
  0
VERTEX
  8
0
  5
D03B
 10
-388.377
 20
839.082
 30
0.000000
  70
    32
  0
VERTEX
  8
0
  5
D03C
 10
-388.366
 20
839.082
 30
0.000000
  70
    32
  0
VERTEX
  8
0
  5
D03D
 10
-388.355
 20
839.081
 30
0.000000
  70
    32
  0
VERTEX
  8
0
  5
D03E
 10
-388.344
 20
839.080
 30
0.000000
  70
    32
  0
VERTEX
  8
0
  5
D03F
 10
-388.333
 20
839.079
 30
0.000000
  70
    32
  0
VERTEX
  8
0
  5
D040
 10
-388.322
 20
839.077
 30
0.000000
  70
    32
  0
VERTEX
  8
0
  5
D041
 10
-388.311
 20
839.076
 30
0.000000
  70
    32
  0
VERTEX
  8
0
  5
D042
 10
-388.300
 20
839.075
 30
0.000000
  70
    32
  0
VERTEX
  8
0
  5
D043
 10
-388.289
 20
839.073
 30
0.000000
  70
    32
  0
VERTEX
  8
0
  5
D044
 10
-388.278
 20
839.071
 30
0.000000
  70
    32
  0
VERTEX
  8
0
  5
D045
 10
-388.267
 20
839.070
 30
0.000000
  70
    32
  0
VERTEX
  8
0
  5
D046
 10
-388.256
 20
839.068
 30
0.000000
  70
    32
  0
VERTEX
  8
0
  5
D047
 10
-388.245
 20
839.066
 30
0.000000
  70
    32
  0
VERTEX
  8
0
  5
D048
 10
-388.234
 20
839.064
 30
0.000000
  70
    32
  0
VERTEX
  8
0
  5
D049
 10
-388.224
 20
839.062
 30
0.000000
  70
    32
  0
VERTEX
  8
0
  5
D04A
 10
-388.213
 20
839.060
 30
0.000000
  70
    32
  0
VERTEX
  8
0
  5
D04B
 10
-388.202
 20
839.057
 30
0.000000
  70
    32
  0
VERTEX
  8
0
  5
D04C
 10
-388.191
 20
839.055
 30
0.000000
  70
    32
  0
VERTEX
  8
0
  5
D04D
 10
-388.180
 20
839.053
 30
0.000000
  70
    32
  0
VERTEX
  8
0
  5
D04E
 10
-388.170
 20
839.050
 30
0.000000
  70
    32
  0
VERTEX
  8
0
  5
D04F
 10
-388.159
 20
839.047
 30
0.000000
  70
    32
  0
VERTEX
  8
0
  5
D050
 10
-388.148
 20
839.045
 30
0.000000
  70
    32
  0
VERTEX
  8
0
  5
D051
 10
-388.138
 20
839.042
 30
0.000000
  70
    32
  0
VERTEX
  8
0
  5
D052
 10
-388.127
 20
839.039
 30
0.000000
  70
    32
  0
VERTEX
  8
0
  5
D053
 10
-388.117
 20
839.036
 30
0.000000
  70
    32
  0
VERTEX
  8
0
  5
D054
 10
-388.106
 20
839.033
 30
0.000000
  70
    32
  0
VERTEX
  8
0
  5
D055
 10
-388.096
 20
839.029
 30
0.000000
  70
    32
  0
VERTEX
  8
0
  5
D056
 10
-388.085
 20
839.026
 30
0.000000
  70
    32
  0
VERTEX
  8
0
  5
D057
 10
-388.075
 20
839.023
 30
0.000000
  70
    32
  0
VERTEX
  8
0
  5
D058
 10
-388.064
 20
839.020
 30
0.000000
  70
    32
  0
VERTEX
  8
0
  5
D059
 10
-388.054
 20
839.016
 30
0.000000
  70
    32
  0
VERTEX
  8
0
  5
D05A
 10
-388.043
 20
839.012
 30
0.000000
  70
    32
  0
VERTEX
  8
0
  5
D05B
 10
-388.033
 20
839.009
 30
0.000000
  70
    32
  0
VERTEX
  8
0
  5
D05C
 10
-388.023
 20
839.005
 30
0.000000
  70
    32
  0
VERTEX
  8
0
  5
D05D
 10
-388.012
 20
839.001
 30
0.000000
  70
    32
  0
VERTEX
  8
0
  5
D05E
 10
-388.002
 20
838.998
 30
0.000000
  70
    32
  0
VERTEX
  8
0
  5
D05F
 10
-387.992
 20
838.994
 30
0.000000
  70
    32
  0
VERTEX
  8
0
  5
D060
 10
-387.981
 20
838.990
 30
0.000000
  70
    32
  0
VERTEX
  8
0
  5
D061
 10
-387.971
 20
838.986
 30
0.000000
  70
    32
  0
VERTEX
  8
0
  5
D062
 10
-387.961
 20
838.982
 30
0.000000
  70
    32
  0
VERTEX
  8
0
  5
D063
 10
-387.951
 20
838.978
 30
0.000000
  70
    32
  0
VERTEX
  8
0
  5
D064
 10
-387.940
 20
838.974
 30
0.000000
  70
    32
  0
VERTEX
  8
0
  5
D065
 10
-387.930
 20
838.969
 30
0.000000
  70
    32
  0
VERTEX
  8
0
  5
D066
 10
-387.920
 20
838.965
 30
0.000000
  70
    32
  0
VERTEX
  8
0
  5
D067
 10
-387.910
 20
838.961
 30
0.000000
  70
    32
  0
VERTEX
  8
0
  5
D068
 10
-387.900
 20
838.956
 30
0.000000
  70
    32
  0
VERTEX
  8
0
  5
D069
 10
-387.889
 20
838.952
 30
0.000000
  70
    32
  0
VERTEX
  8
0
  5
D06A
 10
-387.879
 20
838.948
 30
0.000000
  70
    32
  0
VERTEX
  8
0
  5
D06B
 10
-387.869
 20
838.943
 30
0.000000
  70
    32
  0
VERTEX
  8
0
  5
D06C
 10
-387.859
 20
838.939
 30
0.000000
  70
    32
  0
VERTEX
  8
0
  5
D06D
 10
-387.849
 20
838.934
 30
0.000000
  70
    32
  0
VERTEX
  8
0
  5
D06E
 10
-387.839
 20
838.930
 30
0.000000
  70
    32
  0
VERTEX
  8
0
  5
D06F
 10
-387.829
 20
838.925
 30
0.000000
  70
    32
  0
VERTEX
  8
0
  5
D070
 10
-387.819
 20
838.920
 30
0.000000
  70
    32
  0
VERTEX
  8
0
  5
D071
 10
-387.809
 20
838.916
 30
0.000000
  70
    32
  0
VERTEX
  8
0
  5
D072
 10
-387.799
 20
838.911
 30
0.000000
  70
    32
  0
VERTEX
  8
0
  5
D073
 10
-387.789
 20
838.906
 30
0.000000
  70
    32
  0
VERTEX
  8
0
  5
D074
 10
-387.779
 20
838.902
 30
0.000000
  70
    32
  0
VERTEX
  8
0
  5
D075
 10
-387.769
 20
838.897
 30
0.000000
  70
    32
  0
VERTEX
  8
0
  5
D076
 10
-387.759
 20
838.892
 30
0.000000
  70
    32
  0
VERTEX
  8
0
  5
D077
 10
-387.749
 20
838.887
 30
0.000000
  70
    32
  0
VERTEX
  8
0
  5
D078
 10
-387.739
 20
838.882
 30
0.000000
  70
    32
  0
VERTEX
  8
0
  5
D079
 10
-387.729
 20
838.878
 30
0.000000
  70
    32
  0
VERTEX
  8
0
  5
D07A
 10
-387.719
 20
838.873
 30
0.000000
  70
    32
  0
VERTEX
  8
0
  5
D07B
 10
-387.709
 20
838.868
 30
0.000000
  70
    32
  0
VERTEX
  8
0
  5
D07C
 10
-387.699
 20
838.863
 30
0.000000
  70
    32
  0
VERTEX
  8
0
  5
D07D
 10
-387.689
 20
838.858
 30
0.000000
  70
    32
  0
VERTEX
  8
0
  5
D07E
 10
-387.679
 20
838.853
 30
0.000000
  70
    32
  0
VERTEX
  8
0
  5
D07F
 10
-387.669
 20
838.848
 30
0.000000
  70
    32
  0
VERTEX
  8
0
  5
D080
 10
-387.659
 20
838.844
 30
0.000000
  70
    32
  0
VERTEX
  8
0
  5
D081
 10
-387.649
 20
838.839
 30
0.000000
  70
    32
  0
VERTEX
  8
0
  5
D082
 10
-387.639
 20
838.834
 30
0.000000
  70
    32
  0
VERTEX
  8
0
  5
D083
 10
-387.629
 20
838.829
 30
0.000000
  70
    32
  0
VERTEX
  8
0
  5
D084
 10
-387.619
 20
838.824
 30
0.000000
  70
    32
  0
VERTEX
  8
0
  5
D085
 10
-387.609
 20
838.819
 30
0.000000
  70
    32
  0
VERTEX
  8
0
  5
D086
 10
-387.599
 20
838.815
 30
0.000000
  70
    32
  0
VERTEX
  8
0
  5
D087
 10
-387.589
 20
838.810
 30
0.000000
  70
    32
  0
VERTEX
  8
0
  5
D088
 10
-387.579
 20
838.805
 30
0.000000
  70
    32
  0
VERTEX
  8
0
  5
D089
 10
-387.569
 20
838.800
 30
0.000000
  70
    32
  0
VERTEX
  8
0
  5
D08A
 10
-387.559
 20
838.795
 30
0.000000
  70
    32
  0
VERTEX
  8
0
  5
D08B
 10
-387.549
 20
838.791
 30
0.000000
  70
    32
  0
VERTEX
  8
0
  5
D08C
 10
-387.539
 20
838.786
 30
0.000000
  70
    32
  0
VERTEX
  8
0
  5
D08D
 10
-387.529
 20
838.781
 30
0.000000
  70
    32
  0
VERTEX
  8
0
  5
D08E
 10
-387.519
 20
838.776
 30
0.000000
  70
    32
  0
VERTEX
  8
0
  5
D08F
 10
-387.509
 20
838.772
 30
0.000000
  70
    32
  0
VERTEX
  8
0
  5
D090
 10
-387.499
 20
838.767
 30
0.000000
  70
    32
  0
VERTEX
  8
0
  5
D091
 10
-387.489
 20
838.762
 30
0.000000
  70
    32
  0
VERTEX
  8
0
  5
D092
 10
-387.479
 20
838.757
 30
0.000000
  70
    32
  0
VERTEX
  8
0
  5
D093
 10
-387.469
 20
838.753
 30
0.000000
  70
    32
  0
VERTEX
  8
0
  5
D094
 10
-387.460
 20
838.748
 30
0.000000
  70
    32
  0
VERTEX
  8
0
  5
D095
 10
-387.450
 20
838.743
 30
0.000000
  70
    32
  0
VERTEX
  8
0
  5
D096
 10
-387.440
 20
838.739
 30
0.000000
  70
    32
  0
VERTEX
  8
0
  5
D097
 10
-387.430
 20
838.734
 30
0.000000
  70
    32
  0
VERTEX
  8
0
  5
D098
 10
-387.420
 20
838.729
 30
0.000000
  70
    32
  0
VERTEX
  8
0
  5
D099
 10
-387.410
 20
838.725
 30
0.000000
  70
    32
  0
VERTEX
  8
0
  5
D09A
 10
-387.400
 20
838.720
 30
0.000000
  70
    32
  0
VERTEX
  8
0
  5
D09B
 10
-387.390
 20
838.715
 30
0.000000
  70
    32
  0
VERTEX
  8
0
  5
D09C
 10
-387.380
 20
838.711
 30
0.000000
  70
    32
  0
VERTEX
  8
0
  5
D09D
 10
-387.370
 20
838.706
 30
0.000000
  70
    32
  0
VERTEX
  8
0
  5
D09E
 10
-387.360
 20
838.702
 30
0.000000
  70
    32
  0
VERTEX
  8
0
  5
D09F
 10
-387.350
 20
838.697
 30
0.000000
  70
    32
  0
VERTEX
  8
0
  5
D0A0
 10
-387.340
 20
838.692
 30
0.000000
  70
    32
  0
VERTEX
  8
0
  5
D0A1
 10
-387.330
 20
838.688
 30
0.000000
  70
    32
  0
VERTEX
  8
0
  5
D0A2
 10
-387.320
 20
838.683
 30
0.000000
  70
    32
  0
VERTEX
  8
0
  5
D0A3
 10
-387.309
 20
838.679
 30
0.000000
  70
    32
  0
VERTEX
  8
0
  5
D0A4
 10
-387.299
 20
838.674
 30
0.000000
  70
    32
  0
VERTEX
  8
0
  5
D0A5
 10
-387.289
 20
838.669
 30
0.000000
  70
    32
  0
VERTEX
  8
0
  5
D0A6
 10
-387.279
 20
838.665
 30
0.000000
  70
    32
  0
VERTEX
  8
0
  5
D0A7
 10
-387.269
 20
838.660
 30
0.000000
  70
    32
  0
VERTEX
  8
0
  5
D0A8
 10
-387.259
 20
838.656
 30
0.000000
  70
    32
  0
VERTEX
  8
0
  5
D0A9
 10
-387.249
 20
838.651
 30
0.000000
  70
    32
  0
VERTEX
  8
0
  5
D0AA
 10
-387.239
 20
838.647
 30
0.000000
  70
    32
  0
VERTEX
  8
0
  5
D0AB
 10
-387.229
 20
838.642
 30
0.000000
  70
    32
  0
VERTEX
  8
0
  5
D0AC
 10
-387.219
 20
838.638
 30
0.000000
  70
    32
  0
VERTEX
  8
0
  5
D0AD
 10
-387.209
 20
838.633
 30
0.000000
  70
    32
  0
VERTEX
  8
0
  5
D0AE
 10
-387.199
 20
838.629
 30
0.000000
  70
    32
  0
VERTEX
  8
0
  5
D0AF
 10
-387.189
 20
838.624
 30
0.000000
  70
    32
  0
VERTEX
  8
0
  5
D0B0
 10
-387.179
 20
838.620
 30
0.000000
  70
    32
  0
VERTEX
  8
0
  5
D0B1
 10
-387.169
 20
838.615
 30
0.000000
  70
    32
  0
VERTEX
  8
0
  5
D0B2
 10
-387.159
 20
838.611
 30
0.000000
  70
    32
  0
VERTEX
  8
0
  5
D0B3
 10
-387.149
 20
838.606
 30
0.000000
  70
    32
  0
VERTEX
  8
0
  5
D0B4
 10
-387.139
 20
838.602
 30
0.000000
  70
    32
  0
VERTEX
  8
0
  5
D0B5
 10
-387.129
 20
838.597
 30
0.000000
  70
    32
  0
VERTEX
  8
0
  5
D0B6
 10
-387.119
 20
838.593
 30
0.000000
  70
    32
  0
VERTEX
  8
0
  5
D0B7
 10
-387.109
 20
838.589
 30
0.000000
  70
    32
  0
VERTEX
  8
0
  5
D0B8
 10
-387.099
 20
838.584
 30
0.000000
  70
    32
  0
VERTEX
  8
0
  5
D0B9
 10
-387.088
 20
838.580
 30
0.000000
  70
    32
  0
VERTEX
  8
0
  5
D0BA
 10
-387.078
 20
838.575
 30
0.000000
  70
    32
  0
VERTEX
  8
0
  5
D0BB
 10
-387.068
 20
838.571
 30
0.000000
  70
    32
  0
VERTEX
  8
0
  5
D0BC
 10
-387.058
 20
838.566
 30
0.000000
  70
    32
  0
VERTEX
  8
0
  5
D0BD
 10
-387.048
 20
838.562
 30
0.000000
  70
    32
  0
VERTEX
  8
0
  5
D0BE
 10
-387.038
 20
838.558
 30
0.000000
  70
    32
  0
VERTEX
  8
0
  5
D0BF
 10
-387.028
 20
838.553
 30
0.000000
  70
    32
  0
VERTEX
  8
0
  5
D0C0
 10
-387.018
 20
838.549
 30
0.000000
  70
    32
  0
VERTEX
  8
0
  5
D0C1
 10
-387.008
 20
838.545
 30
0.000000
  70
    32
  0
VERTEX
  8
0
  5
D0C2
 10
-386.998
 20
838.540
 30
0.000000
  70
    32
  0
VERTEX
  8
0
  5
D0C3
 10
-386.987
 20
838.536
 30
0.000000
  70
    32
  0
VERTEX
  8
0
  5
D0C4
 10
-386.977
 20
838.532
 30
0.000000
  70
    32
  0
VERTEX
  8
0
  5
D0C5
 10
-386.967
 20
838.527
 30
0.000000
  70
    32
  0
VERTEX
  8
0
  5
D0C6
 10
-386.957
 20
838.523
 30
0.000000
  70
    32
  0
VERTEX
  8
0
  5
D0C7
 10
-386.947
 20
838.519
 30
0.000000
  70
    32
  0
VERTEX
  8
0
  5
D0C8
 10
-386.937
 20
838.514
 30
0.000000
  70
    32
  0
VERTEX
  8
0
  5
D0C9
 10
-386.927
 20
838.510
 30
0.000000
  70
    32
  0
VERTEX
  8
0
  5
D0CA
 10
-386.917
 20
838.506
 30
0.000000
  70
    32
  0
VERTEX
  8
0
  5
D0CB
 10
-386.906
 20
838.501
 30
0.000000
  70
    32
  0
VERTEX
  8
0
  5
D0CC
 10
-386.896
 20
838.497
 30
0.000000
  70
    32
  0
VERTEX
  8
0
  5
D0CD
 10
-386.886
 20
838.493
 30
0.000000
  70
    32
  0
VERTEX
  8
0
  5
D0CE
 10
-386.876
 20
838.489
 30
0.000000
  70
    32
  0
VERTEX
  8
0
  5
D0CF
 10
-386.866
 20
838.484
 30
0.000000
  70
    32
  0
VERTEX
  8
0
  5
D0D0
 10
-386.856
 20
838.480
 30
0.000000
  70
    32
  0
VERTEX
  8
0
  5
D0D1
 10
-386.845
 20
838.476
 30
0.000000
  70
    32
  0
VERTEX
  8
0
  5
D0D2
 10
-386.835
 20
838.472
 30
0.000000
  70
    32
  0
VERTEX
  8
0
  5
D0D3
 10
-386.825
 20
838.467
 30
0.000000
  70
    32
  0
VERTEX
  8
0
  5
D0D4
 10
-386.815
 20
838.463
 30
0.000000
  70
    32
  0
VERTEX
  8
0
  5
D0D5
 10
-386.805
 20
838.459
 30
0.000000
  70
    32
  0
VERTEX
  8
0
  5
D0D6
 10
-386.794
 20
838.455
 30
0.000000
  70
    32
  0
VERTEX
  8
0
  5
D0D7
 10
-386.784
 20
838.451
 30
0.000000
  70
    32
  0
VERTEX
  8
0
  5
D0D8
 10
-386.774
 20
838.447
 30
0.000000
  70
    32
  0
VERTEX
  8
0
  5
D0D9
 10
-386.764
 20
838.442
 30
0.000000
  70
    32
  0
VERTEX
  8
0
  5
D0DA
 10
-386.754
 20
838.438
 30
0.000000
  70
    32
  0
VERTEX
  8
0
  5
D0DB
 10
-386.743
 20
838.434
 30
0.000000
  70
    32
  0
VERTEX
  8
0
  5
D0DC
 10
-386.733
 20
838.430
 30
0.000000
  70
    32
  0
VERTEX
  8
0
  5
D0DD
 10
-386.723
 20
838.426
 30
0.000000
  70
    32
  0
VERTEX
  8
0
  5
D0DE
 10
-386.713
 20
838.422
 30
0.000000
  70
    32
  0
VERTEX
  8
0
  5
D0DF
 10
-386.702
 20
838.418
 30
0.000000
  70
    32
  0
VERTEX
  8
0
  5
D0E0
 10
-386.692
 20
838.414
 30
0.000000
  70
    32
  0
VERTEX
  8
0
  5
D0E1
 10
-386.682
 20
838.410
 30
0.000000
  70
    32
  0
VERTEX
  8
0
  5
D0E2
 10
-386.671
 20
838.406
 30
0.000000
  70
    32
  0
VERTEX
  8
0
  5
D0E3
 10
-386.661
 20
838.402
 30
0.000000
  70
    32
  0
VERTEX
  8
0
  5
D0E4
 10
-386.651
 20
838.398
 30
0.000000
  70
    32
  0
VERTEX
  8
0
  5
D0E5
 10
-386.641
 20
838.394
 30
0.000000
  70
    32
  0
VERTEX
  8
0
  5
D0E6
 10
-386.630
 20
838.391
 30
0.000000
  70
    32
  0
VERTEX
  8
0
  5
D0E7
 10
-386.620
 20
838.387
 30
0.000000
  70
    32
  0
VERTEX
  8
0
  5
D0E8
 10
-386.610
 20
838.383
 30
0.000000
  70
    32
  0
VERTEX
  8
0
  5
D0E9
 10
-386.599
 20
838.379
 30
0.000000
  70
    32
  0
VERTEX
  8
0
  5
D0EA
 10
-386.589
 20
838.375
 30
0.000000
  70
    32
  0
VERTEX
  8
0
  5
D0EB
 10
-386.578
 20
838.372
 30
0.000000
  70
    32
  0
VERTEX
  8
0
  5
D0EC
 10
-386.568
 20
838.368
 30
0.000000
  70
    32
  0
VERTEX
  8
0
  5
D0ED
 10
-386.558
 20
838.364
 30
0.000000
  70
    32
  0
VERTEX
  8
0
  5
D0EE
 10
-386.547
 20
838.360
 30
0.000000
  70
    32
  0
VERTEX
  8
0
  5
D0EF
 10
-386.537
 20
838.357
 30
0.000000
  70
    32
  0
VERTEX
  8
0
  5
D0F0
 10
-386.526
 20
838.353
 30
0.000000
  70
    32
  0
VERTEX
  8
0
  5
D0F1
 10
-386.516
 20
838.350
 30
0.000000
  70
    32
  0
VERTEX
  8
0
  5
D0F2
 10
-386.506
 20
838.346
 30
0.000000
  70
    32
  0
VERTEX
  8
0
  5
D0F3
 10
-386.495
 20
838.342
 30
0.000000
  70
    32
  0
VERTEX
  8
0
  5
D0F4
 10
-386.485
 20
838.339
 30
0.000000
  70
    32
  0
VERTEX
  8
0
  5
D0F5
 10
-386.474
 20
838.335
 30
0.000000
  70
    32
  0
VERTEX
  8
0
  5
D0F6
 10
-386.464
 20
838.332
 30
0.000000
  70
    32
  0
VERTEX
  8
0
  5
D0F7
 10
-386.453
 20
838.329
 30
0.000000
  70
    32
  0
VERTEX
  8
0
  5
D0F8
 10
-386.443
 20
838.325
 30
0.000000
  70
    32
  0
VERTEX
  8
0
  5
D0F9
 10
-386.432
 20
838.322
 30
0.000000
  70
    32
  0
VERTEX
  8
0
  5
D0FA
 10
-386.422
 20
838.318
 30
0.000000
  70
    32
  0
VERTEX
  8
0
  5
D0FB
 10
-386.411
 20
838.315
 30
0.000000
  70
    32
  0
VERTEX
  8
0
  5
D0FC
 10
-386.401
 20
838.312
 30
0.000000
  70
    32
  0
VERTEX
  8
0
  5
D0FD
 10
-386.390
 20
838.309
 30
0.000000
  70
    32
  0
VERTEX
  8
0
  5
D0FE
 10
-386.379
 20
838.305
 30
0.000000
  70
    32
  0
VERTEX
  8
0
  5
D0FF
 10
-386.369
 20
838.302
 30
0.000000
  70
    32
  0
VERTEX
  8
0
  5
D100
 10
-386.358
 20
838.299
 30
0.000000
  70
    32
  0
VERTEX
  8
0
  5
D101
 10
-386.348
 20
838.296
 30
0.000000
  70
    32
  0
VERTEX
  8
0
  5
D102
 10
-386.337
 20
838.293
 30
0.000000
  70
    32
  0
VERTEX
  8
0
  5
D103
 10
-386.326
 20
838.290
 30
0.000000
  70
    32
  0
VERTEX
  8
0
  5
D104
 10
-386.316
 20
838.287
 30
0.000000
  70
    32
  0
VERTEX
  8
0
  5
D105
 10
-386.305
 20
838.284
 30
0.000000
  70
    32
  0
VERTEX
  8
0
  5
D106
 10
-386.294
 20
838.281
 30
0.000000
  70
    32
  0
VERTEX
  8
0
  5
D107
 10
-386.284
 20
838.278
 30
0.000000
  70
    32
  0
VERTEX
  8
0
  5
D108
 10
-386.273
 20
838.275
 30
0.000000
  70
    32
  0
VERTEX
  8
0
  5
D109
 10
-386.262
 20
838.272
 30
0.000000
  70
    32
  0
VERTEX
  8
0
  5
D10A
 10
-386.252
 20
838.270
 30
0.000000
  70
    32
  0
VERTEX
  8
0
  5
D10B
 10
-386.241
 20
838.267
 30
0.000000
  70
    32
  0
VERTEX
  8
0
  5
D10C
 10
-386.230
 20
838.264
 30
0.000000
  70
    32
  0
VERTEX
  8
0
  5
D10D
 10
-386.220
 20
838.261
 30
0.000000
  70
    32
  0
VERTEX
  8
0
  5
D10E
 10
-386.209
 20
838.259
 30
0.000000
  70
    32
  0
VERTEX
  8
0
  5
D10F
 10
-386.198
 20
838.256
 30
0.000000
  70
    32
  0
VERTEX
  8
0
  5
D110
 10
-386.187
 20
838.254
 30
0.000000
  70
    32
  0
VERTEX
  8
0
  5
D111
 10
-386.177
 20
838.251
 30
0.000000
  70
    32
  0
VERTEX
  8
0
  5
D112
 10
-386.166
 20
838.249
 30
0.000000
  70
    32
  0
VERTEX
  8
0
  5
D113
 10
-386.155
 20
838.246
 30
0.000000
  70
    32
  0
VERTEX
  8
0
  5
D114
 10
-386.144
 20
838.244
 30
0.000000
  70
    32
  0
VERTEX
  8
0
  5
D115
 10
-386.133
 20
838.241
 30
0.000000
  70
    32
  0
VERTEX
  8
0
  5
D116
 10
-386.123
 20
838.239
 30
0.000000
  70
    32
  0
VERTEX
  8
0
  5
D117
 10
-386.112
 20
838.237
 30
0.000000
  70
    32
  0
VERTEX
  8
0
  5
D118
 10
-386.101
 20
838.234
 30
0.000000
  70
    32
  0
VERTEX
  8
0
  5
D119
 10
-386.090
 20
838.232
 30
0.000000
  70
    32
  0
VERTEX
  8
0
  5
D11A
 10
-386.079
 20
838.230
 30
0.000000
  70
    32
  0
VERTEX
  8
0
  5
D11B
 10
-386.068
 20
838.228
 30
0.000000
  70
    32
  0
VERTEX
  8
0
  5
D11C
 10
-386.058
 20
838.226
 30
0.000000
  70
    32
  0
VERTEX
  8
0
  5
D11D
 10
-386.047
 20
838.224
 30
0.000000
  70
    32
  0
VERTEX
  8
0
  5
D11E
 10
-386.036
 20
838.222
 30
0.000000
  70
    32
  0
VERTEX
  8
0
  5
D11F
 10
-386.025
 20
838.220
 30
0.000000
  70
    32
  0
VERTEX
  8
0
  5
D120
 10
-386.014
 20
838.218
 30
0.000000
  70
    32
  0
VERTEX
  8
0
  5
D121
 10
-386.003
 20
838.216
 30
0.000000
  70
    32
  0
VERTEX
  8
0
  5
D122
 10
-385.992
 20
838.214
 30
0.000000
  70
    32
  0
VERTEX
  8
0
  5
D123
 10
-385.981
 20
838.212
 30
0.000000
  70
    32
  0
VERTEX
  8
0
  5
D124
 10
-385.970
 20
838.210
 30
0.000000
  70
    32
  0
VERTEX
  8
0
  5
D125
 10
-385.959
 20
838.209
 30
0.000000
  70
    32
  0
VERTEX
  8
0
  5
D126
 10
-385.949
 20
838.207
 30
0.000000
  70
    32
  0
VERTEX
  8
0
  5
D127
 10
-385.938
 20
838.205
 30
0.000000
  70
    32
  0
VERTEX
  8
0
  5
D128
 10
-385.927
 20
838.204
 30
0.000000
  70
    32
  0
VERTEX
  8
0
  5
D129
 10
-385.916
 20
838.202
 30
0.000000
  70
    32
  0
VERTEX
  8
0
  5
D12A
 10
-385.905
 20
838.201
 30
0.000000
  70
    32
  0
VERTEX
  8
0
  5
D12B
 10
-385.894
 20
838.199
 30
0.000000
  70
    32
  0
VERTEX
  8
0
  5
D12C
 10
-385.883
 20
838.198
 30
0.000000
  70
    32
  0
VERTEX
  8
0
  5
D12D
 10
-385.872
 20
838.196
 30
0.000000
  70
    32
  0
VERTEX
  8
0
  5
D12E
 10
-385.861
 20
838.195
 30
0.000000
  70
    32
  0
VERTEX
  8
0
  5
D12F
 10
-385.850
 20
838.194
 30
0.000000
  70
    32
  0
VERTEX
  8
0
  5
D130
 10
-385.839
 20
838.192
 30
0.000000
  70
    32
  0
VERTEX
  8
0
  5
D131
 10
-385.828
 20
838.191
 30
0.000000
  70
    32
  0
VERTEX
  8
0
  5
D132
 10
-385.817
 20
838.190
 30
0.000000
  70
    32
  0
VERTEX
  8
0
  5
D133
 10
-385.806
 20
838.189
 30
0.000000
  70
    32
  0
VERTEX
  8
0
  5
D134
 10
-385.795
 20
838.188
 30
0.000000
  70
    32
  0
VERTEX
  8
0
  5
D135
 10
-385.784
 20
838.187
 30
0.000000
  70
    32
  0
VERTEX
  8
0
  5
D136
 10
-385.773
 20
838.186
 30
0.000000
  70
    32
  0
VERTEX
  8
0
  5
D137
 10
-385.762
 20
838.185
 30
0.000000
  70
    32
  0
VERTEX
  8
0
  5
D138
 10
-385.751
 20
838.184
 30
0.000000
  70
    32
  0
VERTEX
  8
0
  5
D139
 10
-385.740
 20
838.183
 30
0.000000
  70
    32
  0
VERTEX
  8
0
  5
D13A
 10
-385.729
 20
838.182
 30
0.000000
  70
    32
  0
VERTEX
  8
0
  5
D13B
 10
-385.718
 20
838.182
 30
0.000000
  70
    32
  0
VERTEX
  8
0
  5
D13C
 10
-385.707
 20
838.181
 30
0.000000
  70
    32
  0
VERTEX
  8
0
  5
D13D
 10
-385.696
 20
838.180
 30
0.000000
  70
    32
  0
VERTEX
  8
0
  5
D13E
 10
-385.685
 20
838.180
 30
0.000000
  70
    32
  0
VERTEX
  8
0
  5
D13F
 10
-385.674
 20
838.179
 30
0.000000
  70
    32
  0
VERTEX
  8
0
  5
D140
 10
-385.663
 20
838.178
 30
0.000000
  70
    32
  0
VERTEX
  8
0
  5
D141
 10
-385.652
 20
838.178
 30
0.000000
  70
    32
  0
VERTEX
  8
0
  5
D142
 10
-385.641
 20
838.177
 30
0.000000
  70
    32
  0
VERTEX
  8
0
  5
D143
 10
-385.630
 20
838.177
 30
0.000000
  70
    32
  0
VERTEX
  8
0
  5
D144
 10
-385.619
 20
838.177
 30
0.000000
  70
    32
  0
VERTEX
  8
0
  5
D145
 10
-385.608
 20
838.176
 30
0.000000
  70
    32
  0
VERTEX
  8
0
  5
D146
 10
-385.597
 20
838.176
 30
0.000000
  70
    32
  0
VERTEX
  8
0
  5
D147
 10
-385.586
 20
838.176
 30
0.000000
  70
    32
  0
VERTEX
  8
0
  5
D148
 10
-385.575
 20
838.176
 30
0.000000
  70
    32
  0
VERTEX
  8
0
  5
D149
 10
-385.564
 20
838.176
 30
0.000000
  70
    32
  0
VERTEX
  8
0
  5
D14A
 10
-385.553
 20
838.175
 30
0.000000
  70
    32
  0
VERTEX
  8
0
  5
D14B
 10
-385.542
 20
838.175
 30
0.000000
  70
    32
  0
VERTEX
  8
0
  5
D14C
 10
-385.531
 20
838.175
 30
0.000000
  70
    32
  0
VERTEX
  8
0
  5
D14D
 10
-385.520
 20
838.175
 30
0.000000
  70
    32
  0
VERTEX
  8
0
  5
D14E
 10
-385.509
 20
838.175
 30
0.000000
  70
    32
  0
VERTEX
  8
0
  5
D14F
 10
-385.498
 20
838.175
 30
0.000000
  70
    32
  0
VERTEX
  8
0
  5
D150
 10
-385.487
 20
838.175
 30
0.000000
  70
    32
  0
VERTEX
  8
0
  5
D151
 10
-385.476
 20
838.175
 30
0.000000
  70
    32
  0
VERTEX
  8
0
  5
D152
 10
-385.465
 20
838.175
 30
0.000000
  70
    32
  0
VERTEX
  8
0
  5
D153
 10
-385.454
 20
838.175
 30
0.000000
  70
    32
  0
VERTEX
  8
0
  5
D154
 10
-385.443
 20
838.175
 30
0.000000
  70
    32
  0
VERTEX
  8
0
  5
D155
 10
-385.432
 20
838.176
 30
0.000000
  70
    32
  0
VERTEX
  8
0
  5
D156
 10
-385.421
 20
838.176
 30
0.000000
  70
    32
  0
VERTEX
  8
0
  5
D157
 10
-385.410
 20
838.176
 30
0.000000
  70
    32
  0
VERTEX
  8
0
  5
D158
 10
-385.399
 20
838.176
 30
0.000000
  70
    32
  0
VERTEX
  8
0
  5
D159
 10
-385.388
 20
838.176
 30
0.000000
  70
    32
  0
VERTEX
  8
0
  5
D15A
 10
-385.377
 20
838.176
 30
0.000000
  70
    32
  0
VERTEX
  8
0
  5
D15B
 10
-385.366
 20
838.177
 30
0.000000
  70
    32
  0
VERTEX
  8
0
  5
D15C
 10
-385.355
 20
838.177
 30
0.000000
  70
    32
  0
VERTEX
  8
0
  5
D15D
 10
-385.344
 20
838.177
 30
0.000000
  70
    32
  0
VERTEX
  8
0
  5
D15E
 10
-385.333
 20
838.177
 30
0.000000
  70
    32
  0
VERTEX
  8
0
  5
D15F
 10
-385.322
 20
838.178
 30
0.000000
  70
    32
  0
VERTEX
  8
0
  5
D160
 10
-385.311
 20
838.178
 30
0.000000
  70
    32
  0
VERTEX
  8
0
  5
D161
 10
-385.300
 20
838.178
 30
0.000000
  70
    32
  0
VERTEX
  8
0
  5
D162
 10
-385.289
 20
838.178
 30
0.000000
  70
    32
  0
VERTEX
  8
0
  5
D163
 10
-385.278
 20
838.178
 30
0.000000
  70
    32
  0
VERTEX
  8
0
  5
D164
 10
-385.267
 20
838.179
 30
0.000000
  70
    32
  0
VERTEX
  8
0
  5
D165
 10
-385.256
 20
838.179
 30
0.000000
  70
    32
  0
VERTEX
  8
0
  5
D166
 10
-385.245
 20
838.179
 30
0.000000
  70
    32
  0
VERTEX
  8
0
  5
D167
 10
-385.234
 20
838.179
 30
0.000000
  70
    32
  0
VERTEX
  8
0
  5
D168
 10
-385.223
 20
838.179
 30
0.000000
  70
    32
  0
VERTEX
  8
0
  5
D169
 10
-385.212
 20
838.180
 30
0.000000
  70
    32
  0
VERTEX
  8
0
  5
D16A
 10
-385.201
 20
838.180
 30
0.000000
  70
    32
  0
VERTEX
  8
0
  5
D16B
 10
-385.190
 20
838.180
 30
0.000000
  70
    32
  0
VERTEX
  8
0
  5
D16C
 10
-385.179
 20
838.180
 30
0.000000
  70
    32
  0
VERTEX
  8
0
  5
D16D
 10
-385.168
 20
838.180
 30
0.000000
  70
    32
  0
VERTEX
  8
0
  5
D16E
 10
-385.157
 20
838.180
 30
0.000000
  70
    32
  0
VERTEX
  8
0
  5
D16F
 10
-385.146
 20
838.180
 30
0.000000
  70
    32
  0
VERTEX
  8
0
  5
D170
 10
-385.135
 20
838.181
 30
0.000000
  70
    32
  0
VERTEX
  8
0
  5
D171
 10
-385.124
 20
838.181
 30
0.000000
  70
    32
  0
VERTEX
  8
0
  5
D172
 10
-385.113
 20
838.181
 30
0.000000
  70
    32
  0
VERTEX
  8
0
  5
D173
 10
-385.102
 20
838.181
 30
0.000000
  70
    32
  0
VERTEX
  8
0
  5
D174
 10
-385.090
 20
838.181
 30
0.000000
  70
    32
  0
VERTEX
  8
0
  5
D175
 10
-385.079
 20
838.180
 30
0.000000
  70
    32
  0
VERTEX
  8
0
  5
D176
 10
-385.068
 20
838.180
 30
0.000000
  70
    32
  0
VERTEX
  8
0
  5
D177
 10
-385.057
 20
838.180
 30
0.000000
  70
    32
  0
VERTEX
  8
0
  5
D178
 10
-385.046
 20
838.180
 30
0.000000
  70
    32
  0
VERTEX
  8
0
  5
D179
 10
-385.035
 20
838.180
 30
0.000000
  70
    32
  0
VERTEX
  8
0
  5
D17A
 10
-385.024
 20
838.180
 30
0.000000
  70
    32
  0
VERTEX
  8
0
  5
D17B
 10
-385.013
 20
838.180
 30
0.000000
  70
    32
  0
VERTEX
  8
0
  5
D17C
 10
-385.002
 20
838.179
 30
0.000000
  70
    32
  0
VERTEX
  8
0
  5
D17D
 10
-384.991
 20
838.179
 30
0.000000
  70
    32
  0
VERTEX
  8
0
  5
D17E
 10
-384.980
 20
838.179
 30
0.000000
  70
    32
  0
VERTEX
  8
0
  5
D17F
 10
-384.969
 20
838.178
 30
0.000000
  70
    32
  0
VERTEX
  8
0
  5
D180
 10
-384.958
 20
838.178
 30
0.000000
  70
    32
  0
VERTEX
  8
0
  5
D181
 10
-384.947
 20
838.177
 30
0.000000
  70
    32
  0
VERTEX
  8
0
  5
D182
 10
-384.936
 20
838.177
 30
0.000000
  70
    32
  0
VERTEX
  8
0
  5
D183
 10
-384.925
 20
838.176
 30
0.000000
  70
    32
  0
VERTEX
  8
0
  5
D184
 10
-384.914
 20
838.176
 30
0.000000
  70
    32
  0
VERTEX
  8
0
  5
D185
 10
-384.903
 20
838.175
 30
0.000000
  70
    32
  0
VERTEX
  8
0
  5
D186
 10
-384.892
 20
838.174
 30
0.000000
  70
    32
  0
VERTEX
  8
0
  5
D187
 10
-384.881
 20
838.173
 30
0.000000
  70
    32
  0
VERTEX
  8
0
  5
D188
 10
-384.870
 20
838.173
 30
0.000000
  70
    32
  0
VERTEX
  8
0
  5
D189
 10
-384.858
 20
838.172
 30
0.000000
  70
    32
  0
VERTEX
  8
0
  5
D18A
 10
-384.847
 20
838.171
 30
0.000000
  70
    32
  0
VERTEX
  8
0
  5
D18B
 10
-384.836
 20
838.170
 30
0.000000
  70
    32
  0
VERTEX
  8
0
  5
D18C
 10
-384.825
 20
838.169
 30
0.000000
  70
    32
  0
VERTEX
  8
0
  5
D18D
 10
-384.814
 20
838.168
 30
0.000000
  70
    32
  0
VERTEX
  8
0
  5
D18E
 10
-384.803
 20
838.167
 30
0.000000
  70
    32
  0
VERTEX
  8
0
  5
D18F
 10
-384.792
 20
838.166
 30
0.000000
  70
    32
  0
VERTEX
  8
0
  5
D190
 10
-384.781
 20
838.165
 30
0.000000
  70
    32
  0
VERTEX
  8
0
  5
D191
 10
-384.770
 20
838.164
 30
0.000000
  70
    32
  0
VERTEX
  8
0
  5
D192
 10
-384.759
 20
838.162
 30
0.000000
  70
    32
  0
VERTEX
  8
0
  5
D193
 10
-384.748
 20
838.161
 30
0.000000
  70
    32
  0
VERTEX
  8
0
  5
D194
 10
-384.737
 20
838.160
 30
0.000000
  70
    32
  0
VERTEX
  8
0
  5
D195
 10
-384.726
 20
838.158
 30
0.000000
  70
    32
  0
VERTEX
  8
0
  5
D196
 10
-384.716
 20
838.157
 30
0.000000
  70
    32
  0
VERTEX
  8
0
  5
D197
 10
-384.705
 20
838.155
 30
0.000000
  70
    32
  0
VERTEX
  8
0
  5
D198
 10
-384.694
 20
838.154
 30
0.000000
  70
    32
  0
VERTEX
  8
0
  5
D199
 10
-384.683
 20
838.152
 30
0.000000
  70
    32
  0
VERTEX
  8
0
  5
D19A
 10
-384.672
 20
838.151
 30
0.000000
  70
    32
  0
VERTEX
  8
0
  5
D19B
 10
-384.661
 20
838.149
 30
0.000000
  70
    32
  0
VERTEX
  8
0
  5
D19C
 10
-384.650
 20
838.147
 30
0.000000
  70
    32
  0
VERTEX
  8
0
  5
D19D
 10
-384.639
 20
838.145
 30
0.000000
  70
    32
  0
VERTEX
  8
0
  5
D19E
 10
-384.628
 20
838.143
 30
0.000000
  70
    32
  0
VERTEX
  8
0
  5
D19F
 10
-384.617
 20
838.141
 30
0.000000
  70
    32
  0
VERTEX
  8
0
  5
D1A0
 10
-384.606
 20
838.139
 30
0.000000
  70
    32
  0
VERTEX
  8
0
  5
D1A1
 10
-384.596
 20
838.137
 30
0.000000
  70
    32
  0
VERTEX
  8
0
  5
D1A2
 10
-384.585
 20
838.135
 30
0.000000
  70
    32
  0
VERTEX
  8
0
  5
D1A3
 10
-384.574
 20
838.133
 30
0.000000
  70
    32
  0
VERTEX
  8
0
  5
D1A4
 10
-384.563
 20
838.131
 30
0.000000
  70
    32
  0
VERTEX
  8
0
  5
D1A5
 10
-384.552
 20
838.128
 30
0.000000
  70
    32
  0
VERTEX
  8
0
  5
D1A6
 10
-384.542
 20
838.126
 30
0.000000
  70
    32
  0
VERTEX
  8
0
  5
D1A7
 10
-384.531
 20
838.124
 30
0.000000
  70
    32
  0
VERTEX
  8
0
  5
D1A8
 10
-384.520
 20
838.121
 30
0.000000
  70
    32
  0
VERTEX
  8
0
  5
D1A9
 10
-384.509
 20
838.119
 30
0.000000
  70
    32
  0
VERTEX
  8
0
  5
D1AA
 10
-384.499
 20
838.116
 30
0.000000
  70
    32
  0
VERTEX
  8
0
  5
D1AB
 10
-384.488
 20
838.113
 30
0.000000
  70
    32
  0
VERTEX
  8
0
  5
D1AC
 10
-384.477
 20
838.111
 30
0.000000
  70
    32
  0
VERTEX
  8
0
  5
D1AD
 10
-384.467
 20
838.108
 30
0.000000
  70
    32
  0
VERTEX
  8
0
  5
D1AE
 10
-384.456
 20
838.105
 30
0.000000
  70
    32
  0
VERTEX
  8
0
  5
D1AF
 10
-384.445
 20
838.102
 30
0.000000
  70
    32
  0
VERTEX
  8
0
  5
D1B0
 10
-384.435
 20
838.099
 30
0.000000
  70
    32
  0
VERTEX
  8
0
  5
D1B1
 10
-384.424
 20
838.096
 30
0.000000
  70
    32
  0
VERTEX
  8
0
  5
D1B2
 10
-384.414
 20
838.093
 30
0.000000
  70
    32
  0
VERTEX
  8
0
  5
D1B3
 10
-384.403
 20
838.089
 30
0.000000
  70
    32
  0
VERTEX
  8
0
  5
D1B4
 10
-384.392
 20
838.086
 30
0.000000
  70
    32
  0
VERTEX
  8
0
  5
D1B5
 10
-384.382
 20
838.083
 30
0.000000
  70
    32
  0
VERTEX
  8
0
  5
D1B6
 10
-384.372
 20
838.079
 30
0.000000
  70
    32
  0
VERTEX
  8
0
  5
D1B7
 10
-384.361
 20
838.076
 30
0.000000
  70
    32
  0
VERTEX
  8
0
  5
D1B8
 10
-384.351
 20
838.072
 30
0.000000
  70
    32
  0
VERTEX
  8
0
  5
D1B9
 10
-384.340
 20
838.068
 30
0.000000
  70
    32
  0
VERTEX
  8
0
  5
D1BA
 10
-384.330
 20
838.064
 30
0.000000
  70
    32
  0
VERTEX
  8
0
  5
D1BB
 10
-384.320
 20
838.060
 30
0.000000
  70
    32
  0
VERTEX
  8
0
  5
D1BC
 10
-384.310
 20
838.056
 30
0.000000
  70
    32
  0
VERTEX
  8
0
  5
D1BD
 10
-384.299
 20
838.052
 30
0.000000
  70
    32
  0
VERTEX
  8
0
  5
D1BE
 10
-384.289
 20
838.047
 30
0.000000
  70
    32
  0
VERTEX
  8
0
  5
D1BF
 10
-384.279
 20
838.043
 30
0.000000
  70
    32
  0
VERTEX
  8
0
  5
D1C0
 10
-384.269
 20
838.038
 30
0.000000
  70
    32
  0
VERTEX
  8
0
  5
D1C1
 10
-384.259
 20
838.033
 30
0.000000
  70
    32
  0
VERTEX
  8
0
  5
D1C2
 10
-384.249
 20
838.028
 30
0.000000
  70
    32
  0
VERTEX
  8
0
  5
D1C3
 10
-384.240
 20
838.023
 30
0.000000
  70
    32
  0
VERTEX
  8
0
  5
D1C4
 10
-384.230
 20
838.017
 30
0.000000
  70
    32
  0
VERTEX
  8
0
  5
D1C5
 10
-384.220
 20
838.012
 30
0.000000
  70
    32
  0
VERTEX
  8
0
  5
D1C6
 10
-384.211
 20
838.006
 30
0.000000
  70
    32
  0
VERTEX
  8
0
  5
D1C7
 10
-384.201
 20
838.001
 30
0.000000
  70
    32
  0
VERTEX
  8
0
  5
D1C8
 10
-384.192
 20
837.995
 30
0.000000
  70
    32
  0
VERTEX
  8
0
  5
D1C9
 10
-384.183
 20
837.988
 30
0.000000
  70
    32
  0
VERTEX
  8
0
  5
D1CA
 10
-384.173
 20
837.982
 30
0.000000
  70
    32
  0
VERTEX
  8
0
  5
D1CB
 10
-384.164
 20
837.976
 30
0.000000
  70
    32
  0
VERTEX
  8
0
  5
D1CC
 10
-384.155
 20
837.969
 30
0.000000
  70
    32
  0
VERTEX
  8
0
  5
D1CD
 10
-384.147
 20
837.962
 30
0.000000
  70
    32
  0
VERTEX
  8
0
  5
D1CE
 10
-384.138
 20
837.956
 30
0.000000
  70
    32
  0
VERTEX
  8
0
  5
D1CF
 10
-384.129
 20
837.948
 30
0.000000
  70
    32
  0
VERTEX
  8
0
  5
D1D0
 10
-384.121
 20
837.941
 30
0.000000
  70
    32
  0
VERTEX
  8
0
  5
D1D1
 10
-384.113
 20
837.934
 30
0.000000
  70
    32
  0
VERTEX
  8
0
  5
D1D2
 10
-384.105
 20
837.926
 30
0.000000
  70
    32
  0
VERTEX
  8
0
  5
D1D3
 10
-384.097
 20
837.918
 30
0.000000
  70
    32
  0
VERTEX
  8
0
  5
D1D4
 10
-384.089
 20
837.911
 30
0.000000
  70
    32
  0
VERTEX
  8
0
  5
D1D5
 10
-384.082
 20
837.902
 30
0.000000
  70
    32
  0
VERTEX
  8
0
  5
D1D6
 10
-384.074
 20
837.894
 30
0.000000
  70
    32
  0
VERTEX
  8
0
  5
D1D7
 10
-384.067
 20
837.886
 30
0.000000
  70
    32
  0
VERTEX
  8
0
  5
D1D8
 10
-384.060
 20
837.877
 30
0.000000
  70
    32
  0
VERTEX
  8
0
  5
D1D9
 10
-384.053
 20
837.868
 30
0.000000
  70
    32
  0
VERTEX
  8
0
  5
D1DA
 10
-384.047
 20
837.859
 30
0.000000
  70
    32
  0
VERTEX
  8
0
  5
D1DB
 10
-384.040
 20
837.850
 30
0.000000
  70
    32
  0
VERTEX
  8
0
  5
D1DC
 10
-384.034
 20
837.841
 30
0.000000
  70
    32
  0
VERTEX
  8
0
  5
D1DD
 10
-384.028
 20
837.832
 30
0.000000
  70
    32
  0
VERTEX
  8
0
  5
D1DE
 10
-384.022
 20
837.822
 30
0.000000
  70
    32
  0
VERTEX
  8
0
  5
D1DF
 10
-384.017
 20
837.813
 30
0.000000
  70
    32
  0
VERTEX
  8
0
  5
D1E0
 10
-384.011
 20
837.803
 30
0.000000
  70
    32
  0
VERTEX
  8
0
  5
D1E1
 10
-384.006
 20
837.794
 30
0.000000
  70
    32
  0
VERTEX
  8
0
  5
D1E2
 10
-384.001
 20
837.784
 30
0.000000
  70
    32
  0
VERTEX
  8
0
  5
D1E3
 10
-383.996
 20
837.774
 30
0.000000
  70
    32
  0
VERTEX
  8
0
  5
D1E4
 10
-383.992
 20
837.764
 30
0.000000
  70
    32
  0
VERTEX
  8
0
  5
D1E5
 10
-383.987
 20
837.754
 30
0.000000
  70
    32
  0
VERTEX
  8
0
  5
D1E6
 10
-383.983
 20
837.743
 30
0.000000
  70
    32
  0
VERTEX
  8
0
  5
D1E7
 10
-383.979
 20
837.733
 30
0.000000
  70
    32
  0
VERTEX
  8
0
  5
D1E8
 10
-383.976
 20
837.723
 30
0.000000
  70
    32
  0
VERTEX
  8
0
  5
D1E9
 10
-383.972
 20
837.712
 30
0.000000
  70
    32
  0
VERTEX
  8
0
  5
D1EA
 10
-383.969
 20
837.701
 30
0.000000
  70
    32
  0
VERTEX
  8
0
  5
D1EB
 10
-383.966
 20
837.690
 30
0.000000
  70
    32
  0
VERTEX
  8
0
  5
D1EC
 10
-383.964
 20
837.678
 30
0.000000
  70
    32
  0
VERTEX
  8
0
  5
D1ED
 10
-383.961
 20
837.666
 30
0.000000
  70
    32
  0
VERTEX
  8
0
  5
D1EE
 10
-383.959
 20
837.654
 30
0.000000
  70
    32
  0
VERTEX
  8
0
  5
D1EF
 10
-383.957
 20
837.641
 30
0.000000
  70
    32
  0
VERTEX
  8
0
  5
D1F0
 10
-383.955
 20
837.628
 30
0.000000
  70
    32
  0
VERTEX
  8
0
  5
D1F1
 10
-383.954
 20
837.614
 30
0.000000
  70
    32
  0
VERTEX
  8
0
  5
D1F2
 10
-383.953
 20
837.600
 30
0.000000
  70
    32
  0
VERTEX
  8
0
  5
D1F3
 10
-383.952
 20
837.585
 30
0.000000
  70
    32
  0
VERTEX
  8
0
  5
D1F4
 10
-383.951
 20
837.570
 30
0.000000
  70
    32
  0
VERTEX
  8
0
  5
D1F5
 10
-383.951
 20
837.554
 30
0.000000
  70
    32
  0
VERTEX
  8
0
  5
D1F6
 10
-383.951
 20
837.538
 30
0.000000
  70
    32
  0
VERTEX
  8
0
  5
D1F7
 10
-383.951
 20
837.520
 30
0.000000
  70
    32
  0
VERTEX
  8
0
  5
D1F8
 10
-383.952
 20
837.502
 30
0.000000
  70
    32
  0
VERTEX
  8
0
  5
D1F9
 10
-383.953
 20
837.484
 30
0.000000
  70
    32
  0
VERTEX
  8
0
  5
D1FA
 10
-383.954
 20
837.464
 30
0.000000
  70
    32
  0
VERTEX
  8
0
  5
D1FB
 10
-383.955
 20
837.444
 30
0.000000
  70
    32
  0
VERTEX
  8
0
  5
D1FC
 10
-383.957
 20
837.423
 30
0.000000
  70
    32
  0
VERTEX
  8
0
  5
D1FD
 10
-383.959
 20
837.401
 30
0.000000
  70
    32
  0
VERTEX
  8
0
  5
D1FE
 10
-383.962
 20
837.378
 30
0.000000
  70
    32
  0
VERTEX
  8
0
  5
D1FF
 10
-383.964
 20
837.354
 30
0.000000
  70
    32
  0
VERTEX
  8
0
  5
D200
 10
-383.967
 20
837.329
 30
0.000000
  70
    32
  0
VERTEX
  8
0
  5
D201
 10
-383.971
 20
837.303
 30
0.000000
  70
    32
  0
VERTEX
  8
0
  5
D202
 10
-383.975
 20
837.276
 30
0.000000
  70
    32
  0
SEQEND
  8
0
  5
D203
  0
VIEWPORT
  5
BADA
 67
     1
  8
0
 10
5.249999665167536
 20
4.0168608648543129
 30
0.0
 40
16.212536403349191
 41
8.0154416672020492
 68
     1
 69
     1
1001
ACAD
1000
MVIEW
1002
{
1070
    16
1010
0.0
1020
0.0
1030
0.0
1010
0.0
1020
0.0
1030
1.0
1040
0.0
1040
8.0154416672020492
1040
5.249999665167536
1040
4.0168608648543129
1040
50.0
1040
0.0
1040
0.0
1070
     0
1070
   100
1070
     1
1070
     1
1070
     0
1070
     0
1070
     0
1070
     0
1040
0.0
1040
0.0
1040
0.0
1040
0.5
1040
0.5
1040
0.5
1040
0.5
1070
     0
1002
{
1002
}
1002
}
  0
VIEWPORT
  5
BADD
 67
     1
  8
0
 10
5.2499996294871929
 20
4.0166741807634683
 30
0.0
 40
10.44245679893058
 41
7.8813805131999892
 68
     2
 69
     2
1001
ACAD
1000
MVIEW
1002
{
1070
    16
1010
0.0
1020
0.0
1030
0.0
1010
0.0
1020
0.0
1030
1.0
1040
0.0
1040
7.8813805007985804
1040
-386.27910609723159
1040
838.13175072271338
1040
50.0
1040
0.0
1040
0.0
1070
     0
1070
   100
1070
     1
1070
     2
1070
     0
1070
     0
1070
     0
1070
     0
1040
0.0
1040
0.0
1040
0.0
1040
0.5
1040
0.5
1040
0.5
1040
0.5
1070
     0
1002
{
1002
}
1002
}
  0
ENDSEC
  0
EOF
