  0
SECTION
  2
HEADER
  9
$ACADVER
  1
AC1009
  9
$INSBASE
 10
0.0
 20
0.0
 30
0.0
  9
$EXTMIN
 10
-390.21280206415412
 20
834.65667183693085
 30
0.0
  9
$EXTMAX
 10
-380.21353317307199
 20
845.38586254496488
 30
0.0
  9
$LIMMIN
 10
0.0
 20
0.0
  9
$LIMMAX
 10
1500.0
 20
1500.0
  9
$ORTHOMODE
 70
     0
  9
$REGENMODE
 70
     1
  9
$FILLMODE
 70
     1
  9
$QTEXTMODE
 70
     0
  9
$MIRRTEXT
 70
     1
  9
$DRAGMODE
 70
     2
  9
$LTSCALE
 40
1.0
  9
$OSMODE
 70
    37
  9
$ATTMODE
 70
     1
  9
$TEXTSIZE
 40
1.5
  9
$TRACEWID
 40
0.05
  9
$TEXTSTYLE
  7
STANDARD
  9
$CLAYER
  8
0
  9
$CELTYPE
  6
BYLAYER
  9
$CECOLOR
 62
   256
  9
$DIMSCALE
 40
1.0
  9
$DIMASZ
 40
0.75
  9
$DIMEXO
 40
1.5
  9
$DIMDLI
 40
2.0
  9
$DIMRND
 40
0.0
  9
$DIMDLE
 40
0.0
  9
$DIMEXE
 40
1.0
  9
$DIMTP
 40
0.0
  9
$DIMTM
 40
0.0
  9
$DIMTXT
 40
1.5
  9
$DIMCEN
 40
2.0
  9
$DIMTSZ
 40
0.0
  9
$DIMTOL
 70
     0
  9
$DIMLIM
 70
     0
  9
$DIMTIH
 70
     0
  9
$DIMTOH
 70
     0
  9
$DIMSE1
 70
     0
  9
$DIMSE2
 70
     0
  9
$DIMTAD
 70
     1
  9
$DIMZIN
 70
     0
  9
$DIMBLK
  1
ARCHTICK
  9
$DIMASO
 70
     1
  9
$DIMSHO
 70
     1
  9
$DIMPOST
  1
"
  9
$DIMAPOST
  1

  9
$DIMALT
 70
     0
  9
$DIMALTD
 70
     2
  9
$DIMALTF
 40
25.399999999999999
  9
$DIMLFAC
 40
1.0
  9
$DIMTOFL
 70
     0
  9
$DIMTVP
 40
0.0
  9
$DIMTIX
 70
     1
  9
$DIMSOXD
 70
     0
  9
$DIMSAH
 70
     0
  9
$DIMBLK1
  1

  9
$DIMBLK2
  1

  9
$DIMSTYLE
  2
THREE_QUARTER_INCH_SCALE
  9
$DIMCLRD
 70
     0
  9
$DIMCLRE
 70
     0
  9
$DIMCLRT
 70
     0
  9
$DIMTFAC
 40
1.0
  9
$DIMGAP
 40
1.0
  9
$LUNITS
 70
     2
  9
$LUPREC
 70
     4
  9
$SKETCHINC
 40
0.1
  9
$FILLETRAD
 40
0.0
  9
$AUNITS
 70
     0
  9
$AUPREC
 70
     0
  9
$MENU
  1
.
  9
$ELEVATION
 40
0.0
  9
$PELEVATION
 40
0.0
  9
$THICKNESS
 40
0.0
  9
$LIMCHECK
 70
     0
  9
$BLIPMODE
 70
     0
  9
$CHAMFERA
 40
0.5
  9
$CHAMFERB
 40
0.5
  9
$SKPOLY
 70
     0
  9
$TDCREATE
 40
2452089.395738773
  9
$TDUPDATE
 40
2453612.4498893172
  9
$TDINDWG
 40
1.1312620023
  9
$TDUSRTIMER
 40
1.1312616435
  9
$USRTIMER
 70
     1
  9
$ANGBASE
 50
0.0
  9
$ANGDIR
 70
     0
  9
$PDMODE
 70
     0
  9
$PDSIZE
 40
10.0
  9
$PLINEWID
 40
0.0
  9
$COORDS
 70
     1
  9
$SPLFRAME
 70
     0
  9
$SPLINETYPE
 70
     6
  9
$SPLINESEGS
 70
     8
  9
$ATTDIA
 70
     0
  9
$ATTREQ
 70
     1
  9
$HANDLING
 70
     1
  9
$HANDSEED
  5
20B70
  9
$SURFTAB1
 70
     6
  9
$SURFTAB2
 70
     6
  9
$SURFTYPE
 70
     6
  9
$SURFU
 70
     6
  9
$SURFV
 70
     6
  9
$UCSNAME
  2

  9
$UCSORG
 10
0.0
 20
0.0
 30
0.0
  9
$UCSXDIR
 10
1.0
 20
0.0
 30
0.0
  9
$UCSYDIR
 10
0.0
 20
1.0
 30
0.0
  9
$PUCSNAME
  2

  9
$PUCSORG
 10
0.0
 20
0.0
 30
0.0
  9
$PUCSXDIR
 10
1.0
 20
0.0
 30
0.0
  9
$PUCSYDIR
 10
0.0
 20
1.0
 30
0.0
  9
$USERI1
 70
     0
  9
$USERI2
 70
     0
  9
$USERI3
 70
     0
  9
$USERI4
 70
     0
  9
$USERI5
 70
     0
  9
$USERR1
 40
0.0
  9
$USERR2
 40
0.0
  9
$USERR3
 40
0.0
  9
$USERR4
 40
0.0
  9
$USERR5
 40
0.0
  9
$WORLDVIEW
 70
     1
  9
$SHADEDGE
 70
     3
  9
$SHADEDIF
 70
    70
  9
$TILEMODE
 70
     0
  9
$MAXACTVP
 70
    64
  9
$PLIMCHECK
 70
     0
  9
$PEXTMIN
 10
0.0280982296770773
 20
0.0758747945053777
 30
-0.0000000000000058
  9
$PEXTMAX
 10
10.47163505903136
 20
7.9578465084694647
 30
0.0000000000000104
  9
$PLIMMIN
 10
-0.1682389550263349
 20
-0.2033427855578579
  9
$PLIMMAX
 10
10.754640548407011
 20
8.2370640492290015
  9
$UNITMODE
 70
     0
  9
$VISRETAIN
 70
     1
  9
$PLINEGEN
 70
     0
  9
$PSLTSCALE
 70
     1
  0
ENDSEC
  0
SECTION
  2
TABLES
  0
TABLE
  2
VPORT
 70
     1
  0
VPORT
  2
*ACTIVE
 70
     0
 10
0.0
 20
0.0
 11
1.0
 21
1.0
 12
-386.52380251144001
 22
838.09204166179234
 13
0.0
 23
0.0
 14
0.5
 24
0.5
 15
0.5
 25
0.5
 16
0.0
 26
0.0
 36
1.0
 17
0.0
 27
0.0
 37
0.0
 40
3.930952126162941
 41
2.0226628895184122
 42
50.0
 43
0.0
 44
0.0
 50
0.0
 51
0.0
 71
     0
 72
   100
 73
     1
 74
     2
 75
     0
 76
     0
 77
     0
 78
     0
  0
ENDTAB
  0
TABLE
  2
LTYPE
 70
     2
  0
LTYPE
  2
CONTINUOUS
 70
     0
  3
Solid line
 72
    65
 73
     0
 40
0.0
  0
ENDTAB
  0
TABLE
  2
LAYER
 70
    10
  0
LAYER
  2
0
 70
     0
 62
     7
  6
CONTINUOUS
  0
LAYER
  2
DEFPOINTS
 70
     0
 62
     7
  6
CONTINUOUS
  0
LAYER
  2
FRAME_200
 70
     0
 62
     8
  6
CONTINUOUS
  0
LAYER
  2
FRAME_070
 70
     0
 62
     5
  6
CONTINUOUS
  0
LAYER
  2
FRAME_050
 70
     0
 62
     6
  6
CONTINUOUS
  0
LAYER
  2
TITLE_BLOCK
 70
     0
 62
     7
  6
CONTINUOUS
  0
LAYER
  2
FRAME_025
 70
     0
 62
     7
  6
CONTINUOUS
  0
LAYER
  2
VIEWPORT
 70
     0
 62
     7
  6
CONTINUOUS
  0
LAYER
  2
PROF
 70
     0
 62
     7
  6
CONTINUOUS
  0
LAYER
  2
PROFILE
 70
     0
 62
     7
  6
CONTINUOUS
  0
ENDTAB
  0
TABLE
  2
STYLE
 70
     2
  0
STYLE
  2
STANDARD
 70
     0
 40
0.0
 41
1.0
 50
0.0
 71
     0
 42
1.5
  3
txt
  4

  0
STYLE
  2
ISO_PROPORTIONAL
 70
     0
 40
0.0
 41
1.0
 50
0.0
 71
     0
 42
2.5
  3
isocp.shx
  4

  0
ENDTAB
  0
TABLE
  2
VIEW
 70
     3
  0
ENDTAB
  0
TABLE
  2
UCS
 70
     0
  0
ENDTAB
  0
TABLE
  2
APPID
 70
     6
  0
APPID
  2
ACAD
 70
     0
  0
APPID
  2
DCO15
 70
     0
  0
APPID
  2
ACAD_EXEMPT_FROM_CAD_STANDARDS
 70
     0
  0
APPID
  2
ACAD_PSEXT
 70
     0
  0
APPID
  2
CONTENTBLOCKDESCRIPTION
 70
     0
  0
APPID
  2
CONTENTBLOCKICON
 70
     0
  0
ENDTAB
  0
TABLE
  2
DIMSTYLE
 70
    11
  0
DIMSTYLE
  2
FULL_SCALE
 70
     0
  3
"
  4

  5

  6

  7

 40
1.0
 41
0.046875
 42
0.09375
 43
0.125
 44
0.0625
 45
0.0
 46
0.0
 47
0.0
 48
0.0
140
0.125
141
0.125
142
0.0
143
25.399999999999999
144
1.0
145
0.0
146
1.0
147
0.0625
 71
     0
 72
     0
 73
     0
 74
     0
 75
     0
 76
     0
 77
     1
 78
     0
170
     0
171
     2
172
     0
173
     0
174
     1
175
     0
176
     0
177
     0
178
     0
  0
DIMSTYLE
  2
HALF_SCALE
 70
     0
  3
"
  4

  5

  6

  7

 40
1.0
 41
0.09375
 42
0.1875
 43
0.25
 44
0.125
 45
0.0
 46
0.0
 47
0.0
 48
0.0
140
0.25
141
0.25
142
0.0
143
25.399999999999999
144
1.0
145
0.0
146
1.0
147
0.125
 71
     0
 72
     0
 73
     0
 74
     0
 75
     0
 76
     0
 77
     1
 78
     0
170
     0
171
     2
172
     0
173
     0
174
     1
175
     0
176
     0
177
     0
178
     0
  0
DIMSTYLE
  2
INCH_SCALE
 70
     0
  3
"
  4

  5

  6

  7

 40
1.0
 41
0.5625
 42
1.125
 43
1.5
 44
0.75
 45
0.0
 46
0.0
 47
0.0
 48
0.0
140
1.125
141
1.5
142
0.0
143
25.399999999999999
144
1.0
145
0.0
146
1.0
147
0.75
 71
     0
 72
     0
 73
     0
 74
     0
 75
     0
 76
     0
 77
     1
 78
     0
170
     0
171
     2
172
     0
173
     0
174
     1
175
     0
176
     0
177
     0
178
     0
  0
DIMSTYLE
  2
THREE_QUARTER_INCH_SCALE
 70
     0
  3
"
  4

  5

  6

  7

 40
1.0
 41
0.75
 42
1.5
 43
2.0
 44
1.0
 45
0.0
 46
0.0
 47
0.0
 48
0.0
140
1.5
141
2.0
142
0.0
143
25.399999999999999
144
1.0
145
0.0
146
1.0
147
1.0
 71
     0
 72
     0
 73
     0
 74
     0
 75
     0
 76
     0
 77
     1
 78
     0
170
     0
171
     2
172
     0
173
     0
174
     1
175
     0
176
     0
177
     0
178
     0
  0
DIMSTYLE
  2
ZHALF_INCH_SCALE
 70
     0
  3
"
  4

  5

  6

  7

 40
1.0
 41
1.125
 42
2.25
 43
3.0
 44
1.5
 45
0.0
 46
0.0
 47
0.0
 48
0.0
140
2.25
141
3.0
142
0.0
143
25.399999999999999
144
1.0
145
0.0
146
1.0
147
1.5
 71
     0
 72
     0
 73
     0
 74
     0
 75
     0
 76
     0
 77
     1
 78
     0
170
     0
171
     2
172
     0
173
     0
174
     1
175
     0
176
     0
177
     0
178
     0
  0
DIMSTYLE
  2
FULL_SCALE0
 70
     0
  3
"
  4

  5
ARCHTICK
  6

  7

 40
1.0
 41
0.046875
 42
0.09375
 43
0.125
 44
0.0625
 45
0.0
 46
0.0
 47
0.0
 48
0.0
140
0.125
141
0.125
142
0.0
143
25.399999999999999
144
1.0
145
0.0
146
1.0
147
0.0625
 71
     0
 72
     0
 73
     0
 74
     0
 75
     0
 76
     0
 77
     1
 78
     0
170
     0
171
     2
172
     0
173
     0
174
     1
175
     0
176
     0
177
     0
178
     0
  0
DIMSTYLE
  2
HALF_SCALE0
 70
     0
  3
"
  4

  5
ARCHTICK
  6

  7

 40
1.0
 41
0.09375
 42
0.1875
 43
0.25
 44
0.125
 45
0.0
 46
0.0
 47
0.0
 48
0.0
140
0.25
141
0.25
142
0.0
143
25.399999999999999
144
1.0
145
0.0
146
1.0
147
0.125
 71
     0
 72
     0
 73
     0
 74
     0
 75
     0
 76
     0
 77
     1
 78
     0
170
     0
171
     2
172
     0
173
     0
174
     1
175
     0
176
     0
177
     0
178
     0
  0
DIMSTYLE
  2
INCH_SCALE0
 70
     0
  3
"
  4

  5
ARCHTICK
  6

  7

 40
1.0
 41
0.5625
 42
1.125
 43
1.5
 44
0.75
 45
0.0
 46
0.0
 47
0.0
 48
0.0
140
1.125
141
1.5
142
0.0
143
25.399999999999999
144
1.0
145
0.0
146
1.0
147
0.75
 71
     0
 72
     0
 73
     0
 74
     0
 75
     0
 76
     0
 77
     1
 78
     0
170
     0
171
     2
172
     0
173
     0
174
     1
175
     0
176
     0
177
     0
178
     0
  0
DIMSTYLE
  2
THREE_QUARTER_INCH_SCALE0
 70
     0
  3
"
  4

  5
ARCHTICK
  6

  7

 40
1.0
 41
0.75
 42
1.5
 43
2.0
 44
1.0
 45
0.0
 46
0.0
 47
0.0
 48
0.0
140
1.5
141
2.0
142
0.0
143
25.399999999999999
144
1.0
145
0.0
146
1.0
147
1.0
 71
     0
 72
     0
 73
     0
 74
     0
 75
     0
 76
     0
 77
     1
 78
     0
170
     0
171
     2
172
     0
173
     0
174
     1
175
     0
176
     0
177
     0
178
     0
  0
DIMSTYLE
  2
ZHALF_INCH_SCALE0
 70
     0
  3
"
  4

  5
ARCHTICK
  6

  7

 40
1.0
 41
1.125
 42
2.25
 43
3.0
 44
1.5
 45
0.0
 46
0.0
 47
0.0
 48
0.0
140
2.25
141
3.0
142
0.0
143
25.399999999999999
144
1.0
145
0.0
146
1.0
147
1.5
 71
     0
 72
     0
 73
     0
 74
     0
 75
     0
 76
     0
 77
     1
 78
     0
170
     0
171
     2
172
     0
173
     0
174
     1
175
     0
176
     0
177
     0
178
     0
  0
ENDTAB
  0
ENDSEC
  0
SECTION
  2
BLOCKS
  0
BLOCK
  8
0
  2
$MODEL_SPACE
 70
     0
 10
0.0
 20
0.0
 30
0.0
  3
$MODEL_SPACE
  1

  0
ENDBLK
  5
C9DC
  8
0
  0
BLOCK
 67
     1
  8
0
  2
$PAPER_SPACE
 70
     0
 10
0.0
 20
0.0
 30
0.0
  3
$PAPER_SPACE
  1

  0
ENDBLK
  5
C9D8
 67
     1
  8
0
  0
BLOCK
  8
0
  2
_ARCHTICK
 70
     0
 10
0.0
 20
0.0
 30
0.0
  3
_ARCHTICK
  1

  0
POLYLINE
  5
158
  8
0
  6
BYBLOCK
 62
     0
 66
     1
 10
0.0
 20
0.0
 30
0.0
 40
0.15
 41
0.15
  0
VERTEX
  5
203D3
  8
0
  6
BYBLOCK
 62
     0
 10
-0.5
 20
-0.5
 30
0.0
  0
VERTEX
  5
203D4
  8
0
  6
BYBLOCK
 62
     0
 10
0.5
 20
0.5
 30
0.0
  0
SEQEND
  5
203D5
  8
0
  6
BYBLOCK
 62
     0
  0
ENDBLK
  5
15A
  8
0
  0
BLOCK
  8
0
  2
_OPEN30
 70
     0
 10
0.0
 20
0.0
 30
0.0
  3
_OPEN30
  1

  0
LINE
  5
15C
  8
0
  6
BYBLOCK
 62
     0
 10
-1.0
 20
0.26794919
 30
0.0
 11
0.0
 21
0.0
 31
0.0
  0
LINE
  5
15D
  8
0
  6
BYBLOCK
 62
     0
 10
0.0
 20
0.0
 30
0.0
 11
-1.0
 21
-0.26794919
 31
0.0
  0
LINE
  5
15E
  8
0
  6
BYBLOCK
 62
     0
 10
0.0
 20
0.0
 30
0.0
 11
-1.0
 21
0.0
 31
0.0
  0
ENDBLK
  5
160
  8
0
  0
BLOCK
  8
0
  2
ISO_A2_TITLE_BLOCK
 70
     2
 10
0.0
 20
0.0
 30
0.0
  3
ISO_A2_TITLE_BLOCK
  1

  0
LINE
  5
BDD
  8
FRAME_050
 10
299.5
 20
12.5
 30
0.0
 11
297.0
 21
7.5
 31
0.0
  0
LINE
  5
BDE
  8
FRAME_050
 10
294.5
 20
12.5
 30
0.0
 11
299.5
 21
12.5
 31
0.0
  0
LINE
  5
BDF
  8
FRAME_050
 10
247.0
 20
5.0
 30
0.0
 11
347.0
 21
5.0
 31
0.0
  0
LINE
  5
BE0
  8
FRAME_070
 10
584.0
 20
410.0
 30
0.0
 11
10.0
 21
410.0
 31
0.0
  0
LINE
  5
BE1
  8
FRAME_070
 10
10.0
 20
10.0
 30
0.0
 11
584.0
 21
10.0
 31
0.0
  0
LINE
  5
BE2
  8
FRAME_050
 10
12.5
 20
207.5
 30
0.0
 11
7.5
 21
210.0
 31
0.0
  0
LINE
  5
BE3
  8
FRAME_050
 10
12.5
 20
212.5
 30
0.0
 11
12.5
 21
207.5
 31
0.0
  0
LINE
  5
BE4
  8
FRAME_070
 10
10.0
 20
410.0
 30
0.0
 11
10.0
 21
10.0
 31
0.0
  0
LINE
  5
BE5
  8
FRAME_200
 10
0.0
 20
0.0
 30
0.0
 11
0.0
 21
10.0
 31
0.0
  0
LINE
  5
BE6
  8
FRAME_200
 10
0.0
 20
0.0
 30
0.0
 11
10.0
 21
0.0
 31
0.0
  0
TEXT
  5
BE7
  8
FRAME_050
 10
5.9000000000000004
 20
35.0
 30
0.0
 40
4.0
  1
H
  7
ISO_PROPORTIONAL
 72
     4
 11
7.5
 21
37.0
 31
0.0
  0
LINE
  5
BE8
  8
FRAME_050
 10
10.0
 20
60.0
 30
0.0
 11
5.0
 21
60.0
 31
0.0
  0
LINE
  5
BE9
  8
FRAME_050
 10
81.75
 20
5.0
 30
0.0
 11
81.75
 21
10.0
 31
0.0
  0
TEXT
  5
BEA
  8
FRAME_050
 10
44.874999999999993
 20
5.5
 30
0.0
 40
4.0
  1
1
  7
ISO_PROPORTIONAL
 72
     4
 11
45.875
 21
7.5
 31
0.0
  0
TEXT
  5
BEB
  8
FRAME_050
 10
6.0035533905932743
 20
85.0
 30
0.0
 40
4.0
  1
G
  7
ISO_PROPORTIONAL
 72
     4
 11
7.5
 21
87.0
 31
0.0
  0
LINE
  5
BEC
  8
FRAME_050
 10
10.0
 20
110.0
 30
0.0
 11
5.0
 21
110.0
 31
0.0
  0
TEXT
  5
BED
  8
FRAME_050
 10
6.0999999999999988
 20
135.0
 30
0.0
 40
4.0
  1
F
  7
ISO_PROPORTIONAL
 72
     4
 11
7.5
 21
137.0
 31
0.0
  0
LINE
  5
BEE
  8
FRAME_050
 10
10.0
 20
160.0
 30
0.0
 11
5.0
 21
160.0
 31
0.0
  0
TEXT
  5
BEF
  8
FRAME_050
 10
6.0999999999999988
 20
185.0
 30
0.0
 40
4.0
  1
E
  7
ISO_PROPORTIONAL
 72
     4
 11
7.5
 21
187.0
 31
0.0
  0
LINE
  5
BF0
  8
FRAME_050
 10
153.5
 20
5.0
 30
0.0
 11
153.5
 21
10.0
 31
0.0
  0
TEXT
  5
BF1
  8
FRAME_050
 10
116.1556692913386
 20
5.3996062992125982
 30
0.0
 40
4.0
  1
2
  7
ISO_PROPORTIONAL
 72
     4
 11
117.625
 21
7.5
 31
0.0
  0
TEXT
  5
BF2
  8
FRAME_050
 10
187.89215728752529
 20
5.5828427124746138
 30
0.0
 40
4.0
  1
3
  7
ISO_PROPORTIONAL
 72
     4
 11
189.375
 21
7.5
 31
0.0
  0
LINE
  5
BF3
  8
FRAME_050
 10
225.25
 20
5.0
 30
0.0
 11
225.25
 21
10.0
 31
0.0
  0
LINE
  5
BF4
  8
FRAME_050
 10
297.0
 20
7.5
 30
0.0
 11
294.5
 21
12.5
 31
0.0
  0
LINE
  5
BF5
  8
FRAME_050
 10
287.0
 20
5.0
 30
0.0
 11
287.0
 21
10.0
 31
0.0
  0
LINE
  5
BF6
  8
FRAME_050
 10
277.0
 20
5.0
 30
0.0
 11
277.0
 21
10.0
 31
0.0
  0
LINE
  5
BF7
  8
FRAME_050
 10
267.0
 20
5.0
 30
0.0
 11
267.0
 21
10.0
 31
0.0
  0
LINE
  5
BF8
  8
FRAME_050
 10
257.0
 20
5.0
 30
0.0
 11
257.0
 21
10.0
 31
0.0
  0
LINE
  5
BF9
  8
FRAME_050
 10
247.0
 20
5.0
 30
0.0
 11
247.0
 21
10.0
 31
0.0
  0
LINE
  5
BFA
  8
FRAME_050
 10
297.0
 20
10.0
 30
0.0
 11
297.0
 21
5.0
 31
0.0
  0
LINE
  5
BFB
  8
FRAME_050
 10
297.0
 20
10.0
 30
0.0
 11
297.0
 21
15.0
 31
0.0
  0
LINE
  5
BFC
  8
FRAME_050
 10
5.0
 20
210.0
 30
0.0
 11
15.0
 21
210.0
 31
0.0
  0
LINE
  5
BFD
  8
FRAME_050
 10
7.5
 20
210.0
 30
0.0
 11
12.5
 21
212.5
 31
0.0
  0
TEXT
  5
BFE
  8
FRAME_050
 10
5.7860912703473977
 20
235.0
 30
0.0
 40
4.0
  1
D
  7
ISO_PROPORTIONAL
 72
     4
 11
7.5
 21
237.0
 31
0.0
  0
LINE
  5
BFF
  8
FRAME_050
 10
10.0
 20
260.0
 30
0.0
 11
5.0
 21
260.0
 31
0.0
  0
TEXT
  5
C00
  8
FRAME_050
 10
6.1931980515339466
 20
285.0
 30
0.0
 40
4.0
  1
C
  7
ISO_PROPORTIONAL
 72
     4
 11
7.5
 21
287.0
 31
0.0
  0
LINE
  5
C01
  8
FRAME_050
 10
10.0
 20
310.0
 30
0.0
 11
5.0
 21
310.0
 31
0.0
  0
TEXT
  5
C02
  8
FRAME_050
 10
5.8999999999999959
 20
335.0
 30
0.0
 40
4.0
  1
B
  7
ISO_PROPORTIONAL
 72
     4
 11
7.5
 21
337.0
 31
0.0
  0
LINE
  5
C03
  8
FRAME_050
 10
10.0
 20
360.0
 30
0.0
 11
5.0
 21
360.0
 31
0.0
  0
TEXT
  5
C04
  8
FRAME_050
 10
5.6999999999999993
 20
385.0
 30
0.0
 40
4.0
  1
A
  7
ISO_PROPORTIONAL
 72
     4
 11
7.5
 21
387.0
 31
0.0
  0
LINE
  5
C05
  8
FRAME_200
 10
10.0
 20
420.0
 30
0.0
 11
0.0
 21
420.0
 31
0.0
  0
LINE
  5
C06
  8
FRAME_200
 10
0.0
 20
420.0
 30
0.0
 11
0.0
 21
410.0
 31
0.0
  0
TEXT
  5
C07
  8
FRAME_050
 10
44.874999999999993
 20
410.5
 30
0.0
 40
4.0
  1
1
  7
ISO_PROPORTIONAL
 72
     4
 11
45.875
 21
412.5
 31
0.0
  0
LINE
  5
C08
  8
FRAME_050
 10
81.75
 20
410.0
 30
0.0
 11
81.75
 21
415.0
 31
0.0
  0
TEXT
  5
C09
  8
FRAME_050
 10
116.1556692913386
 20
410.39960629921262
 30
0.0
 40
4.0
  1
2
  7
ISO_PROPORTIONAL
 72
     4
 11
117.625
 21
412.5
 31
0.0
  0
LINE
  5
C0A
  8
FRAME_050
 10
153.5
 20
410.0
 30
0.0
 11
153.5
 21
415.0
 31
0.0
  0
TEXT
  5
C0B
  8
FRAME_050
 10
187.89215728752529
 20
410.58284271247459
 30
0.0
 40
4.0
  1
3
  7
ISO_PROPORTIONAL
 72
     4
 11
189.375
 21
412.5
 31
0.0
  0
LINE
  5
C0C
  8
FRAME_050
 10
297.0
 20
405.0
 30
0.0
 11
297.0
 21
415.0
 31
0.0
  0
LINE
  5
C0D
  8
FRAME_050
 10
225.25
 20
410.0
 30
0.0
 11
225.25
 21
415.0
 31
0.0
  0
TEXT
  5
C0E
  8
FRAME_050
 10
259.52499999999998
 20
410.5
 30
0.0
 40
4.0
  1
4
  7
ISO_PROPORTIONAL
 72
     4
 11
261.125
 21
412.5
 31
0.0
  0
LINE
  5
C0F
  8
FRAME_070
 10
584.0
 20
10.0
 30
0.0
 11
584.0
 21
410.0
 31
0.0
  0
ATTDEF
  5
C10
  8
FRAME_025
 10
473.0
 20
31.75
 30
0.0
 40
2.5
  1
XXX - 00/00/00
  7
ISO_PROPORTIONAL
 11
473.0
 21
33.0
 31
0.0
  3
Approved by - Date
  2
APPROVED_BY_DATE
 70
     8
 74
     2
  0
TEXT
  5
C11
  8
FRAME_025
 10
448.0
 20
41.749999999999993
 30
0.0
 40
2.5
  1
Title/Name, designation, material, dimension etc
  7
ISO_PROPORTIONAL
 11
448.0
 21
43.0
 31
0.0
 73
     2
  0
TEXT
  5
C12
  8
FRAME_025
 10
473.0
 20
35.75
 30
0.0
 40
2.5
  1
Approved by - date
  7
ISO_PROPORTIONAL
 11
473.0
 21
37.0
 31
0.0
 73
     2
  0
LINE
  5
C13
  8
FRAME_070
 10
414.0
 20
46.0
 30
0.0
 11
584.0
 21
46.0
 31
0.0
  0
LINE
  5
C14
  8
FRAME_070
 10
414.0
 20
40.0
 30
0.0
 11
584.0
 21
40.0
 31
0.0
  0
LINE
  5
C15
  8
FRAME_070
 10
414.0
 20
30.0
 30
0.0
 11
584.0
 21
30.0
 31
0.0
  0
LINE
  5
C16
  8
FRAME_050
 10
368.75
 20
5.0
 30
0.0
 11
368.75
 21
10.0
 31
0.0
  0
LINE
  5
C17
  8
FRAME_050
 10
337.0
 20
5.0
 30
0.0
 11
337.0
 21
10.0
 31
0.0
  0
LINE
  5
C18
  8
FRAME_050
 10
327.0
 20
5.0
 30
0.0
 11
327.0
 21
10.0
 31
0.0
  0
LINE
  5
C19
  8
FRAME_050
 10
317.0
 20
5.0
 30
0.0
 11
317.0
 21
10.0
 31
0.0
  0
LINE
  5
C1A
  8
FRAME_050
 10
307.0
 20
5.0
 30
0.0
 11
307.0
 21
10.0
 31
0.0
  0
LINE
  5
C1B
  8
FRAME_050
 10
347.0
 20
5.0
 30
0.0
 11
347.0
 21
10.0
 31
0.0
  0
LINE
  5
C1C
  8
FRAME_050
 10
440.5
 20
5.0
 30
0.0
 11
440.5
 21
10.0
 31
0.0
  0
TEXT
  5
C1D
  8
FRAME_050
 10
403.24547244094481
 20
5.4102362204724406
 30
0.0
 40
4.0
  1
6
  7
ISO_PROPORTIONAL
 72
     4
 11
404.62499999999989
 21
7.5
 31
0.0
  0
TEXT
  5
C1E
  8
FRAME_050
 10
474.97499999999991
 20
5.5
 30
0.0
 40
4.0
  1
7
  7
ISO_PROPORTIONAL
 72
     4
 11
476.37499999999989
 21
7.5
 31
0.0
  0
TEXT
  5
C1F
  8
FRAME_025
 10
431.0
 20
41.749999999999993
 30
0.0
 40
2.5
  1
Quantity
  7
ISO_PROPORTIONAL
 11
431.0
 21
43.0
 31
0.0
 73
     2
  0
TEXT
  5
C20
  8
FRAME_025
 10
416.0
 20
41.749999999999993
 30
0.0
 40
2.5
  1
Itemref
  7
ISO_PROPORTIONAL
 11
416.0
 21
43.0
 31
0.0
 73
     2
  0
LINE
  5
C21
  8
FRAME_070
 10
414.0
 20
40.0
 30
0.0
 11
414.0
 21
46.0
 31
0.0
  0
LINE
  5
C22
  8
FRAME_070
 10
429.0
 20
40.0
 30
0.0
 11
429.0
 21
46.0
 31
0.0
  0
LINE
  5
C23
  8
FRAME_070
 10
414.0
 20
10.0
 30
0.0
 11
414.0
 21
40.0
 31
0.0
  0
ATTDEF
  5
C24
  8
FRAME_025
 10
416.0
 20
31.75
 30
0.0
 40
2.5
  1
XXX
  7
ISO_PROPORTIONAL
 11
416.0
 21
33.0
 31
0.0
  3
Designed by
  2
DESIGNED_BY
 70
     8
 74
     2
  0
TEXT
  5
C25
  8
FRAME_025
 10
416.0
 20
35.75
 30
0.0
 40
2.5
  1
Designed by
  7
ISO_PROPORTIONAL
 11
416.0
 21
37.0
 31
0.0
 73
     2
  0
LINE
  5
C26
  8
FRAME_070
 10
446.0
 20
40.0
 30
0.0
 11
446.0
 21
46.0
 31
0.0
  0
ATTDEF
  5
C27
  8
FRAME_025
 10
448.0
 20
31.75
 30
0.0
 40
2.5
  1
XXX
  7
ISO_PROPORTIONAL
 11
448.0
 21
33.0
 31
0.0
  3
Checked by
  2
CHECKED_BY
 70
     8
 74
     2
  0
TEXT
  5
C28
  8
FRAME_025
 10
448.0
 20
35.75
 30
0.0
 40
2.5
  1
Checked by
  7
ISO_PROPORTIONAL
 11
448.0
 21
37.0
 31
0.0
 73
     2
  0
ATTDEF
  5
C29
  8
FRAME_050
 10
444.74999999999989
 20
17.5
 30
0.0
 40
5.0
  1
XXX
  7
ISO_PROPORTIONAL
 72
     4
 11
451.49999999999989
 21
20.0
 31
0.0
  3
Owner
  2
OWNER
 70
     8
  0
LINE
  5
C2A
  8
FRAME_070
 10
446.0
 20
30.0
 30
0.0
 11
446.0
 21
40.0
 31
0.0
  0
LINE
  5
C2B
  8
FRAME_070
 10
471.0
 20
30.0
 30
0.0
 11
471.0
 21
40.0
 31
0.0
  0
LINE
  5
C2C
  8
FRAME_070
 10
489.0
 20
20.0
 30
0.0
 11
584.0
 21
20.0
 31
0.0
  0
LINE
  5
C2D
  8
FRAME_050
 10
512.25
 20
5.0
 30
0.0
 11
512.25
 21
10.0
 31
0.0
  0
TEXT
  5
C2E
  8
FRAME_050
 10
546.72499999999991
 20
5.5
 30
0.0
 40
4.0
  1
8
  7
ISO_PROPORTIONAL
 72
     4
 11
548.125
 21
7.5
 31
0.0
  0
ATTDEF
  5
C2F
  8
FRAME_050
 10
517.64999999999986
 20
13.5
 30
0.0
 40
3.0
  1
X
  7
ISO_PROPORTIONAL
 72
     4
 11
519.0
 21
15.0
 31
0.0
  3
Drawing number
  2
DRAWING_NUMBER
 70
     8
  0
ATTDEF
  5
C30
  8
FRAME_050
 10
529.75
 20
22.5
 30
0.0
 40
5.0
  1
XXX
  7
ISO_PROPORTIONAL
 72
     4
 11
536.5
 21
25.0
 31
0.0
  3
Title / Name
  2
TITLE
 70
     8
  0
LINE
  5
C31
  8
FRAME_070
 10
489.0
 20
10.0
 30
0.0
 11
489.0
 21
30.0
 31
0.0
  0
ATTDEF
  5
C32
  8
FRAME_025
 10
511.0
 20
31.75
 30
0.0
 40
2.5
  1
XXX
  7
ISO_PROPORTIONAL
 11
511.0
 21
33.0
 31
0.0
  3
Filename
  2
FILENAME
 70
     8
 74
     2
  0
TEXT
  5
C33
  8
FRAME_025
 10
511.0
 20
35.75
 30
0.0
 40
2.5
  1
Filename
  7
ISO_PROPORTIONAL
 11
511.0
 21
37.0
 31
0.0
 73
     2
  0
LINE
  5
C34
  8
FRAME_070
 10
509.0
 20
30.0
 30
0.0
 11
509.0
 21
40.0
 31
0.0
  0
TEXT
  5
C35
  8
FRAME_025
 10
536.0
 20
41.749999999999993
 30
0.0
 40
2.5
  1
Article No./Reference
  7
ISO_PROPORTIONAL
 11
536.0
 21
43.0
 31
0.0
 73
     2
  0
LINE
  5
C36
  8
FRAME_070
 10
534.0
 20
40.0
 30
0.0
 11
534.0
 21
46.0
 31
0.0
  0
ATTDEF
  5
C37
  8
FRAME_025
 10
551.0
 20
11.75
 30
0.0
 40
2.5
  1
0
  7
ISO_PROPORTIONAL
 11
551.0
 21
13.0
 31
0.0
  3
Edition
  2
EDITION
 70
     8
 74
     2
  0
TEXT
  5
C38
  8
FRAME_025
 10
551.0
 20
15.75
 30
0.0
 40
2.5
  1
Edition
  7
ISO_PROPORTIONAL
 11
551.0
 21
17.0
 31
0.0
 73
     2
  0
LINE
  5
C39
  8
FRAME_070
 10
549.0
 20
10.0
 30
0.0
 11
549.0
 21
20.0
 31
0.0
  0
ATTDEF
  5
C3A
  8
FRAME_025
 10
536.0
 20
31.75
 30
0.0
 40
2.5
  1
00/00/00
  7
ISO_PROPORTIONAL
 11
536.0
 21
33.0
 31
0.0
  3
Date
  2
DATE
 70
     8
 74
     2
  0
TEXT
  5
C3B
  8
FRAME_025
 10
536.0
 20
35.75
 30
0.0
 40
2.5
  1
Date
  7
ISO_PROPORTIONAL
 11
536.0
 21
37.0
 31
0.0
 73
     2
  0
LINE
  5
C3C
  8
FRAME_070
 10
534.0
 20
30.0
 30
0.0
 11
534.0
 21
40.0
 31
0.0
  0
ATTDEF
  5
C3D
  8
FRAME_025
 10
566.0
 20
11.75
 30
0.0
 40
2.5
  1
1/1
  7
ISO_PROPORTIONAL
 11
566.0
 21
13.0
 31
0.0
  3
Sheet
  2
SHEET
 70
     8
 74
     2
  0
TEXT
  5
C3E
  8
FRAME_025
 10
566.0
 20
15.75
 30
0.0
 40
2.5
  1
Sheet
  7
ISO_PROPORTIONAL
 11
566.0
 21
17.0
 31
0.0
 73
     2
  0
LINE
  5
C3F
  8
FRAME_070
 10
564.0
 20
10.0
 30
0.0
 11
564.0
 21
20.0
 31
0.0
  0
ATTDEF
  5
C40
  8
FRAME_025
 10
566.0
 20
31.75
 30
0.0
 40
2.5
  1
1:1
  7
ISO_PROPORTIONAL
 11
566.0
 21
33.0
 31
0.0
  3
Scale
  2
SCALE
 70
     8
 74
     2
  0
TEXT
  5
C41
  8
FRAME_025
 10
566.0
 20
35.75
 30
0.0
 40
2.5
  1
Scale
  7
ISO_PROPORTIONAL
 11
566.0
 21
37.0
 31
0.0
 73
     2
  0
LINE
  5
C42
  8
FRAME_070
 10
564.0
 20
30.0
 30
0.0
 11
564.0
 21
40.0
 31
0.0
  0
LINE
  5
C43
  8
FRAME_200
 10
594.0
 20
0.0
 30
0.0
 11
594.0
 21
10.0
 31
0.0
  0
LINE
  5
C44
  8
FRAME_200
 10
594.0
 20
0.0
 30
0.0
 11
584.0
 21
0.0
 31
0.0
  0
TEXT
  5
C45
  8
FRAME_050
 10
584.89999999999998
 20
35.0
 30
0.0
 40
4.0
  1
H
  7
ISO_PROPORTIONAL
 72
     4
 11
586.5
 21
37.0
 31
0.0
  0
LINE
  5
C46
  8
FRAME_050
 10
589.0
 20
60.0
 30
0.0
 11
584.0
 21
60.0
 31
0.0
  0
TEXT
  5
C47
  8
FRAME_050
 10
585.0035533905932
 20
85.0
 30
0.0
 40
4.0
  1
G
  7
ISO_PROPORTIONAL
 72
     4
 11
586.5
 21
87.0
 31
0.0
  0
LINE
  5
C48
  8
FRAME_050
 10
589.0
 20
110.0
 30
0.0
 11
584.0
 21
110.0
 31
0.0
  0
TEXT
  5
C49
  8
FRAME_050
 10
585.09999999999991
 20
135.0
 30
0.0
 40
4.0
  1
F
  7
ISO_PROPORTIONAL
 72
     4
 11
586.5
 21
137.0
 31
0.0
  0
LINE
  5
C4A
  8
FRAME_050
 10
589.0
 20
160.0
 30
0.0
 11
584.0
 21
160.0
 31
0.0
  0
TEXT
  5
C4B
  8
FRAME_050
 10
585.09999999999991
 20
185.0
 30
0.0
 40
4.0
  1
E
  7
ISO_PROPORTIONAL
 72
     4
 11
586.5
 21
187.0
 31
0.0
  0
LINE
  5
C4C
  8
FRAME_070
 10
414.0
 20
404.0
 30
0.0
 11
584.0
 21
404.0
 31
0.0
  0
TEXT
  5
C4D
  8
FRAME_050
 10
331.39215728752538
 20
410.58284271247459
 30
0.0
 40
4.0
  1
5
  7
ISO_PROPORTIONAL
 72
     4
 11
332.875
 21
412.5
 31
0.0
  0
LINE
  5
C4E
  8
FRAME_050
 10
368.75
 20
410.0
 30
0.0
 11
368.75
 21
415.0
 31
0.0
  0
TEXT
  5
C4F
  8
FRAME_025
 10
428.0
 20
405.75
 30
0.0
 40
2.5
  1
Revision note
  7
ISO_PROPORTIONAL
 11
428.0
 21
407.0
 31
0.0
 73
     2
  0
TEXT
  5
C50
  8
FRAME_025
 10
416.0
 20
405.75
 30
0.0
 40
2.5
  1
RevNo
  7
ISO_PROPORTIONAL
 11
416.0
 21
407.0
 31
0.0
 73
     2
  0
LINE
  5
C51
  8
FRAME_070
 10
426.0
 20
404.0
 30
0.0
 11
426.0
 21
410.0
 31
0.0
  0
LINE
  5
C52
  8
FRAME_070
 10
414.0
 20
404.0
 30
0.0
 11
414.0
 21
410.0
 31
0.0
  0
TEXT
  5
C53
  8
FRAME_050
 10
403.24547244094481
 20
410.41023622047243
 30
0.0
 40
4.0
  1
6
  7
ISO_PROPORTIONAL
 72
     4
 11
404.62499999999989
 21
412.5
 31
0.0
  0
LINE
  5
C54
  8
FRAME_050
 10
440.5
 20
410.0
 30
0.0
 11
440.5
 21
415.0
 31
0.0
  0
TEXT
  5
C55
  8
FRAME_050
 10
474.97499999999991
 20
410.5
 30
0.0
 40
4.0
  1
7
  7
ISO_PROPORTIONAL
 72
     4
 11
476.37499999999989
 21
412.5
 31
0.0
  0
LINE
  5
C56
  8
FRAME_050
 10
579.0
 20
210.0
 30
0.0
 11
589.0
 21
210.0
 31
0.0
  0
TEXT
  5
C57
  8
FRAME_050
 10
584.78609127034736
 20
235.0
 30
0.0
 40
4.0
  1
D
  7
ISO_PROPORTIONAL
 72
     4
 11
586.5
 21
237.0
 31
0.0
  0
LINE
  5
C58
  8
FRAME_050
 10
589.0
 20
260.0
 30
0.0
 11
584.0
 21
260.0
 31
0.0
  0
TEXT
  5
C59
  8
FRAME_050
 10
585.19319805153395
 20
285.0
 30
0.0
 40
4.0
  1
C
  7
ISO_PROPORTIONAL
 72
     4
 11
586.5
 21
287.0
 31
0.0
  0
LINE
  5
C5A
  8
FRAME_050
 10
589.0
 20
310.0
 30
0.0
 11
584.0
 21
310.0
 31
0.0
  0
TEXT
  5
C5B
  8
FRAME_050
 10
584.89999999999998
 20
335.0
 30
0.0
 40
4.0
  1
B
  7
ISO_PROPORTIONAL
 72
     4
 11
586.5
 21
337.0
 31
0.0
  0
TEXT
  5
C5C
  8
FRAME_025
 10
571.08299391850551
 20
405.75
 30
0.0
 40
2.5
  1
Checked
  7
ISO_PROPORTIONAL
 11
571.08299391850551
 21
407.0
 31
0.0
 73
     2
  0
TEXT
  5
C5D
  8
FRAME_025
 10
555.36099797283521
 20
405.75
 30
0.0
 40
2.5
  1
Signature
  7
ISO_PROPORTIONAL
 11
555.36099797283521
 21
407.0
 31
0.0
 73
     2
  0
TEXT
  5
C5E
  8
FRAME_025
 10
537.0
 20
405.75
 30
0.0
 40
2.5
  1
Date
  7
ISO_PROPORTIONAL
 11
537.0
 21
407.0
 31
0.0
 73
     2
  0
LINE
  5
C5F
  8
FRAME_070
 10
570.0
 20
404.0
 30
0.0
 11
570.0
 21
410.0
 31
0.0
  0
LINE
  5
C60
  8
FRAME_070
 10
555.0
 20
404.0
 30
0.0
 11
555.0
 21
410.0
 31
0.0
  0
LINE
  5
C61
  8
FRAME_070
 10
535.0
 20
404.0
 30
0.0
 11
535.0
 21
410.0
 31
0.0
  0
LINE
  5
C62
  8
FRAME_050
 10
512.25
 20
410.0
 30
0.0
 11
512.25
 21
415.0
 31
0.0
  0
TEXT
  5
C63
  8
FRAME_050
 10
546.72499999999991
 20
410.5
 30
0.0
 40
4.0
  1
8
  7
ISO_PROPORTIONAL
 72
     4
 11
548.125
 21
412.5
 31
0.0
  0
LINE
  5
C64
  8
FRAME_050
 10
589.0
 20
360.0
 30
0.0
 11
584.0
 21
360.0
 31
0.0
  0
TEXT
  5
C65
  8
FRAME_050
 10
584.70000000000005
 20
385.0
 30
0.0
 40
4.0
  1
A
  7
ISO_PROPORTIONAL
 72
     4
 11
586.5
 21
387.0
 31
0.0
  0
LINE
  5
C66
  8
FRAME_200
 10
594.0
 20
420.0
 30
0.0
 11
584.0
 21
420.0
 31
0.0
  0
LINE
  5
C67
  8
FRAME_200
 10
594.0
 20
410.0
 30
0.0
 11
594.0
 21
420.0
 31
0.0
  0
ENDBLK
  5
C69
  8
0
  0
BLOCK
  8
0
  2
WOBB001END
 70
     0
 10
0.0
 20
0.0
 30
0.0
  3
WOBB001END
  1

  0
LINE
  5
4D66
  8
0
  6
CONTINUOUS
 10
0.0
 20
0.0
 30
0.0
 11
0.8749999999999998
 21
0.0
 31
0.0
  0
ARC
  5
4D67
  8
0
  6
CONTINUOUS
 10
0.0331648379439287
 20
-0.5087238935900234
 30
0.0
 40
0.8790130605592325
 50
284.06490243660443
 51
312.19222981924361
  0
ARC
  5
4D68
  8
0
  6
CONTINUOUS
 10
0.2841534338796767
 20
-1.510548310625538
 30
0.0
 40
0.1537731892806598
 50
104.0649024366044
 51
179.4721730735024
  0
LINE
  5
4D69
  8
0
  6
CONTINUOUS
 10
0.0
 20
0.0
 30
0.0
 11
-0.0000000000000003
 21
-1.7501564476661911
 31
0.0
  0
ARC
  5
4D6A
  8
0
  6
CONTINUOUS
 10
0.1404622019506122
 20
-1.630313718354619
 30
0.0
 40
0.1198427293115722
 50
275.0
 51
85.000000000000057
  0
LINE
  5
4D6B
  8
0
  6
CONTINUOUS
 10
-0.0000000000000003
 20
-1.7501564476661911
 30
0.0
 11
0.1456946485130855
 21
-1.7501564476661911
 31
0.0
  0
LINE
  5
4D6C
  8
0
  6
CONTINUOUS
 10
0.1377603739254348
 20
-1.7508506067459131
 30
0.0
 11
0.150907184036669
 21
-1.7497004098996509
 31
0.0
  0
LINE
  5
4D6D
  8
0
  6
CONTINUOUS
 10
0.1303867696719884
 20
-1.5091317231818231
 30
0.0
 11
0.1509071840366689
 21
-1.510927026809586
 31
0.0
  0
LINE
  5
4D6E
  8
0
  6
CONTINUOUS
 10
0.8749999999999998
 20
0.0
 30
0.0
 11
0.8749999999999996
 21
-0.8649327026588228
 31
0.0
  0
LINE
  5
4D6F
  8
0
  6
CONTINUOUS
 10
0.727014513830997
 20
-0.872688293355061
 30
0.0
 11
0.727014513830997
 21
-0.9264923397184784
 31
0.0
  0
ARC
  5
4D70
  8
0
  6
CONTINUOUS
 10
0.41187090827646
 20
-0.9264923397184784
 30
0.0
 40
0.3151436055545369
 50
312.19222981924361
 51
0.0
  0
LINE
  5
4D71
  8
0
  6
CONTINUOUS
 10
0.727014513830997
 20
-0.872688293355061
 30
0.0
 11
0.8749999999999996
 21
-0.8649327026588228
 31
0.0
  0
ENDBLK
  5
4D72
  8
0
  0
BLOCK
  8
0
  2
A$C0A61123B
 70
     0
 10
0.0
 20
0.0
 30
0.0
  3
A$C0A61123B
  1

  0
LINE
  5
C0AD
  8
PROF
  6
CONTINUOUS
 10
4.9012016798694162
 20
13.325025853350891
 30
0.0000000000000002
 11
4.9012016798694162
 21
12.88585218805485
 31
0.0000000000000003
  0
INSERT
  5
C0AE
  8
0
  2
*U7
 10
0.0
 20
0.0
 30
0.0
  0
LINE
  5
C0AF
  8
PROF
 10
4.519857503186925
 20
12.72227734589444
 30
0.0000000000000001
 11
4.519857503186925
 21
12.88585218805485
 31
0.0000000000000001
  0
LINE
  5
C0B0
  8
PROF
  6
CONTINUOUS
 10
3.6306271195888362
 20
13.325025853350891
 30
0.0000000000000002
 11
4.9012016798694162
 21
13.325025853350891
 31
0.0000000000000002
  0
LINE
  5
C0B1
  8
PROF
 10
1.9750295148747341
 20
10.37671325491794
 30
0.0000000000000002
 11
1.9750295148747341
 21
10.11391186758919
 31
0.0000000000000002
  0
LINE
  5
C0B2
  8
PROF
 10
1.6079673357556299
 20
10.11391186758919
 30
0.0000000000000001
 11
1.9750295148747341
 21
10.11391186758919
 31
0.0000000000000001
  0
LINE
  5
C0B3
  8
PROF
 10
1.9750295148747341
 20
10.11391186758919
 30
0.0000000000000001
 11
1.944958486898144
 21
10.11391186758919
 31
0.0000000000000001
  0
LINE
  5
C0B4
  8
PROF
 10
1.9750295148747341
 20
10.11391186758919
 30
0.0000000000000001
 11
1.944958486898144
 21
10.11391186758919
 31
0.0000000000000001
  0
LINE
  5
C0B5
  8
PROF
 10
0.3222605517169654
 20
7.5247473351056451
 30
-0.0000000000000002
 11
-0.0000008570117416
 21
7.5247473351056451
 31
0.0
  0
LINE
  5
C0B6
  8
PROF
 10
-0.0000008570117416
 20
7.5247473351056451
 30
0.0
 11
-0.0000008570117416
 21
9.1943336957369848
 31
0.0
  0
POLYLINE
  5
C0B7
  8
PROF
 66
     1
 10
0.0
 20
0.0
 30
0.0000000000000001
 70
     4
 75
     6
  0
VERTEX
  5
C0B8
  8
PROF
 10
1.6079673357556299
 20
10.11391186758919
 30
0.0000000000000001
 70
    16
  0
VERTEX
  5
C0B9
  8
PROF
 10
1.6079673357556299
 20
10.11391186758919
 30
0.0000000000000001
 70
     8
  0
VERTEX
  5
C0BA
  8
PROF
 10
1.6468132326485809
 20
10.02198069336111
 30
0.0000000000000001
 70
     8
  0
VERTEX
  5
C0BB
  8
PROF
 10
1.67335966680929
 20
9.9344134163010231
 30
0.0000000000000001
 70
     8
  0
VERTEX
  5
C0BC
  8
PROF
 10
1.6890086400463229
 20
9.8512576644480951
 30
0.0000000000000001
 70
     8
  0
VERTEX
  5
C0BD
  8
PROF
 10
1.6951621541682571
 20
9.7725610658417281
 30
0.0000000000000001
 70
     8
  0
VERTEX
  5
C0BE
  8
PROF
 10
1.693222210983605
 20
9.6983712485214237
 30
0.0000000000000001
 70
     8
  0
VERTEX
  5
C0BF
  8
PROF
 10
1.6845908123009961
 20
9.6287358405263603
 30
0.0000000000000001
 70
     8
  0
VERTEX
  5
C0C0
  8
PROF
 10
1.670669959928885
 20
9.5637024698960431
 30
0.0000000000000001
 70
     8
  0
VERTEX
  5
C0C1
  8
PROF
 10
1.6528616556759621
 20
9.5033187646697552
 30
0.0000000000000001
 70
     8
  0
VERTEX
  5
C0C2
  8
PROF
 10
1.632356299273054
 20
9.4475843259650691
 30
0.0000000000000001
 70
     8
  0
VERTEX
  5
C0C3
  8
PROF
 10
1.609497882140658
 20
9.3963066472123273
 30
0.0000000000000001
 70
     8
  0
VERTEX
  5
C0C4
  8
PROF
 10
1.584418793621637
 20
9.3492451949202842
 30
0.0000000000000001
 70
     8
  0
VERTEX
  5
C0C5
  8
PROF
 10
1.5572514230587431
 20
9.3061594355972357
 30
0.0000000000000001
 70
     8
  0
VERTEX
  5
C0C6
  8
PROF
 10
1.5281281597949601
 20
9.2668088357519274
 30
0.0000000000000001
 70
     8
  0
VERTEX
  5
C0C7
  8
PROF
 10
1.497181393172978
 20
9.2309528618929981
 30
0.0000000000000001
 70
     8
  0
VERTEX
  5
C0C8
  8
PROF
 10
1.4645435125357249
 20
9.1983509805288541
 30
0.0000000000000001
 70
     8
  0
VERTEX
  5
C0C9
  8
PROF
 10
1.4303469072260091
 20
9.1687626581682462
 30
0.0000000000000001
 70
     8
  0
VERTEX
  5
C0CA
  8
PROF
 10
1.394736033257401
 20
9.1419547918675335
 30
0.0000000000000001
 70
     8
  0
VERTEX
  5
C0CB
  8
PROF
 10
1.3579036133264131
 20
9.1177240008747713
 30
0.0000000000000001
 70
     8
  0
VERTEX
  5
C0CC
  8
PROF
 10
1.3200544368004321
 20
9.0958743349860924
 30
0.0000000000000001
 70
     8
  0
VERTEX
  5
C0CD
  8
PROF
 10
1.281393293046676
 20
9.0762098439975034
 30
0.0000000000000001
 70
     8
  0
VERTEX
  5
C0CE
  8
PROF
 10
1.2421249714324161
 20
9.0585345777049042
 30
0.0000000000000001
 70
     8
  0
VERTEX
  5
C0CF
  8
PROF
 10
1.202454261324986
 20
9.0426525859044187
 30
0.0000000000000001
 70
     8
  0
VERTEX
  5
C0D0
  8
PROF
 10
1.162585952091659
 20
9.0283679183919503
 30
0.0000000000000001
 70
     8
  0
VERTEX
  5
C0D1
  8
PROF
 10
1.1227248330997091
 20
9.0154846249635021
 30
0.0000000000000001
 70
     8
  0
VERTEX
  5
C0D2
  8
PROF
 10
1.0829726247361
 20
9.0034643862466055
 30
0.0000000000000001
 70
     8
  0
VERTEX
  5
C0D3
  8
PROF
 10
1.043018771466222
 20
8.9903994061946833
 30
0.0000000000000001
 70
     8
  0
VERTEX
  5
C0D4
  8
PROF
 10
1.002449648775211
 20
8.9740395195925622
 30
0.0000000000000001
 70
     8
  0
VERTEX
  5
C0D5
  8
PROF
 10
0.9608516321480919
 20
8.9521345612251935
 30
0.0000000000000001
 70
     8
  0
VERTEX
  5
C0D6
  8
PROF
 10
0.9178110970699435
 20
8.9224343658775052
 30
0.0000000000000001
 70
     8
  0
VERTEX
  5
C0D7
  8
PROF
 10
0.8729144190259033
 20
8.8826887683343312
 30
0.0000000000000001
 70
     8
  0
VERTEX
  5
C0D8
  8
PROF
 10
0.8257479735009949
 20
8.8306476033806121
 30
0.0000000000000001
 70
     8
  0
VERTEX
  5
C0D9
  8
PROF
 10
0.7758981359802988
 20
8.764060705801171
 30
0.0000000000000001
 70
     8
  0
VERTEX
  5
C0DA
  8
PROF
 10
1.7292019016096549
 20
9.8629858761255491
 30
0.0000000000000001
 70
    16
  0
VERTEX
  5
C0DB
  8
PROF
 10
1.679373123114088
 20
9.4532143012734213
 30
0.0000000000000001
 70
    16
  0
VERTEX
  5
C0DC
  8
PROF
 10
1.4455611507419801
 20
9.1391837193732481
 30
0.0000000000000001
 70
    16
  0
VERTEX
  5
C0DD
  8
PROF
 10
1.1204637172738201
 20
9.0026267702428413
 30
0.0000000000000001
 70
    16
  0
VERTEX
  5
C0DE
  8
PROF
 10
0.9127765582653638
 20
8.9630202230383702
 30
0.0000000000000001
 70
    16
  0
VERTEX
  5
C0DF
  8
PROF
 10
0.7758981359802988
 20
8.764060705801171
 30
0.0000000000000001
 70
    16
  0
SEQEND
  5
C0E0
  8
PROF
  0
ARC
  5
C0E1
  8
PROF
 10
0.733429816733235
 20
8.4849506952165257
 30
0.0000000000000001
 40
0.2823224329524727
 50
269.73652020831901
 51
81.348449993176914
  0
LINE
  5
C0E2
  8
PROF
  6
CONTINUOUS
 10
-0.0000008570117416
 20
9.1943336957369848
 30
-0.0000000000000001
 11
3.6306271195888362
 21
13.325025853350891
 31
0.0000000000000002
  0
POLYLINE
  5
C0E3
  8
PROF
 66
     1
 10
0.0
 20
0.0
 30
0.0000000000000001
 70
     4
 75
     6
  0
VERTEX
  5
C0E4
  8
PROF
 10
4.519857503186925
 20
12.72227734589444
 30
0.0000000000000001
 70
    16
  0
VERTEX
  5
C0E5
  8
PROF
 10
4.519857503186925
 20
12.72227734589444
 30
0.0000000000000001
 70
     8
  0
VERTEX
  5
C0E6
  8
PROF
 10
4.4467035366886289
 20
12.741128108778071
 30
0.0000000000000001
 70
     8
  0
VERTEX
  5
C0E7
  8
PROF
 10
4.3786645761268801
 20
12.754675269913941
 30
0.0000000000000001
 70
     8
  0
VERTEX
  5
C0E8
  8
PROF
 10
4.3154364111440469
 20
12.76334314092332
 30
0.0000000000000001
 70
     8
  0
VERTEX
  5
C0E9
  8
PROF
 10
4.256714831382566
 20
12.76755603342724
 30
0.0000000000000001
 70
     8
  0
VERTEX
  5
C0EA
  8
PROF
 10
4.2021956264849791
 20
12.76773825904672
 30
0.0000000000000001
 70
     8
  0
VERTEX
  5
C0EB
  8
PROF
 10
4.1515745860935436
 20
12.764314129403139
 30
0.0000000000000001
 70
     8
  0
VERTEX
  5
C0EC
  8
PROF
 10
4.1045474998508649
 20
12.75770795611743
 30
0.0000000000000001
 70
     8
  0
VERTEX
  5
C0ED
  8
PROF
 10
4.0608101573993149
 20
12.748344050810831
 30
0.0000000000000001
 70
     8
  0
VERTEX
  5
C0EE
  8
PROF
 10
4.0200583483813261
 20
12.736646725104491
 30
0.0000000000000001
 70
     8
  0
VERTEX
  5
C0EF
  8
PROF
 10
3.981987862439381
 20
12.72304029061945
 30
0.0000000000000001
 70
     8
  0
VERTEX
  5
C0F0
  8
PROF
 10
3.946294489215858
 20
12.707949058976959
 30
0.0000000000000001
 70
     8
  0
VERTEX
  5
C0F1
  8
PROF
 10
3.912674018353242
 20
12.691797341798059
 30
0.0000000000000001
 70
     8
  0
VERTEX
  5
C0F2
  8
PROF
 10
3.8808638350742499
 20
12.67494295718654
 30
0.0000000000000001
 70
     8
  0
VERTEX
  5
C0F3
  8
PROF
 10
3.850767706922738
 20
12.65747774917668
 30
0.0000000000000001
 70
     8
  0
VERTEX
  5
C0F4
  8
PROF
 10
3.8223309970228438
 20
12.639427068285499
 30
0.0000000000000001
 70
     8
  0
VERTEX
  5
C0F5
  8
PROF
 10
3.795499068498712
 20
12.62081626503004
 30
0.0000000000000001
 70
     8
  0
VERTEX
  5
C0F6
  8
PROF
 10
3.7702172844744819
 20
12.601670689926999
 30
0.0000000000000001
 70
     8
  0
VERTEX
  5
C0F7
  8
PROF
 10
3.7464310080743521
 20
12.58201569349364
 30
0.0000000000000001
 70
     8
  0
VERTEX
  5
C0F8
  8
PROF
 10
3.7240856024224609
 20
12.56187662624666
 30
0.0000000000000001
 70
     8
  0
VERTEX
  5
C0F9
  8
PROF
 10
3.7031264306428961
 20
12.541278838703191
 30
0.0000000000000001
 70
     8
  0
VERTEX
  5
C0FA
  8
PROF
 10
3.683498855859908
 20
12.520247681380051
 30
0.0000000000000001
 70
     8
  0
VERTEX
  5
C0FB
  8
PROF
 10
3.665148241197528
 20
12.49880850479428
 30
0.0000000000000001
 70
     8
  0
VERTEX
  5
C0FC
  8
PROF
 10
3.648019949779949
 20
12.47698665946279
 30
0.0000000000000001
 70
     8
  0
VERTEX
  5
C0FD
  8
PROF
 10
3.6320593447313159
 20
12.45480749590263
 30
0.0000000000000001
 70
     8
  0
VERTEX
  5
C0FE
  8
PROF
 10
3.617189584886658
 20
12.43223790353807
 30
0.0000000000000001
 70
     8
  0
VERTEX
  5
C0FF
  8
PROF
 10
3.6032450119242849
 20
12.40901092742285
 30
0.0000000000000001
 70
     8
  0
VERTEX
  5
C100
  8
PROF
 10
3.590037763233453
 20
12.38480115151844
 30
0.0000000000000001
 70
     8
  0
VERTEX
  5
C101
  8
PROF
 10
3.5773799762033032
 20
12.35928315978594
 30
0.0000000000000001
 70
     8
  0
VERTEX
  5
C102
  8
PROF
 10
3.5650837882230899
 20
12.33213153618658
 30
0.0000000000000001
 70
     8
  0
VERTEX
  5
C103
  8
PROF
 10
3.552961336681959
 20
12.303020864681571
 30
0.0000000000000001
 70
     8
  0
VERTEX
  5
C104
  8
PROF
 10
3.540824758969165
 20
12.271625729232371
 30
0.0000000000000001
 70
     8
  0
VERTEX
  5
C105
  8
PROF
 10
3.528486192473848
 20
12.23762071379997
 30
0.0000000000000001
 70
     8
  0
VERTEX
  5
C106
  8
PROF
 10
3.5157577745852659
 20
12.200680402345711
 30
0.0000000000000001
 70
     8
  0
VERTEX
  5
C107
  8
PROF
 10
3.502451642692618
 20
12.16047937883093
 30
0.0000000000000001
 70
     8
  0
VERTEX
  5
C108
  8
PROF
 10
3.4883799341851041
 20
12.116692227216619
 30
0.0000000000000001
 70
     8
  0
VERTEX
  5
C109
  8
PROF
 10
3.4733547864519201
 20
12.06899353146423
 30
0.0000000000000001
 70
     8
  0
VERTEX
  5
C10A
  8
PROF
 10
3.45723654619428
 20
12.0172095445447
 30
0.0000000000000001
 70
     8
  0
VERTEX
  5
C10B
  8
PROF
 10
3.440078397361388
 20
11.961773195467799
 30
0.0000000000000001
 70
     8
  0
VERTEX
  5
C10C
  8
PROF
 10
3.4219817332145781
 20
11.90326908225302
 30
0.0000000000000001
 70
     8
  0
VERTEX
  5
C10D
  8
PROF
 10
3.4030479470150099
 20
11.842281802919951
 30
0.0000000000000001
 70
     8
  0
VERTEX
  5
C10E
  8
PROF
 10
3.383378432024017
 20
11.779395955487979
 30
0.0000000000000001
 70
     8
  0
VERTEX
  5
C10F
  8
PROF
 10
3.36307458150287
 20
11.7151961379768
 30
0.0000000000000001
 70
     8
  0
VERTEX
  5
C110
  8
PROF
 10
3.342237788712735
 20
11.650266948405831
 30
0.0000000000000001
 70
     8
  0
VERTEX
  5
C111
  8
PROF
 10
3.3209694469149991
 20
11.58519298479461
 30
0.0000000000000001
 70
     8
  0
VERTEX
  5
C112
  8
PROF
 10
3.299370949370767
 20
11.52055884516254
 30
0.0000000000000001
 70
     8
  0
VERTEX
  5
C113
  8
PROF
 10
3.277543689341428
 20
11.456949127529461
 30
0.0000000000000001
 70
     8
  0
VERTEX
  5
C114
  8
PROF
 10
3.2555890600881399
 20
11.3949484299145
 30
0.0000000000000001
 70
     8
  0
VERTEX
  5
C115
  8
PROF
 10
3.2336084548721811
 20
11.335141350337491
 30
0.0000000000000001
 70
     8
  0
VERTEX
  5
C116
  8
PROF
 10
3.2116715641212181
 20
11.277995447977769
 30
0.0000000000000001
 70
     8
  0
VERTEX
  5
C117
  8
PROF
 10
3.1897212669278461
 20
11.22351012665467
 30
0.0000000000000001
 70
     8
  0
VERTEX
  5
C118
  8
PROF
 10
3.1676687395512881
 20
11.17156775134765
 30
0.0000000000000001
 70
     8
  0
VERTEX
  5
C119
  8
PROF
 10
3.1454251582505321
 20
11.12205068703588
 30
0.0000000000000001
 70
     8
  0
VERTEX
  5
C11A
  8
PROF
 10
3.122901699284625
 20
11.07484129869874
 30
0.0000000000000001
 70
     8
  0
VERTEX
  5
C11B
  8
PROF
 10
3.1000095389127278
 20
11.02982195131551
 30
0.0000000000000001
 70
     8
  0
VERTEX
  5
C11C
  8
PROF
 10
3.07665985339389
 20
10.986875009865679
 30
0.0000000000000001
 70
     8
  0
VERTEX
  5
C11D
  8
PROF
 10
3.0527638189871591
 20
10.9458828393283
 30
0.0000000000000001
 70
     8
  0
VERTEX
  5
C11E
  8
PROF
 10
3.0282326119516361
 20
10.90672780468298
 30
0.0000000000000001
 70
     8
  0
VERTEX
  5
C11F
  8
PROF
 10
3.0029774085463701
 20
10.869292270908771
 30
0.0000000000000001
 70
     8
  0
VERTEX
  5
C120
  8
PROF
 10
2.9769093850304089
 20
10.833458602985161
 30
0.0000000000000001
 70
     8
  0
VERTEX
  5
C121
  8
PROF
 10
2.9499397176628559
 20
10.799109165891419
 30
0.0000000000000001
 70
     8
  0
VERTEX
  5
C122
  8
PROF
 10
2.922000609840437
 20
10.76614363969508
 30
0.0000000000000001
 70
     8
  0
VERTEX
  5
C123
  8
PROF
 10
2.8931083735102998
 20
10.7345309648158
 30
0.0000000000000001
 70
     8
  0
VERTEX
  5
C124
  8
PROF
 10
2.8633003477572729
 20
10.70425739676193
 30
0.0000000000000001
 70
     8
  0
VERTEX
  5
C125
  8
PROF
 10
2.8326138716660689
 20
10.67530919104115
 30
0.0000000000000001
 70
     8
  0
VERTEX
  5
C126
  8
PROF
 10
2.801086284321626
 20
10.647672603161711
 30
0.0000000000000001
 70
     8
  0
VERTEX
  5
C127
  8
PROF
 10
2.7687549248087162
 20
10.62133388863162
 30
0.0000000000000001
 70
     8
  0
VERTEX
  5
C128
  8
PROF
 10
2.7356571322120531
 20
10.5962793029588
 30
0.0000000000000001
 70
     8
  0
VERTEX
  5
C129
  8
PROF
 10
2.7018302456165202
 20
10.572495101651381
 30
0.0000000000000001
 70
     8
  0
VERTEX
  5
C12A
  8
PROF
 10
2.6673116041068838
 20
10.54996754021726
 30
0.0000000000000001
 70
     8
  0
VERTEX
  5
C12B
  8
PROF
 10
2.6321385467680321
 20
10.528682874164581
 30
0.0000000000000001
 70
     8
  0
VERTEX
  5
C12C
  8
PROF
 10
2.5963484126846179
 20
10.508627359001251
 30
0.0000000000000001
 70
     8
  0
VERTEX
  5
C12D
  8
PROF
 10
2.5599785409415841
 20
10.489787250235279
 30
0.0000000000000001
 70
     8
  0
VERTEX
  5
C12E
  8
PROF
 10
2.522998630314361
 20
10.472162234281081
 30
0.0000000000000001
 70
     8
  0
VERTEX
  5
C12F
  8
PROF
 10
2.4851078183409072
 20
10.455805721177621
 30
0.0000000000000001
 70
     8
  0
VERTEX
  5
C130
  8
PROF
 10
2.4459376022498982
 20
10.44078455187036
 30
0.0000000000000001
 70
     8
  0
VERTEX
  5
C131
  8
PROF
 10
2.4051194792701249
 20
10.42716556730465
 30
0.0000000000000001
 70
     8
  0
VERTEX
  5
C132
  8
PROF
 10
2.3622849466301541
 20
10.415015608425851
 30
0.0000000000000001
 70
     8
  0
VERTEX
  5
C133
  8
PROF
 10
2.317065501558714
 20
10.40440151617929
 30
0.0000000000000001
 70
     8
  0
VERTEX
  5
C134
  8
PROF
 10
2.2690926412844301
 20
10.395390131510339
 30
0.0000000000000001
 70
     8
  0
VERTEX
  5
C135
  8
PROF
 10
2.2179978630360879
 20
10.388048295364451
 30
0.0000000000000001
 70
     8
  0
VERTEX
  5
C136
  8
PROF
 10
2.1634126640422551
 20
10.38244284868688
 30
0.0000000000000001
 70
     8
  0
VERTEX
  5
C137
  8
PROF
 10
2.1049685415316031
 20
10.37864063242295
 30
0.0000000000000001
 70
     8
  0
VERTEX
  5
C138
  8
PROF
 10
2.0422969927328709
 20
10.37670848751816
 30
0.0000000000000001
 70
     8
  0
VERTEX
  5
C139
  8
PROF
 10
1.9750295148747341
 20
10.37671325491794
 30
0.0000000000000001
 70
     8
  0
VERTEX
  5
C13A
  8
PROF
 10
4.2166060115107484
 20
12.80885334975255
 30
0.0000000000000001
 70
    16
  0
VERTEX
  5
C13B
  8
PROF
 10
3.8702254102732909
 20
12.707065515763929
 30
0.0000000000000001
 70
    16
  0
VERTEX
  5
C13C
  8
PROF
 10
3.605346156896871
 20
12.46277472098552
 30
0.0000000000000001
 70
    16
  0
VERTEX
  5
C13D
  8
PROF
 10
3.500746030527238
 20
12.170680575709749
 30
0.0000000000000001
 70
    16
  0
VERTEX
  5
C13E
  8
PROF
 10
3.231798439705698
 20
11.26846416496107
 30
0.0000000000000001
 70
    16
  0
VERTEX
  5
C13F
  8
PROF
 10
2.9737109398832882
 20
10.76631086647069
 30
0.0000000000000001
 70
    16
  0
VERTEX
  5
C140
  8
PROF
 10
2.5729961067384002
 20
10.460947364504699
 30
0.0000000000000001
 70
    16
  0
VERTEX
  5
C141
  8
PROF
 10
2.2537826214546031
 20
10.372731239449759
 30
0.0000000000000001
 70
    16
  0
VERTEX
  5
C142
  8
PROF
 10
1.9750295148747341
 20
10.37671325491794
 30
0.0000000000000001
 70
    16
  0
SEQEND
  5
C143
  8
PROF
  0
LINE
  5
C144
  8
PROF
 10
4.9012016798694162
 20
12.88585218805485
 30
0.0000000000000003
 11
4.519857503186925
 21
12.88585218805485
 31
0.0000000000000003
  0
LINE
  5
C145
  8
PROF
 10
0.7321315362267457
 20
8.2026312473991556
 30
0.0000000000000006
 11
0.7321315362267457
 21
8.0511853963434952
 31
0.0000000000000006
  0
ARC
  5
C146
  8
PROF
 10
0.7977322214551919
 20
7.577333933202679
 30
0.0000000000000006
 40
0.4783708383912013
 50
97.882010168942557
 51
186.31119505698641
  0
LINE
  5
C147
  8
FRAME_050
 10
7.8016377197432121
 20
17.99371054969447
 30
0.0
 11
7.8016377197432121
 21
0.0000000000002274
 31
0.0
  0
ENDBLK
  5
C149
  8
0
  0
BLOCK
  8
0
  2
*U7
 70
     1
 10
0.0
 20
0.0
 30
0.0
  3
*U7
  1

  0
TEXT
  5
C8C3
  8
0
 10
3.5177832928899071
 20
10.38601584255777
 30
0.0
 40
0.125
  1
Crown Moulding
  0
TEXT
  5
C8C4
  8
0
 10
3.5223876585106431
 20
10.17717091304435
 30
0.0
 40
0.125
  1
TL-AB509
  0
TEXT
  5
C8C5
  8
0
 10
3.5074661032582561
 20
9.9667059289606801
 30
0.0
 40
0.125
  1
1-5/16" x 7-9/16"
  0
TEXT
  5
C8C6
  8
0
 10
3.519403347460166
 20
9.7562409448770051
 30
0.0
 40
0.125
  1
800.66.TAGUE
  0
ENDBLK
  5
C8C8
  8
0
  0
BLOCK
  8
0
  2
*U8
 70
     1
 10
0.0
 20
0.0
 30
0.0
  3
*U8
  1

  0
TEXT
  5
C8CA
  8
0
 10
5.3066868277875692
 20
1.767659498411035
 30
0.0
 40
0.125
  1
Back Band
  0
TEXT
  5
C8CB
  8
0
 10
5.3153839628489603
 20
1.55881456889762
 30
0.0
 40
0.125
  1
TL-1
  0
TEXT
  5
C8CC
  8
0
 10
5.3004624075965721
 20
1.3483495848139451
 30
0.0
 40
0.125
  1
1-3/8" x 1-9/16"
  0
TEXT
  5
C8CD
  8
0
 10
5.3123996517984811
 20
1.1378846007302701
 30
0.0
 40
0.125
  1
800.66.TAGUE
  0
ENDBLK
  5
C8CF
  8
0
  0
BLOCK
  8
0
  2
*U9
 70
     1
 10
0.0
 20
0.0
 30
0.0
  3
*U9
  1

  0
TEXT
  5
C8D1
  8
0
 10
-385.7580743253551
 20
838.2627455404056
 30
0.0
 40
0.125
  1
Back Band
  0
TEXT
  5
C8D2
  8
0
 10
-385.74937719029373
 20
838.05390061089247
 30
0.0
 40
0.125
  1
TL-1
  0
TEXT
  5
C8D3
  8
0
 10
-385.76429874554611
 20
837.84343562680851
 30
0.0
 40
0.125
  1
1-3/8" x 1-9/16"
  0
TEXT
  5
C8D4
  8
0
 10
-385.75236150134418
 20
837.63297064272513
 30
0.0
 40
0.125
  1
800.66.TAGUE
  0
ENDBLK
  5
C8D6
  8
0
  0
BLOCK
  8
0
  2
*D21
 70
     1
 10
0.0
 20
0.0
 30
0.0
  3
*D21
  1

  0
LINE
  5
CDAB
  8
0
 62
     0
 10
-346.64573732984462
 20
509.42191863586828
 30
0.0
 11
-346.03266106471222
 21
509.42191863586828
 31
0.0
  0
LINE
  5
CDAC
  8
0
 62
     0
 10
-347.59461414974379
 20
507.61166709199199
 30
0.0
 11
-346.03266106471222
 21
507.61166709199199
 31
0.0
  0
LINE
  5
CDAD
  8
0
 62
     0
 10
-346.09516106471222
 20
509.42191863586828
 30
0.0
 11
-346.09516106471222
 21
507.61166709199199
 31
0.0
  0
INSERT
  5
CDAE
  8
0
 62
     0
  2
_ARCHTICK
 10
-346.09516106471222
 20
509.42191863586828
 30
0.0
 41
0.046875
 42
0.046875
 43
0.046875
 50
90.0
  0
INSERT
  5
CDAF
  8
0
 62
     0
  2
_ARCHTICK
 10
-346.09516106471222
 20
507.61166709199199
 30
0.0
 41
0.046875
 42
0.046875
 43
0.046875
 50
270.0
  0
INSERT
  5
CDB0
  8
0
  2
*U182
 10
0.0
 20
0.0
 30
0.0
  0
POINT
  5
CDB1
  8
DEFPOINTS
 62
     0
 10
-346.73948732984462
 20
509.42191863586828
 30
0.0
  0
POINT
  5
CDB2
  8
DEFPOINTS
 62
     0
 10
-347.68836414974379
 20
507.61166709199199
 30
0.0
  0
POINT
  5
CDB3
  8
DEFPOINTS
 62
     0
 10
-346.09516106471222
 20
507.61166709199199
 30
0.0
  0
ENDBLK
  5
CDB4
  8
0
  0
BLOCK
  8
0
  2
*D23
 70
     1
 10
0.0
 20
0.0
 30
0.0
  3
*D23
  1

  0
LINE
  5
CDEB
  8
0
 62
     0
 10
-387.02714157709249
 20
839.57969957928674
 30
0.0
 11
-386.41406531196009
 21
839.57969957928674
 31
0.0
  0
LINE
  5
CDEC
  8
0
 62
     0
 10
-387.97601839699172
 20
837.76944803541039
 30
0.0
 11
-386.41406531196009
 21
837.76944803541039
 31
0.0
  0
LINE
  5
CDED
  8
0
 62
     0
 10
-386.47656531196009
 20
839.57969957928674
 30
0.0
 11
-386.47656531196009
 21
837.76944803541039
 31
0.0
  0
INSERT
  5
CDEE
  8
0
 62
     0
  2
_ARCHTICK
 10
-386.47656531196009
 20
839.57969957928674
 30
0.0
 41
0.046875
 42
0.046875
 43
0.046875
 50
90.0
  0
INSERT
  5
CDEF
  8
0
 62
     0
  2
_ARCHTICK
 10
-386.47656531196009
 20
837.76944803541039
 30
0.0
 41
0.046875
 42
0.046875
 43
0.046875
 50
270.0
  0
INSERT
  5
CDF0
  8
0
  2
*U184
 10
0.0
 20
0.0
 30
0.0
  0
POINT
  5
CDF1
  8
DEFPOINTS
 62
     0
 10
-387.12089157709249
 20
839.57969957928674
 30
0.0
  0
POINT
  5
CDF2
  8
DEFPOINTS
 62
     0
 10
-388.06976839699172
 20
837.76944803541039
 30
0.0
  0
POINT
  5
CDF3
  8
DEFPOINTS
 62
     0
 10
-386.47656531196009
 20
837.76944803541039
 30
0.0
  0
ENDBLK
  5
CDEA
  8
0
  0
BLOCK
  8
0
  2
*D79
 70
     1
 10
0.0
 20
0.0
 30
0.0
  3
*D79
  1

  0
LINE
  5
11681
  8
0
 62
     0
 10
-365.81818307486373
 20
427.35429858331162
 30
0.0
 11
-366.93955544547038
 21
427.35429858331162
 31
0.0
  0
LINE
  5
11682
  8
0
 62
     0
 10
-365.81818307486373
 20
425.60429858331167
 30
0.0
 11
-366.93955544547038
 21
425.60429858331167
 31
0.0
  0
LINE
  5
11683
  8
0
 62
     0
 10
-366.87705544547038
 20
427.35429858331162
 30
0.0
 11
-366.87705544547038
 21
425.60429858331167
 31
0.0
  0
INSERT
  5
11684
  8
0
 62
     0
  2
_ARCHTICK
 10
-366.87705544547038
 20
427.35429858331162
 30
0.0
 41
0.046875
 42
0.046875
 43
0.046875
 50
90.0
  0
INSERT
  5
11685
  8
0
 62
     0
  2
_ARCHTICK
 10
-366.87705544547038
 20
425.60429858331167
 30
0.0
 41
0.046875
 42
0.046875
 43
0.046875
 50
270.0
  0
INSERT
  5
11686
  8
0
  2
*U233
 10
0.0
 20
0.0
 30
0.0
  0
POINT
  5
11687
  8
DEFPOINTS
 62
     0
 10
-365.72443307486373
 20
427.35429858331162
 30
0.0
  0
POINT
  5
11688
  8
DEFPOINTS
 62
     0
 10
-365.72443307486373
 20
425.60429858331167
 30
0.0
  0
POINT
  5
11689
  8
DEFPOINTS
 62
     0
 10
-366.87705544547038
 20
425.60429858331167
 30
0.0
  0
ENDBLK
  5
1168A
  8
0
  0
BLOCK
  8
0
  2
*D80
 70
     1
 10
0.0
 20
0.0
 30
0.0
  3
*D80
  1

  0
LINE
  5
1168D
  8
0
 62
     0
 10
-364.54417472031452
 20
426.21180552517308
 30
0.0
 11
-364.54417472031452
 21
424.99659347863422
 31
0.0
  0
LINE
  5
1168E
  8
0
 62
     0
 10
-363.66917472031452
 20
426.21180552517308
 30
0.0
 11
-363.66917472031452
 21
424.99659347863422
 31
0.0
  0
LINE
  5
1168F
  8
0
 62
     0
 10
-364.54417472031452
 20
425.05909347863428
 30
0.0
 11
-363.66917472031452
 21
425.05909347863428
 31
0.0
  0
INSERT
  5
11690
  8
0
 62
     0
  2
_ARCHTICK
 10
-364.54417472031452
 20
425.05909347863428
 30
0.0
 41
0.046875
 42
0.046875
 43
0.046875
 50
180.0
  0
INSERT
  5
11691
  8
0
 62
     0
  2
_ARCHTICK
 10
-363.66917472031452
 20
425.05909347863428
 30
0.0
 41
0.046875
 42
0.046875
 43
0.046875
  0
INSERT
  5
11692
  8
0
  2
*U234
 10
0.0
 20
0.0
 30
0.0
  0
POINT
  5
11693
  8
DEFPOINTS
 62
     0
 10
-364.54417472031452
 20
426.30555552517302
 30
0.0
  0
POINT
  5
11694
  8
DEFPOINTS
 62
     0
 10
-363.66917472031452
 20
426.30555552517302
 30
0.0
  0
POINT
  5
11695
  8
DEFPOINTS
 62
     0
 10
-363.66917472031452
 20
425.05909347863428
 30
0.0
  0
ENDBLK
  5
11696
  8
0
  0
BLOCK
  8
0
  2
*D81
 70
     1
 10
0.0
 20
0.0
 30
0.0
  3
*D81
  1

  0
LINE
  5
11699
  8
0
 62
     0
 10
-363.88792472031452
 20
427.24305552517302
 30
0.0
 11
-362.93745003010213
 21
427.24305552517302
 31
0.0
  0
LINE
  5
1169A
  8
0
 62
     0
 10
-364.0129247203148
 20
425.72929858331162
 30
0.0
 11
-362.93745003010213
 21
425.72929858331162
 31
0.0
  0
LINE
  5
1169B
  8
0
 62
     0
 10
-362.99995003010213
 20
427.24305552517302
 30
0.0
 11
-362.99995003010213
 21
425.72929858331162
 31
0.0
  0
INSERT
  5
1169C
  8
0
 62
     0
  2
_ARCHTICK
 10
-362.99995003010213
 20
427.24305552517302
 30
0.0
 41
0.046875
 42
0.046875
 43
0.046875
 50
90.0
  0
INSERT
  5
1169D
  8
0
 62
     0
  2
_ARCHTICK
 10
-362.99995003010213
 20
425.72929858331162
 30
0.0
 41
0.046875
 42
0.046875
 43
0.046875
 50
270.0
  0
INSERT
  5
1169E
  8
0
  2
*U235
 10
0.0
 20
0.0
 30
0.0
  0
POINT
  5
1169F
  8
DEFPOINTS
 62
     0
 10
-363.98167472031452
 20
427.24305552517302
 30
0.0
  0
POINT
  5
116A0
  8
DEFPOINTS
 62
     0
 10
-364.1066747203148
 20
425.72929858331162
 30
0.0
  0
POINT
  5
116A1
  8
DEFPOINTS
 62
     0
 10
-362.99995003010213
 20
425.72929858331162
 30
0.0
  0
ENDBLK
  5
116A2
  8
0
  0
BLOCK
  8
0
  2
*D83
 70
     1
 10
0.0
 20
0.0
 30
0.0
  3
*D83
  1

  0
LINE
  5
11701
  8
0
 62
     0
 10
-386.76054169220339
 20
839.74518098663441
 30
0.0
 11
-387.88191406281021
 21
839.74518098663441
 31
0.0
  0
LINE
  5
11702
  8
0
 62
     0
 10
-386.76054169220339
 20
837.99518098663441
 30
0.0
 11
-387.88191406281021
 21
837.99518098663441
 31
0.0
  0
LINE
  5
11703
  8
0
 62
     0
 10
-387.81941406281021
 20
839.74518098663441
 30
0.0
 11
-387.81941406281021
 21
837.99518098663441
 31
0.0
  0
INSERT
  5
11704
  8
0
 62
     0
  2
_ARCHTICK
 10
-387.81941406281021
 20
839.74518098663441
 30
0.0
 41
0.046875
 42
0.046875
 43
0.046875
 50
90.0
  0
INSERT
  5
11705
  8
0
 62
     0
  2
_ARCHTICK
 10
-387.81941406281021
 20
837.99518098663441
 30
0.0
 41
0.046875
 42
0.046875
 43
0.046875
 50
270.0
  0
INSERT
  5
11706
  8
0
  2
*U236
 10
0.0
 20
0.0
 30
0.0
  0
POINT
  5
11707
  8
DEFPOINTS
 62
     0
 10
-386.66679169220339
 20
839.74518098663441
 30
0.0
  0
POINT
  5
11708
  8
DEFPOINTS
 62
     0
 10
-386.66679169220339
 20
837.99518098663441
 30
0.0
  0
POINT
  5
11709
  8
DEFPOINTS
 62
     0
 10
-387.81941406281021
 20
837.99518098663441
 30
0.0
  0
ENDBLK
  5
116E8
  8
0
  0
BLOCK
  8
0
  2
*D84
 70
     1
 10
0.0
 20
0.0
 30
0.0
  3
*D84
  1

  0
LINE
  5
1170A
  8
0
 62
     0
 10
-385.48653333765429
 20
838.60268792849581
 30
0.0
 11
-385.48653333765429
 21
837.3874758819569
 31
0.0
  0
LINE
  5
1170B
  8
0
 62
     0
 10
-384.61153333765429
 20
838.60268792849581
 30
0.0
 11
-384.61153333765429
 21
837.3874758819569
 31
0.0
  0
LINE
  5
1170C
  8
0
 62
     0
 10
-385.48653333765429
 20
837.44997588195702
 30
0.0
 11
-384.61153333765429
 21
837.44997588195702
 31
0.0
  0
INSERT
  5
1170D
  8
0
 62
     0
  2
_ARCHTICK
 10
-385.48653333765429
 20
837.44997588195702
 30
0.0
 41
0.046875
 42
0.046875
 43
0.046875
 50
180.0
  0
INSERT
  5
1170E
  8
0
 62
     0
  2
_ARCHTICK
 10
-384.61153333765429
 20
837.44997588195702
 30
0.0
 41
0.046875
 42
0.046875
 43
0.046875
  0
INSERT
  5
1170F
  8
0
  2
*U237
 10
0.0
 20
0.0
 30
0.0
  0
POINT
  5
11710
  8
DEFPOINTS
 62
     0
 10
-385.48653333765429
 20
838.6964379284957
 30
0.0
  0
POINT
  5
11711
  8
DEFPOINTS
 62
     0
 10
-384.61153333765429
 20
838.6964379284957
 30
0.0
  0
POINT
  5
11712
  8
DEFPOINTS
 62
     0
 10
-384.61153333765429
 20
837.44997588195702
 30
0.0
  0
ENDBLK
  5
116F4
  8
0
  0
BLOCK
  8
0
  2
*D85
 70
     1
 10
0.0
 20
0.0
 30
0.0
  3
*D85
  1

  0
LINE
  5
11713
  8
0
 62
     0
 10
-384.83028333765429
 20
839.63393792849581
 30
0.0
 11
-383.87980864744191
 21
839.63393792849581
 31
0.0
  0
LINE
  5
11714
  8
0
 62
     0
 10
-384.95528333765452
 20
838.1201809866343
 30
0.0
 11
-383.87980864744191
 21
838.1201809866343
 31
0.0
  0
LINE
  5
11715
  8
0
 62
     0
 10
-383.94230864744191
 20
839.63393792849581
 30
0.0
 11
-383.94230864744191
 21
838.1201809866343
 31
0.0
  0
INSERT
  5
11716
  8
0
 62
     0
  2
_ARCHTICK
 10
-383.94230864744191
 20
839.63393792849581
 30
0.0
 41
0.046875
 42
0.046875
 43
0.046875
 50
90.0
  0
INSERT
  5
11717
  8
0
 62
     0
  2
_ARCHTICK
 10
-383.94230864744191
 20
838.1201809866343
 30
0.0
 41
0.046875
 42
0.046875
 43
0.046875
 50
270.0
  0
INSERT
  5
11718
  8
0
  2
*U238
 10
0.0
 20
0.0
 30
0.0
  0
POINT
  5
11719
  8
DEFPOINTS
 62
     0
 10
-384.92403333765429
 20
839.63393792849581
 30
0.0
  0
POINT
  5
1171A
  8
DEFPOINTS
 62
     0
 10
-385.04903333765452
 20
838.1201809866343
 30
0.0
  0
POINT
  5
1171B
  8
DEFPOINTS
 62
     0
 10
-383.94230864744191
 20
838.1201809866343
 30
0.0
  0
ENDBLK
  5
11700
  8
0
  0
BLOCK
  8
0
  2
*D87
 70
     1
 10
0.0
 20
0.0
 30
0.0
  3
*D87
  1

  0
LINE
  5
11B0C
  8
0
 62
     0
 10
-321.4967715029747
 20
426.11559169813472
 30
0.0
 11
-323.04650060770268
 21
426.11559169813472
 31
0.0
  0
LINE
  5
11B0D
  8
0
 62
     0
 10
-321.4967715029747
 20
424.36559169813472
 30
0.0
 11
-323.04650060770268
 21
424.36559169813472
 31
0.0
  0
LINE
  5
11B0E
  8
0
 62
     0
 10
-322.98400060770268
 20
426.11559169813472
 30
0.0
 11
-322.98400060770268
 21
424.36559169813472
 31
0.0
  0
INSERT
  5
11B0F
  8
0
 62
     0
  2
_ARCHTICK
 10
-322.98400060770268
 20
426.11559169813472
 30
0.0
 41
0.046875
 42
0.046875
 43
0.046875
 50
90.0
  0
INSERT
  5
11B10
  8
0
 62
     0
  2
_ARCHTICK
 10
-322.98400060770268
 20
424.36559169813472
 30
0.0
 41
0.046875
 42
0.046875
 43
0.046875
 50
270.0
  0
INSERT
  5
11B11
  8
0
  2
*U239
 10
0.0
 20
0.0
 30
0.0
  0
POINT
  5
11B12
  8
DEFPOINTS
 62
     0
 10
-321.4030215029747
 20
426.11559169813472
 30
0.0
  0
POINT
  5
11B13
  8
DEFPOINTS
 62
     0
 10
-321.4030215029747
 20
424.36559169813472
 30
0.0
  0
POINT
  5
11B14
  8
DEFPOINTS
 62
     0
 10
-322.98400060770268
 20
424.36559169813472
 30
0.0
  0
ENDBLK
  5
11B15
  8
0
  0
BLOCK
  8
0
  2
*D88
 70
     1
 10
0.0
 20
0.0
 30
0.0
  3
*D88
  1

  0
LINE
  5
11B18
  8
0
 62
     0
 10
-319.28256169396042
 20
425.92809169813472
 30
0.0
 11
-318.41048055355549
 21
425.92809169813472
 31
0.0
  0
LINE
  5
11B19
  8
0
 62
     0
 10
-319.28256169396042
 20
424.55309169813472
 30
0.0
 11
-318.41048055355549
 21
424.55309169813472
 31
0.0
  0
LINE
  5
11B1A
  8
0
 62
     0
 10
-318.47298055355549
 20
425.92809169813472
 30
0.0
 11
-318.47298055355549
 21
424.55309169813472
 31
0.0
  0
INSERT
  5
11B1B
  8
0
 62
     0
  2
_ARCHTICK
 10
-318.47298055355549
 20
425.92809169813472
 30
0.0
 41
0.046875
 42
0.046875
 43
0.046875
 50
90.0
  0
INSERT
  5
11B1C
  8
0
 62
     0
  2
_ARCHTICK
 10
-318.47298055355549
 20
424.55309169813472
 30
0.0
 41
0.046875
 42
0.046875
 43
0.046875
 50
270.0
  0
INSERT
  5
11B1D
  8
0
  2
*U240
 10
0.0
 20
0.0
 30
0.0
  0
POINT
  5
11B1E
  8
DEFPOINTS
 62
     0
 10
-319.37631169396042
 20
425.92809169813472
 30
0.0
  0
POINT
  5
11B1F
  8
DEFPOINTS
 62
     0
 10
-319.37631169396042
 20
424.55309169813472
 30
0.0
  0
POINT
  5
11B20
  8
DEFPOINTS
 62
     0
 10
-318.47298055355549
 20
424.55309169813472
 30
0.0
  0
ENDBLK
  5
11B21
  8
0
  0
BLOCK
  8
0
  2
*D90
 70
     1
 10
0.0
 20
0.0
 30
0.0
  3
*D90
  1

  0
LINE
  5
11B82
  8
0
 62
     0
 10
-385.93155206415412
 20
839.89288512488679
 30
0.0
 11
-387.48128116888211
 21
839.89288512488679
 31
0.0
  0
LINE
  5
11B83
  8
0
 62
     0
 10
-385.93155206415412
 20
838.14288512488679
 30
0.0
 11
-387.48128116888211
 21
838.14288512488679
 31
0.0
  0
LINE
  5
11B84
  8
0
 62
     0
 10
-387.41878116888211
 20
839.89288512488679
 30
0.0
 11
-387.41878116888211
 21
838.14288512488679
 31
0.0
  0
INSERT
  5
11B85
  8
0
 62
     0
  2
_ARCHTICK
 10
-387.41878116888211
 20
839.89288512488679
 30
0.0
 41
0.046875
 42
0.046875
 43
0.046875
 50
90.0
  0
INSERT
  5
11B86
  8
0
 62
     0
  2
_ARCHTICK
 10
-387.41878116888211
 20
838.14288512488679
 30
0.0
 41
0.046875
 42
0.046875
 43
0.046875
 50
270.0
  0
INSERT
  5
11B87
  8
0
  2
*U241
 10
0.0
 20
0.0
 30
0.0
  0
POINT
  5
11B88
  8
DEFPOINTS
 62
     0
 10
-385.83780206415412
 20
839.89288512488679
 30
0.0
  0
POINT
  5
11B89
  8
DEFPOINTS
 62
     0
 10
-385.83780206415412
 20
838.14288512488679
 30
0.0
  0
POINT
  5
11B8A
  8
DEFPOINTS
 62
     0
 10
-387.41878116888211
 20
838.14288512488679
 30
0.0
  0
ENDBLK
  5
11B75
  8
0
  0
BLOCK
  8
0
  2
*D91
 70
     1
 10
0.0
 20
0.0
 30
0.0
  3
*D91
  1

  0
LINE
  5
11B8B
  8
0
 62
     0
 10
-383.71734225513978
 20
839.70538512488679
 30
0.0
 11
-382.84526111473491
 21
839.70538512488679
 31
0.0
  0
LINE
  5
11B8C
  8
0
 62
     0
 10
-383.71734225513978
 20
838.33038512488679
 30
0.0
 11
-382.84526111473491
 21
838.33038512488679
 31
0.0
  0
LINE
  5
11B8D
  8
0
 62
     0
 10
-382.90776111473491
 20
839.70538512488679
 30
0.0
 11
-382.90776111473491
 21
838.33038512488679
 31
0.0
  0
INSERT
  5
11B8E
  8
0
 62
     0
  2
_ARCHTICK
 10
-382.90776111473491
 20
839.70538512488679
 30
0.0
 41
0.046875
 42
0.046875
 43
0.046875
 50
90.0
  0
INSERT
  5
11B8F
  8
0
 62
     0
  2
_ARCHTICK
 10
-382.90776111473491
 20
838.33038512488679
 30
0.0
 41
0.046875
 42
0.046875
 43
0.046875
 50
270.0
  0
INSERT
  5
11B90
  8
0
  2
*U242
 10
0.0
 20
0.0
 30
0.0
  0
POINT
  5
11B91
  8
DEFPOINTS
 62
     0
 10
-383.81109225513978
 20
839.70538512488679
 30
0.0
  0
POINT
  5
11B92
  8
DEFPOINTS
 62
     0
 10
-383.81109225513978
 20
838.33038512488679
 30
0.0
  0
POINT
  5
11B93
  8
DEFPOINTS
 62
     0
 10
-382.90776111473491
 20
838.33038512488679
 30
0.0
  0
ENDBLK
  5
11B81
  8
0
  0
BLOCK
  8
0
  2
*D128
 70
     1
 10
0.0
 20
0.0
 30
0.0
  3
*D128
  1

  0
LINE
  5
17AED
  8
0
 62
     0
 10
-265.85715049456587
 20
274.42038345687388
 30
0.0
 11
-266.22047975343469
 21
274.42038345687388
 31
0.0
  0
LINE
  5
17AEE
  8
0
 62
     0
 10
-265.52696349978612
 20
273.09820699771632
 30
0.0
 11
-266.22047975343469
 21
273.09820699771632
 31
0.0
  0
LINE
  5
17AEF
  8
0
 62
     0
 10
-266.15797975343457
 20
274.42038345687388
 30
0.0
 11
-266.15797975343457
 21
273.09820699771632
 31
0.0
  0
INSERT
  5
17AF0
  8
0
 62
     0
  2
_ARCHTICK
 10
-266.15797975343457
 20
274.42038345687388
 30
0.0
 41
0.046875
 42
0.046875
 43
0.046875
 50
90.0
  0
INSERT
  5
17AF1
  8
0
 62
     0
  2
_ARCHTICK
 10
-266.15797975343457
 20
273.09820699771632
 30
0.0
 41
0.046875
 42
0.046875
 43
0.046875
 50
270.0
  0
INSERT
  5
17AF2
  8
0
  2
*U277
 10
0.0
 20
0.0
 30
0.0
  0
POINT
  5
17AF3
  8
DEFPOINTS
 62
     0
 10
-265.76340049456587
 20
274.42038345687388
 30
0.0
  0
POINT
  5
17AF4
  8
DEFPOINTS
 62
     0
 10
-265.43321349978612
 20
273.09820699771632
 30
0.0
  0
POINT
  5
17AF5
  8
DEFPOINTS
 62
     0
 10
-266.15797975343457
 20
273.09820699771632
 30
0.0
  0
ENDBLK
  5
17AF6
  8
0
  0
BLOCK
  8
0
  2
*D129
 70
     1
 10
0.0
 20
0.0
 30
0.0
  3
*D129
  1

  0
LINE
  5
17AF9
  8
0
 62
     0
 10
-265.76340049456587
 20
274.32663345687388
 30
0.0
 11
-265.76340049456587
 21
273.69679522729513
 31
0.0
  0
LINE
  5
17AFA
  8
0
 62
     0
 10
-265.43321349978612
 20
274.32663345687388
 30
0.0
 11
-265.43321349978612
 21
273.69679522729513
 31
0.0
  0
LINE
  5
17AFB
  8
0
 62
     0
 10
-265.76340049456587
 20
273.75929522729513
 30
0.0
 11
-265.81027549456587
 21
273.75929522729513
 31
0.0
  0
LINE
  5
17AFC
  8
0
 62
     0
 10
-265.43321349978612
 20
273.75929522729513
 30
0.0
 11
-265.38633849978612
 21
273.75929522729513
 31
0.0
  0
INSERT
  5
17AFD
  8
0
 62
     0
  2
_ARCHTICK
 10
-265.76340049456587
 20
273.75929522729513
 30
0.0
 41
0.046875
 42
0.046875
 43
0.046875
  0
INSERT
  5
17AFE
  8
0
 62
     0
  2
_ARCHTICK
 10
-265.43321349978612
 20
273.75929522729513
 30
0.0
 41
0.046875
 42
0.046875
 43
0.046875
 50
180.0
  0
INSERT
  5
17AFF
  8
0
  2
*U278
 10
0.0
 20
0.0
 30
0.0
  0
POINT
  5
17B00
  8
DEFPOINTS
 62
     0
 10
-265.76340049456587
 20
274.42038345687388
 30
0.0
  0
POINT
  5
17B01
  8
DEFPOINTS
 62
     0
 10
-265.43321349978612
 20
274.42038345687388
 30
0.0
  0
POINT
  5
17B02
  8
DEFPOINTS
 62
     0
 10
-265.43321349978612
 20
273.75929522729513
 30
0.0
  0
ENDBLK
  5
17B03
  8
0
  0
BLOCK
  8
0
  2
*D131
 70
     1
 10
0.0
 20
0.0
 30
0.0
  3
*D131
  1

  0
LINE
  5
17B39
  8
0
 62
     0
 10
-387.65429506319202
 20
839.30724886751887
 30
0.0
 11
-388.01762432206078
 21
839.30724886751887
 31
0.0
  0
LINE
  5
17B3A
  8
0
 62
     0
 10
-387.32410806841222
 20
837.98507240836125
 30
0.0
 11
-388.01762432206078
 21
837.98507240836125
 31
0.0
  0
LINE
  5
17B3B
  8
0
 62
     0
 10
-387.95512432206078
 20
839.30724886751887
 30
0.0
 11
-387.95512432206078
 21
837.98507240836125
 31
0.0
  0
INSERT
  5
17B3C
  8
0
 62
     0
  2
_ARCHTICK
 10
-387.95512432206078
 20
839.30724886751887
 30
0.0
 41
0.046875
 42
0.046875
 43
0.046875
 50
90.0
  0
INSERT
  5
17B3D
  8
0
 62
     0
  2
_ARCHTICK
 10
-387.95512432206078
 20
837.98507240836125
 30
0.0
 41
0.046875
 42
0.046875
 43
0.046875
 50
270.0
  0
INSERT
  5
17B3E
  8
0
  2
*U280
 10
0.0
 20
0.0
 30
0.0
  0
POINT
  5
17B3F
  8
DEFPOINTS
 62
     0
 10
-387.56054506319202
 20
839.30724886751887
 30
0.0
  0
POINT
  5
17B40
  8
DEFPOINTS
 62
     0
 10
-387.23035806841222
 20
837.98507240836125
 30
0.0
  0
POINT
  5
17B41
  8
DEFPOINTS
 62
     0
 10
-387.95512432206078
 20
837.98507240836125
 30
0.0
  0
ENDBLK
  5
17B2B
  8
0
  0
BLOCK
  8
0
  2
*D132
 70
     1
 10
0.0
 20
0.0
 30
0.0
  3
*D132
  1

  0
LINE
  5
17B42
  8
0
 62
     0
 10
-387.56054506319202
 20
839.21349886751898
 30
0.0
 11
-387.56054506319202
 21
838.58366063794006
 31
0.0
  0
LINE
  5
17B43
  8
0
 62
     0
 10
-387.23035806841222
 20
839.21349886751898
 30
0.0
 11
-387.23035806841222
 21
838.58366063794006
 31
0.0
  0
LINE
  5
17B44
  8
0
 62
     0
 10
-387.56054506319202
 20
838.64616063794017
 30
0.0
 11
-387.60742006319202
 21
838.64616063794017
 31
0.0
  0
LINE
  5
17B45
  8
0
 62
     0
 10
-387.23035806841222
 20
838.64616063794017
 30
0.0
 11
-387.18348306841222
 21
838.64616063794017
 31
0.0
  0
INSERT
  5
17B46
  8
0
 62
     0
  2
_ARCHTICK
 10
-387.56054506319202
 20
838.64616063794017
 30
0.0
 41
0.046875
 42
0.046875
 43
0.046875
  0
INSERT
  5
17B47
  8
0
 62
     0
  2
_ARCHTICK
 10
-387.23035806841222
 20
838.64616063794017
 30
0.0
 41
0.046875
 42
0.046875
 43
0.046875
 50
180.0
  0
INSERT
  5
17B48
  8
0
  2
*U281
 10
0.0
 20
0.0
 30
0.0
  0
POINT
  5
17B49
  8
DEFPOINTS
 62
     0
 10
-387.56054506319202
 20
839.30724886751887
 30
0.0
  0
POINT
  5
17B4A
  8
DEFPOINTS
 62
     0
 10
-387.23035806841222
 20
839.30724886751887
 30
0.0
  0
POINT
  5
17B4B
  8
DEFPOINTS
 62
     0
 10
-387.23035806841222
 20
838.64616063794017
 30
0.0
  0
ENDBLK
  5
17B38
  8
0
  0
BLOCK
  8
0
  2
A$C1CC21CB1
 70
     0
 10
0.0
 20
0.0
 30
0.0
  3
A$C1CC21CB1
  1

  0
INSERT
  5
1E519
  8
0
  2
*U310
 10
0.0
 20
0.0
 30
0.0
  0
LINE
  5
1E51A
  8
0
 10
3.7500010114733291
 20
5.3952929104353577
 30
0.0
 11
3.7500010114733291
 21
4.3952929104353577
 31
0.0
  0
LINE
  5
1E51B
  8
0
 10
2.9518088400019451
 20
5.2313952928747929
 30
0.0
 11
3.1320282060082709
 21
5.3952929104353577
 31
0.0
  0
LINE
  5
1E51C
  8
0
 10
0.6179738169383882
 20
5.3952929104353577
 30
0.0
 11
0.7981931829447149
 21
5.2313952928747929
 31
0.0
  0
LINE
  5
1E51D
  8
0
 10
0.00000101147333
 20
4.3952929104353577
 30
0.0
 11
0.00000101147333
 21
5.3952929104353577
 31
0.0
  0
LINE
  5
1E51E
  8
0
 10
3.7500010114733291
 20
3.7500004431210239
 30
0.0
 11
3.7500010114733291
 21
0.0000004431210243
 31
0.0
  0
LINE
  5
1E51F
  8
0
 10
0.00000101147333
 20
0.0000004431210243
 30
0.0
 11
0.00000101147333
 21
3.7500004431210239
 31
0.0
  0
LINE
  5
1E520
  8
0
 10
2.0845209646054168
 20
5.2620610554768907
 30
0.0
 11
2.1726683896605432
 21
5.2620610554768907
 31
0.0
  0
LINE
  5
1E521
  8
0
 10
1.6654810583412989
 20
5.2620610554768907
 30
0.0
 11
1.5773336332861161
 21
5.2620610554768907
 31
0.0
  0
LINE
  5
1E522
  8
0
 10
0.6179738169383882
 20
5.3952929104353577
 30
0.0
 11
0.00000101147333
 21
5.3952929104353577
 31
0.0
  0
LINE
  5
1E523
  8
0
 10
3.7500010114733291
 20
5.3952929104353577
 30
0.0
 11
3.1320282060082709
 21
5.3952929104353577
 31
0.0
  0
LINE
  5
1E524
  8
0
 10
0.00000101147333
 20
4.3952929104353577
 30
0.0
 11
3.7500010114733291
 21
4.3952929104353577
 31
0.0
  0
LINE
  5
1E525
  8
0
 10
3.7500010114733291
 20
3.7500004431210239
 30
0.0
 11
0.00000101147333
 21
3.7500004431210239
 31
0.0
  0
LINE
  5
1E526
  8
0
 10
0.00000101147333
 20
0.0000004431210243
 30
0.0
 11
3.7500010114733291
 21
0.0000004431210243
 31
0.0
  0
ARC
  5
1E527
  8
0
  6
CONTINUOUS
 10
1.8514532601610649
 20
5.1591324902699114
 30
0.0
 40
0.2125557559448135
 50
83.639495236247939
 51
151.0371343670412
  0
POLYLINE
  8
0
  5
2082C
  66
     1
 10
0.000000
 20
0.000000
 30
0.000000
  70
     8
  0
VERTEX
  8
0
  5
2082D
 10
1.57733
 20
5.26206
 30
0.000000
  70
    32
  0
VERTEX
  8
0
  5
2082E
 10
1.57610
 20
5.26009
 30
0.000000
  70
    32
  0
VERTEX
  8
0
  5
2082F
 10
1.57484
 20
5.25813
 30
0.000000
  70
    32
  0
VERTEX
  8
0
  5
20830
 10
1.57356
 20
5.25618
 30
0.000000
  70
    32
  0
VERTEX
  8
0
  5
20831
 10
1.57226
 20
5.25425
 30
0.000000
  70
    32
  0
VERTEX
  8
0
  5
20832
 10
1.57095
 20
5.25233
 30
0.000000
  70
    32
  0
VERTEX
  8
0
  5
20833
 10
1.56961
 20
5.25043
 30
0.000000
  70
    32
  0
VERTEX
  8
0
  5
20834
 10
1.56826
 20
5.24854
 30
0.000000
  70
    32
  0
VERTEX
  8
0
  5
20835
 10
1.56689
 20
5.24666
 30
0.000000
  70
    32
  0
VERTEX
  8
0
  5
20836
 10
1.56550
 20
5.24479
 30
0.000000
  70
    32
  0
VERTEX
  8
0
  5
20837
 10
1.56409
 20
5.24294
 30
0.000000
  70
    32
  0
VERTEX
  8
0
  5
20838
 10
1.56267
 20
5.24110
 30
0.000000
  70
    32
  0
VERTEX
  8
0
  5
20839
 10
1.56122
 20
5.23927
 30
0.000000
  70
    32
  0
VERTEX
  8
0
  5
2083A
 10
1.55977
 20
5.23745
 30
0.000000
  70
    32
  0
VERTEX
  8
0
  5
2083B
 10
1.55829
 20
5.23565
 30
0.000000
  70
    32
  0
VERTEX
  8
0
  5
2083C
 10
1.55680
 20
5.23386
 30
0.000000
  70
    32
  0
VERTEX
  8
0
  5
2083D
 10
1.55529
 20
5.23208
 30
0.000000
  70
    32
  0
VERTEX
  8
0
  5
2083E
 10
1.55377
 20
5.23031
 30
0.000000
  70
    32
  0
VERTEX
  8
0
  5
2083F
 10
1.55223
 20
5.22855
 30
0.000000
  70
    32
  0
VERTEX
  8
0
  5
20840
 10
1.55068
 20
5.22680
 30
0.000000
  70
    32
  0
VERTEX
  8
0
  5
20841
 10
1.54911
 20
5.22506
 30
0.000000
  70
    32
  0
VERTEX
  8
0
  5
20842
 10
1.54753
 20
5.22333
 30
0.000000
  70
    32
  0
VERTEX
  8
0
  5
20843
 10
1.54593
 20
5.22162
 30
0.000000
  70
    32
  0
VERTEX
  8
0
  5
20844
 10
1.54432
 20
5.21991
 30
0.000000
  70
    32
  0
VERTEX
  8
0
  5
20845
 10
1.54270
 20
5.21822
 30
0.000000
  70
    32
  0
VERTEX
  8
0
  5
20846
 10
1.54106
 20
5.21653
 30
0.000000
  70
    32
  0
VERTEX
  8
0
  5
20847
 10
1.53941
 20
5.21485
 30
0.000000
  70
    32
  0
VERTEX
  8
0
  5
20848
 10
1.53775
 20
5.21319
 30
0.000000
  70
    32
  0
VERTEX
  8
0
  5
20849
 10
1.53607
 20
5.21153
 30
0.000000
  70
    32
  0
VERTEX
  8
0
  5
2084A
 10
1.53438
 20
5.20988
 30
0.000000
  70
    32
  0
VERTEX
  8
0
  5
2084B
 10
1.53268
 20
5.20824
 30
0.000000
  70
    32
  0
VERTEX
  8
0
  5
2084C
 10
1.53097
 20
5.20661
 30
0.000000
  70
    32
  0
VERTEX
  8
0
  5
2084D
 10
1.52925
 20
5.20499
 30
0.000000
  70
    32
  0
VERTEX
  8
0
  5
2084E
 10
1.52751
 20
5.20338
 30
0.000000
  70
    32
  0
VERTEX
  8
0
  5
2084F
 10
1.52576
 20
5.20178
 30
0.000000
  70
    32
  0
VERTEX
  8
0
  5
20850
 10
1.52400
 20
5.20020
 30
0.000000
  70
    32
  0
VERTEX
  8
0
  5
20851
 10
1.52223
 20
5.19862
 30
0.000000
  70
    32
  0
VERTEX
  8
0
  5
20852
 10
1.52045
 20
5.19706
 30
0.000000
  70
    32
  0
VERTEX
  8
0
  5
20853
 10
1.51865
 20
5.19552
 30
0.000000
  70
    32
  0
VERTEX
  8
0
  5
20854
 10
1.51684
 20
5.19399
 30
0.000000
  70
    32
  0
VERTEX
  8
0
  5
20855
 10
1.51502
 20
5.19248
 30
0.000000
  70
    32
  0
VERTEX
  8
0
  5
20856
 10
1.51318
 20
5.19098
 30
0.000000
  70
    32
  0
VERTEX
  8
0
  5
20857
 10
1.51134
 20
5.18950
 30
0.000000
  70
    32
  0
VERTEX
  8
0
  5
20858
 10
1.50948
 20
5.18804
 30
0.000000
  70
    32
  0
VERTEX
  8
0
  5
20859
 10
1.50761
 20
5.18659
 30
0.000000
  70
    32
  0
VERTEX
  8
0
  5
2085A
 10
1.50572
 20
5.18517
 30
0.000000
  70
    32
  0
VERTEX
  8
0
  5
2085B
 10
1.50383
 20
5.18376
 30
0.000000
  70
    32
  0
VERTEX
  8
0
  5
2085C
 10
1.50192
 20
5.18238
 30
0.000000
  70
    32
  0
VERTEX
  8
0
  5
2085D
 10
1.50000
 20
5.18102
 30
0.000000
  70
    32
  0
VERTEX
  8
0
  5
2085E
 10
1.49806
 20
5.17968
 30
0.000000
  70
    32
  0
VERTEX
  8
0
  5
2085F
 10
1.49612
 20
5.17836
 30
0.000000
  70
    32
  0
VERTEX
  8
0
  5
20860
 10
1.49416
 20
5.17706
 30
0.000000
  70
    32
  0
VERTEX
  8
0
  5
20861
 10
1.49219
 20
5.17579
 30
0.000000
  70
    32
  0
VERTEX
  8
0
  5
20862
 10
1.49020
 20
5.17454
 30
0.000000
  70
    32
  0
VERTEX
  8
0
  5
20863
 10
1.48821
 20
5.17332
 30
0.000000
  70
    32
  0
VERTEX
  8
0
  5
20864
 10
1.48620
 20
5.17213
 30
0.000000
  70
    32
  0
VERTEX
  8
0
  5
20865
 10
1.48417
 20
5.17096
 30
0.000000
  70
    32
  0
VERTEX
  8
0
  5
20866
 10
1.48214
 20
5.16982
 30
0.000000
  70
    32
  0
VERTEX
  8
0
  5
20867
 10
1.48009
 20
5.16871
 30
0.000000
  70
    32
  0
VERTEX
  8
0
  5
20868
 10
1.47803
 20
5.16762
 30
0.000000
  70
    32
  0
VERTEX
  8
0
  5
20869
 10
1.47595
 20
5.16657
 30
0.000000
  70
    32
  0
VERTEX
  8
0
  5
2086A
 10
1.47387
 20
5.16554
 30
0.000000
  70
    32
  0
VERTEX
  8
0
  5
2086B
 10
1.47177
 20
5.16455
 30
0.000000
  70
    32
  0
VERTEX
  8
0
  5
2086C
 10
1.46965
 20
5.16359
 30
0.000000
  70
    32
  0
VERTEX
  8
0
  5
2086D
 10
1.46753
 20
5.16266
 30
0.000000
  70
    32
  0
VERTEX
  8
0
  5
2086E
 10
1.46539
 20
5.16176
 30
0.000000
  70
    32
  0
VERTEX
  8
0
  5
2086F
 10
1.46323
 20
5.16090
 30
0.000000
  70
    32
  0
VERTEX
  8
0
  5
20870
 10
1.46107
 20
5.16007
 30
0.000000
  70
    32
  0
VERTEX
  8
0
  5
20871
 10
1.45889
 20
5.15927
 30
0.000000
  70
    32
  0
VERTEX
  8
0
  5
20872
 10
1.45670
 20
5.15851
 30
0.000000
  70
    32
  0
VERTEX
  8
0
  5
20873
 10
1.45449
 20
5.15779
 30
0.000000
  70
    32
  0
VERTEX
  8
0
  5
20874
 10
1.45227
 20
5.15710
 30
0.000000
  70
    32
  0
VERTEX
  8
0
  5
20875
 10
1.45004
 20
5.15645
 30
0.000000
  70
    32
  0
VERTEX
  8
0
  5
20876
 10
1.44780
 20
5.15583
 30
0.000000
  70
    32
  0
VERTEX
  8
0
  5
20877
 10
1.44555
 20
5.15525
 30
0.000000
  70
    32
  0
VERTEX
  8
0
  5
20878
 10
1.44329
 20
5.15470
 30
0.000000
  70
    32
  0
VERTEX
  8
0
  5
20879
 10
1.44102
 20
5.15418
 30
0.000000
  70
    32
  0
VERTEX
  8
0
  5
2087A
 10
1.43874
 20
5.15370
 30
0.000000
  70
    32
  0
VERTEX
  8
0
  5
2087B
 10
1.43645
 20
5.15325
 30
0.000000
  70
    32
  0
VERTEX
  8
0
  5
2087C
 10
1.43415
 20
5.15284
 30
0.000000
  70
    32
  0
VERTEX
  8
0
  5
2087D
 10
1.43184
 20
5.15245
 30
0.000000
  70
    32
  0
VERTEX
  8
0
  5
2087E
 10
1.42953
 20
5.15211
 30
0.000000
  70
    32
  0
VERTEX
  8
0
  5
2087F
 10
1.42720
 20
5.15179
 30
0.000000
  70
    32
  0
VERTEX
  8
0
  5
20880
 10
1.42487
 20
5.15150
 30
0.000000
  70
    32
  0
VERTEX
  8
0
  5
20881
 10
1.42254
 20
5.15125
 30
0.000000
  70
    32
  0
VERTEX
  8
0
  5
20882
 10
1.42020
 20
5.15103
 30
0.000000
  70
    32
  0
VERTEX
  8
0
  5
20883
 10
1.41785
 20
5.15084
 30
0.000000
  70
    32
  0
VERTEX
  8
0
  5
20884
 10
1.41550
 20
5.15068
 30
0.000000
  70
    32
  0
VERTEX
  8
0
  5
20885
 10
1.41314
 20
5.15056
 30
0.000000
  70
    32
  0
VERTEX
  8
0
  5
20886
 10
1.41078
 20
5.15046
 30
0.000000
  70
    32
  0
VERTEX
  8
0
  5
20887
 10
1.40842
 20
5.15040
 30
0.000000
  70
    32
  0
VERTEX
  8
0
  5
20888
 10
1.40606
 20
5.15036
 30
0.000000
  70
    32
  0
VERTEX
  8
0
  5
20889
 10
1.40369
 20
5.15036
 30
0.000000
  70
    32
  0
VERTEX
  8
0
  5
2088A
 10
1.40132
 20
5.15038
 30
0.000000
  70
    32
  0
VERTEX
  8
0
  5
2088B
 10
1.39894
 20
5.15044
 30
0.000000
  70
    32
  0
VERTEX
  8
0
  5
2088C
 10
1.39657
 20
5.15052
 30
0.000000
  70
    32
  0
VERTEX
  8
0
  5
2088D
 10
1.39420
 20
5.15064
 30
0.000000
  70
    32
  0
VERTEX
  8
0
  5
2088E
 10
1.39182
 20
5.15078
 30
0.000000
  70
    32
  0
VERTEX
  8
0
  5
2088F
 10
1.38945
 20
5.15095
 30
0.000000
  70
    32
  0
VERTEX
  8
0
  5
20890
 10
1.38707
 20
5.15115
 30
0.000000
  70
    32
  0
VERTEX
  8
0
  5
20891
 10
1.38470
 20
5.15138
 30
0.000000
  70
    32
  0
VERTEX
  8
0
  5
20892
 10
1.38233
 20
5.15164
 30
0.000000
  70
    32
  0
VERTEX
  8
0
  5
20893
 10
1.37996
 20
5.15192
 30
0.000000
  70
    32
  0
VERTEX
  8
0
  5
20894
 10
1.37759
 20
5.15224
 30
0.000000
  70
    32
  0
VERTEX
  8
0
  5
20895
 10
1.37523
 20
5.15258
 30
0.000000
  70
    32
  0
VERTEX
  8
0
  5
20896
 10
1.37287
 20
5.15294
 30
0.000000
  70
    32
  0
VERTEX
  8
0
  5
20897
 10
1.37051
 20
5.15334
 30
0.000000
  70
    32
  0
VERTEX
  8
0
  5
20898
 10
1.36816
 20
5.15376
 30
0.000000
  70
    32
  0
VERTEX
  8
0
  5
20899
 10
1.36581
 20
5.15420
 30
0.000000
  70
    32
  0
VERTEX
  8
0
  5
2089A
 10
1.36347
 20
5.15467
 30
0.000000
  70
    32
  0
VERTEX
  8
0
  5
2089B
 10
1.36114
 20
5.15517
 30
0.000000
  70
    32
  0
VERTEX
  8
0
  5
2089C
 10
1.35881
 20
5.15570
 30
0.000000
  70
    32
  0
VERTEX
  8
0
  5
2089D
 10
1.35648
 20
5.15625
 30
0.000000
  70
    32
  0
VERTEX
  8
0
  5
2089E
 10
1.35417
 20
5.15682
 30
0.000000
  70
    32
  0
VERTEX
  8
0
  5
2089F
 10
1.35186
 20
5.15743
 30
0.000000
  70
    32
  0
VERTEX
  8
0
  5
208A0
 10
1.34955
 20
5.15806
 30
0.000000
  70
    32
  0
VERTEX
  8
0
  5
208A1
 10
1.34726
 20
5.15871
 30
0.000000
  70
    32
  0
VERTEX
  8
0
  5
208A2
 10
1.34497
 20
5.15939
 30
0.000000
  70
    32
  0
VERTEX
  8
0
  5
208A3
 10
1.34270
 20
5.16009
 30
0.000000
  70
    32
  0
VERTEX
  8
0
  5
208A4
 10
1.34043
 20
5.16082
 30
0.000000
  70
    32
  0
VERTEX
  8
0
  5
208A5
 10
1.33817
 20
5.16158
 30
0.000000
  70
    32
  0
VERTEX
  8
0
  5
208A6
 10
1.33592
 20
5.16236
 30
0.000000
  70
    32
  0
VERTEX
  8
0
  5
208A7
 10
1.33368
 20
5.16316
 30
0.000000
  70
    32
  0
VERTEX
  8
0
  5
208A8
 10
1.33146
 20
5.16399
 30
0.000000
  70
    32
  0
VERTEX
  8
0
  5
208A9
 10
1.32924
 20
5.16485
 30
0.000000
  70
    32
  0
VERTEX
  8
0
  5
208AA
 10
1.32704
 20
5.16573
 30
0.000000
  70
    32
  0
VERTEX
  8
0
  5
208AB
 10
1.32484
 20
5.16663
 30
0.000000
  70
    32
  0
VERTEX
  8
0
  5
208AC
 10
1.32266
 20
5.16756
 30
0.000000
  70
    32
  0
VERTEX
  8
0
  5
208AD
 10
1.32049
 20
5.16851
 30
0.000000
  70
    32
  0
VERTEX
  8
0
  5
208AE
 10
1.31834
 20
5.16949
 30
0.000000
  70
    32
  0
VERTEX
  8
0
  5
208AF
 10
1.31620
 20
5.17049
 30
0.000000
  70
    32
  0
VERTEX
  8
0
  5
208B0
 10
1.31407
 20
5.17151
 30
0.000000
  70
    32
  0
VERTEX
  8
0
  5
208B1
 10
1.31195
 20
5.17256
 30
0.000000
  70
    32
  0
VERTEX
  8
0
  5
208B2
 10
1.30986
 20
5.17364
 30
0.000000
  70
    32
  0
VERTEX
  8
0
  5
208B3
 10
1.30777
 20
5.17473
 30
0.000000
  70
    32
  0
VERTEX
  8
0
  5
208B4
 10
1.30570
 20
5.17586
 30
0.000000
  70
    32
  0
VERTEX
  8
0
  5
208B5
 10
1.30365
 20
5.17700
 30
0.000000
  70
    32
  0
VERTEX
  8
0
  5
208B6
 10
1.30161
 20
5.17817
 30
0.000000
  70
    32
  0
VERTEX
  8
0
  5
208B7
 10
1.29959
 20
5.17936
 30
0.000000
  70
    32
  0
VERTEX
  8
0
  5
208B8
 10
1.29759
 20
5.18057
 30
0.000000
  70
    32
  0
VERTEX
  8
0
  5
208B9
 10
1.29560
 20
5.18181
 30
0.000000
  70
    32
  0
VERTEX
  8
0
  5
208BA
 10
1.29363
 20
5.18307
 30
0.000000
  70
    32
  0
VERTEX
  8
0
  5
208BB
 10
1.29168
 20
5.18436
 30
0.000000
  70
    32
  0
VERTEX
  8
0
  5
208BC
 10
1.28975
 20
5.18567
 30
0.000000
  70
    32
  0
VERTEX
  8
0
  5
208BD
 10
1.28783
 20
5.18700
 30
0.000000
  70
    32
  0
VERTEX
  8
0
  5
208BE
 10
1.28594
 20
5.18835
 30
0.000000
  70
    32
  0
VERTEX
  8
0
  5
208BF
 10
1.28406
 20
5.18973
 30
0.000000
  70
    32
  0
VERTEX
  8
0
  5
208C0
 10
1.28221
 20
5.19112
 30
0.000000
  70
    32
  0
VERTEX
  8
0
  5
208C1
 10
1.28037
 20
5.19255
 30
0.000000
  70
    32
  0
VERTEX
  8
0
  5
208C2
 10
1.27856
 20
5.19399
 30
0.000000
  70
    32
  0
VERTEX
  8
0
  5
208C3
 10
1.27677
 20
5.19545
 30
0.000000
  70
    32
  0
VERTEX
  8
0
  5
208C4
 10
1.27500
 20
5.19694
 30
0.000000
  70
    32
  0
VERTEX
  8
0
  5
208C5
 10
1.27325
 20
5.19845
 30
0.000000
  70
    32
  0
VERTEX
  8
0
  5
208C6
 10
1.27152
 20
5.19998
 30
0.000000
  70
    32
  0
VERTEX
  8
0
  5
208C7
 10
1.26981
 20
5.20154
 30
0.000000
  70
    32
  0
VERTEX
  8
0
  5
208C8
 10
1.26813
 20
5.20311
 30
0.000000
  70
    32
  0
VERTEX
  8
0
  5
208C9
 10
1.26647
 20
5.20471
 30
0.000000
  70
    32
  0
VERTEX
  8
0
  5
208CA
 10
1.26483
 20
5.20632
 30
0.000000
  70
    32
  0
VERTEX
  8
0
  5
208CB
 10
1.26320
 20
5.20796
 30
0.000000
  70
    32
  0
VERTEX
  8
0
  5
208CC
 10
1.26160
 20
5.20961
 30
0.000000
  70
    32
  0
VERTEX
  8
0
  5
208CD
 10
1.26001
 20
5.21128
 30
0.000000
  70
    32
  0
VERTEX
  8
0
  5
208CE
 10
1.25844
 20
5.21297
 30
0.000000
  70
    32
  0
VERTEX
  8
0
  5
208CF
 10
1.25689
 20
5.21467
 30
0.000000
  70
    32
  0
VERTEX
  8
0
  5
208D0
 10
1.25535
 20
5.21639
 30
0.000000
  70
    32
  0
VERTEX
  8
0
  5
208D1
 10
1.25383
 20
5.21813
 30
0.000000
  70
    32
  0
VERTEX
  8
0
  5
208D2
 10
1.25232
 20
5.21988
 30
0.000000
  70
    32
  0
VERTEX
  8
0
  5
208D3
 10
1.25083
 20
5.22164
 30
0.000000
  70
    32
  0
VERTEX
  8
0
  5
208D4
 10
1.24935
 20
5.22342
 30
0.000000
  70
    32
  0
VERTEX
  8
0
  5
208D5
 10
1.24788
 20
5.22521
 30
0.000000
  70
    32
  0
VERTEX
  8
0
  5
208D6
 10
1.24642
 20
5.22702
 30
0.000000
  70
    32
  0
VERTEX
  8
0
  5
208D7
 10
1.24498
 20
5.22883
 30
0.000000
  70
    32
  0
VERTEX
  8
0
  5
208D8
 10
1.24354
 20
5.23066
 30
0.000000
  70
    32
  0
VERTEX
  8
0
  5
208D9
 10
1.24212
 20
5.23249
 30
0.000000
  70
    32
  0
VERTEX
  8
0
  5
208DA
 10
1.24070
 20
5.23434
 30
0.000000
  70
    32
  0
VERTEX
  8
0
  5
208DB
 10
1.23930
 20
5.23620
 30
0.000000
  70
    32
  0
VERTEX
  8
0
  5
208DC
 10
1.23790
 20
5.23806
 30
0.000000
  70
    32
  0
VERTEX
  8
0
  5
208DD
 10
1.23651
 20
5.23993
 30
0.000000
  70
    32
  0
VERTEX
  8
0
  5
208DE
 10
1.23512
 20
5.24181
 30
0.000000
  70
    32
  0
VERTEX
  8
0
  5
208DF
 10
1.23374
 20
5.24370
 30
0.000000
  70
    32
  0
VERTEX
  8
0
  5
208E0
 10
1.23237
 20
5.24559
 30
0.000000
  70
    32
  0
VERTEX
  8
0
  5
208E1
 10
1.23099
 20
5.24749
 30
0.000000
  70
    32
  0
VERTEX
  8
0
  5
208E2
 10
1.22963
 20
5.24940
 30
0.000000
  70
    32
  0
VERTEX
  8
0
  5
208E3
 10
1.22826
 20
5.25130
 30
0.000000
  70
    32
  0
VERTEX
  8
0
  5
208E4
 10
1.22690
 20
5.25322
 30
0.000000
  70
    32
  0
VERTEX
  8
0
  5
208E5
 10
1.22554
 20
5.25513
 30
0.000000
  70
    32
  0
VERTEX
  8
0
  5
208E6
 10
1.22418
 20
5.25705
 30
0.000000
  70
    32
  0
VERTEX
  8
0
  5
208E7
 10
1.22282
 20
5.25896
 30
0.000000
  70
    32
  0
VERTEX
  8
0
  5
208E8
 10
1.22146
 20
5.26088
 30
0.000000
  70
    32
  0
VERTEX
  8
0
  5
208E9
 10
1.22010
 20
5.26281
 30
0.000000
  70
    32
  0
VERTEX
  8
0
  5
208EA
 10
1.21874
 20
5.26473
 30
0.000000
  70
    32
  0
VERTEX
  8
0
  5
208EB
 10
1.21738
 20
5.26665
 30
0.000000
  70
    32
  0
VERTEX
  8
0
  5
208EC
 10
1.21601
 20
5.26856
 30
0.000000
  70
    32
  0
VERTEX
  8
0
  5
208ED
 10
1.21464
 20
5.27048
 30
0.000000
  70
    32
  0
VERTEX
  8
0
  5
208EE
 10
1.21326
 20
5.27239
 30
0.000000
  70
    32
  0
VERTEX
  8
0
  5
208EF
 10
1.21188
 20
5.27431
 30
0.000000
  70
    32
  0
VERTEX
  8
0
  5
208F0
 10
1.21049
 20
5.27621
 30
0.000000
  70
    32
  0
VERTEX
  8
0
  5
208F1
 10
1.20910
 20
5.27812
 30
0.000000
  70
    32
  0
VERTEX
  8
0
  5
208F2
 10
1.20770
 20
5.28001
 30
0.000000
  70
    32
  0
VERTEX
  8
0
  5
208F3
 10
1.20629
 20
5.28190
 30
0.000000
  70
    32
  0
VERTEX
  8
0
  5
208F4
 10
1.20487
 20
5.28379
 30
0.000000
  70
    32
  0
VERTEX
  8
0
  5
208F5
 10
1.20344
 20
5.28567
 30
0.000000
  70
    32
  0
VERTEX
  8
0
  5
208F6
 10
1.20201
 20
5.28754
 30
0.000000
  70
    32
  0
VERTEX
  8
0
  5
208F7
 10
1.20056
 20
5.28940
 30
0.000000
  70
    32
  0
VERTEX
  8
0
  5
208F8
 10
1.19910
 20
5.29126
 30
0.000000
  70
    32
  0
VERTEX
  8
0
  5
208F9
 10
1.19763
 20
5.29311
 30
0.000000
  70
    32
  0
VERTEX
  8
0
  5
208FA
 10
1.19614
 20
5.29494
 30
0.000000
  70
    32
  0
VERTEX
  8
0
  5
208FB
 10
1.19465
 20
5.29677
 30
0.000000
  70
    32
  0
VERTEX
  8
0
  5
208FC
 10
1.19314
 20
5.29858
 30
0.000000
  70
    32
  0
VERTEX
  8
0
  5
208FD
 10
1.19161
 20
5.30038
 30
0.000000
  70
    32
  0
VERTEX
  8
0
  5
208FE
 10
1.19008
 20
5.30218
 30
0.000000
  70
    32
  0
VERTEX
  8
0
  5
208FF
 10
1.18853
 20
5.30396
 30
0.000000
  70
    32
  0
VERTEX
  8
0
  5
20900
 10
1.18697
 20
5.30573
 30
0.000000
  70
    32
  0
VERTEX
  8
0
  5
20901
 10
1.18539
 20
5.30748
 30
0.000000
  70
    32
  0
VERTEX
  8
0
  5
20902
 10
1.18381
 20
5.30923
 30
0.000000
  70
    32
  0
VERTEX
  8
0
  5
20903
 10
1.18221
 20
5.31096
 30
0.000000
  70
    32
  0
VERTEX
  8
0
  5
20904
 10
1.18059
 20
5.31268
 30
0.000000
  70
    32
  0
VERTEX
  8
0
  5
20905
 10
1.17897
 20
5.31439
 30
0.000000
  70
    32
  0
VERTEX
  8
0
  5
20906
 10
1.17733
 20
5.31608
 30
0.000000
  70
    32
  0
VERTEX
  8
0
  5
20907
 10
1.17568
 20
5.31776
 30
0.000000
  70
    32
  0
VERTEX
  8
0
  5
20908
 10
1.17401
 20
5.31943
 30
0.000000
  70
    32
  0
VERTEX
  8
0
  5
20909
 10
1.17234
 20
5.32108
 30
0.000000
  70
    32
  0
VERTEX
  8
0
  5
2090A
 10
1.17064
 20
5.32272
 30
0.000000
  70
    32
  0
VERTEX
  8
0
  5
2090B
 10
1.16894
 20
5.32434
 30
0.000000
  70
    32
  0
VERTEX
  8
0
  5
2090C
 10
1.16723
 20
5.32595
 30
0.000000
  70
    32
  0
VERTEX
  8
0
  5
2090D
 10
1.16550
 20
5.32754
 30
0.000000
  70
    32
  0
VERTEX
  8
0
  5
2090E
 10
1.16375
 20
5.32912
 30
0.000000
  70
    32
  0
VERTEX
  8
0
  5
2090F
 10
1.16200
 20
5.33068
 30
0.000000
  70
    32
  0
VERTEX
  8
0
  5
20910
 10
1.16023
 20
5.33222
 30
0.000000
  70
    32
  0
VERTEX
  8
0
  5
20911
 10
1.15845
 20
5.33375
 30
0.000000
  70
    32
  0
VERTEX
  8
0
  5
20912
 10
1.15666
 20
5.33527
 30
0.000000
  70
    32
  0
VERTEX
  8
0
  5
20913
 10
1.15485
 20
5.33676
 30
0.000000
  70
    32
  0
VERTEX
  8
0
  5
20914
 10
1.15303
 20
5.33824
 30
0.000000
  70
    32
  0
VERTEX
  8
0
  5
20915
 10
1.15120
 20
5.33970
 30
0.000000
  70
    32
  0
VERTEX
  8
0
  5
20916
 10
1.14936
 20
5.34114
 30
0.000000
  70
    32
  0
VERTEX
  8
0
  5
20917
 10
1.14750
 20
5.34257
 30
0.000000
  70
    32
  0
VERTEX
  8
0
  5
20918
 10
1.14563
 20
5.34398
 30
0.000000
  70
    32
  0
VERTEX
  8
0
  5
20919
 10
1.14375
 20
5.34536
 30
0.000000
  70
    32
  0
VERTEX
  8
0
  5
2091A
 10
1.14185
 20
5.34673
 30
0.000000
  70
    32
  0
VERTEX
  8
0
  5
2091B
 10
1.13994
 20
5.34809
 30
0.000000
  70
    32
  0
VERTEX
  8
0
  5
2091C
 10
1.13802
 20
5.34942
 30
0.000000
  70
    32
  0
VERTEX
  8
0
  5
2091D
 10
1.13609
 20
5.35073
 30
0.000000
  70
    32
  0
VERTEX
  8
0
  5
2091E
 10
1.13414
 20
5.35202
 30
0.000000
  70
    32
  0
VERTEX
  8
0
  5
2091F
 10
1.13218
 20
5.35329
 30
0.000000
  70
    32
  0
VERTEX
  8
0
  5
20920
 10
1.13021
 20
5.35454
 30
0.000000
  70
    32
  0
VERTEX
  8
0
  5
20921
 10
1.12822
 20
5.35578
 30
0.000000
  70
    32
  0
VERTEX
  8
0
  5
20922
 10
1.12622
 20
5.35699
 30
0.000000
  70
    32
  0
VERTEX
  8
0
  5
20923
 10
1.12421
 20
5.35817
 30
0.000000
  70
    32
  0
VERTEX
  8
0
  5
20924
 10
1.12219
 20
5.35934
 30
0.000000
  70
    32
  0
VERTEX
  8
0
  5
20925
 10
1.12015
 20
5.36049
 30
0.000000
  70
    32
  0
VERTEX
  8
0
  5
20926
 10
1.11810
 20
5.36161
 30
0.000000
  70
    32
  0
VERTEX
  8
0
  5
20927
 10
1.11604
 20
5.36271
 30
0.000000
  70
    32
  0
VERTEX
  8
0
  5
20928
 10
1.11397
 20
5.36379
 30
0.000000
  70
    32
  0
VERTEX
  8
0
  5
20929
 10
1.11188
 20
5.36485
 30
0.000000
  70
    32
  0
VERTEX
  8
0
  5
2092A
 10
1.10978
 20
5.36588
 30
0.000000
  70
    32
  0
VERTEX
  8
0
  5
2092B
 10
1.10767
 20
5.36689
 30
0.000000
  70
    32
  0
VERTEX
  8
0
  5
2092C
 10
1.10554
 20
5.36788
 30
0.000000
  70
    32
  0
VERTEX
  8
0
  5
2092D
 10
1.10341
 20
5.36884
 30
0.000000
  70
    32
  0
VERTEX
  8
0
  5
2092E
 10
1.10126
 20
5.36978
 30
0.000000
  70
    32
  0
VERTEX
  8
0
  5
2092F
 10
1.09910
 20
5.37070
 30
0.000000
  70
    32
  0
VERTEX
  8
0
  5
20930
 10
1.09694
 20
5.37159
 30
0.000000
  70
    32
  0
VERTEX
  8
0
  5
20931
 10
1.09476
 20
5.37246
 30
0.000000
  70
    32
  0
VERTEX
  8
0
  5
20932
 10
1.09257
 20
5.37331
 30
0.000000
  70
    32
  0
VERTEX
  8
0
  5
20933
 10
1.09037
 20
5.37414
 30
0.000000
  70
    32
  0
VERTEX
  8
0
  5
20934
 10
1.08816
 20
5.37494
 30
0.000000
  70
    32
  0
VERTEX
  8
0
  5
20935
 10
1.08594
 20
5.37571
 30
0.000000
  70
    32
  0
VERTEX
  8
0
  5
20936
 10
1.08372
 20
5.37647
 30
0.000000
  70
    32
  0
VERTEX
  8
0
  5
20937
 10
1.08148
 20
5.37720
 30
0.000000
  70
    32
  0
VERTEX
  8
0
  5
20938
 10
1.07924
 20
5.37790
 30
0.000000
  70
    32
  0
VERTEX
  8
0
  5
20939
 10
1.07699
 20
5.37858
 30
0.000000
  70
    32
  0
VERTEX
  8
0
  5
2093A
 10
1.07473
 20
5.37924
 30
0.000000
  70
    32
  0
VERTEX
  8
0
  5
2093B
 10
1.07246
 20
5.37987
 30
0.000000
  70
    32
  0
VERTEX
  8
0
  5
2093C
 10
1.07019
 20
5.38048
 30
0.000000
  70
    32
  0
VERTEX
  8
0
  5
2093D
 10
1.06790
 20
5.38107
 30
0.000000
  70
    32
  0
VERTEX
  8
0
  5
2093E
 10
1.06562
 20
5.38163
 30
0.000000
  70
    32
  0
VERTEX
  8
0
  5
2093F
 10
1.06332
 20
5.38217
 30
0.000000
  70
    32
  0
VERTEX
  8
0
  5
20940
 10
1.06102
 20
5.38268
 30
0.000000
  70
    32
  0
VERTEX
  8
0
  5
20941
 10
1.05872
 20
5.38317
 30
0.000000
  70
    32
  0
VERTEX
  8
0
  5
20942
 10
1.05640
 20
5.38363
 30
0.000000
  70
    32
  0
VERTEX
  8
0
  5
20943
 10
1.05409
 20
5.38407
 30
0.000000
  70
    32
  0
VERTEX
  8
0
  5
20944
 10
1.05176
 20
5.38449
 30
0.000000
  70
    32
  0
VERTEX
  8
0
  5
20945
 10
1.04944
 20
5.38488
 30
0.000000
  70
    32
  0
VERTEX
  8
0
  5
20946
 10
1.04711
 20
5.38525
 30
0.000000
  70
    32
  0
VERTEX
  8
0
  5
20947
 10
1.04477
 20
5.38559
 30
0.000000
  70
    32
  0
VERTEX
  8
0
  5
20948
 10
1.04243
 20
5.38590
 30
0.000000
  70
    32
  0
VERTEX
  8
0
  5
20949
 10
1.04009
 20
5.38619
 30
0.000000
  70
    32
  0
VERTEX
  8
0
  5
2094A
 10
1.03774
 20
5.38646
 30
0.000000
  70
    32
  0
VERTEX
  8
0
  5
2094B
 10
1.03540
 20
5.38670
 30
0.000000
  70
    32
  0
VERTEX
  8
0
  5
2094C
 10
1.03304
 20
5.38692
 30
0.000000
  70
    32
  0
VERTEX
  8
0
  5
2094D
 10
1.03069
 20
5.38711
 30
0.000000
  70
    32
  0
VERTEX
  8
0
  5
2094E
 10
1.02833
 20
5.38727
 30
0.000000
  70
    32
  0
VERTEX
  8
0
  5
2094F
 10
1.02598
 20
5.38741
 30
0.000000
  70
    32
  0
VERTEX
  8
0
  5
20950
 10
1.02362
 20
5.38753
 30
0.000000
  70
    32
  0
VERTEX
  8
0
  5
20951
 10
1.02126
 20
5.38762
 30
0.000000
  70
    32
  0
VERTEX
  8
0
  5
20952
 10
1.01890
 20
5.38768
 30
0.000000
  70
    32
  0
VERTEX
  8
0
  5
20953
 10
1.01653
 20
5.38772
 30
0.000000
  70
    32
  0
VERTEX
  8
0
  5
20954
 10
1.01417
 20
5.38773
 30
0.000000
  70
    32
  0
VERTEX
  8
0
  5
20955
 10
1.01181
 20
5.38772
 30
0.000000
  70
    32
  0
VERTEX
  8
0
  5
20956
 10
1.00945
 20
5.38768
 30
0.000000
  70
    32
  0
VERTEX
  8
0
  5
20957
 10
1.00708
 20
5.38761
 30
0.000000
  70
    32
  0
VERTEX
  8
0
  5
20958
 10
1.00472
 20
5.38752
 30
0.000000
  70
    32
  0
VERTEX
  8
0
  5
20959
 10
1.00236
 20
5.38741
 30
0.000000
  70
    32
  0
VERTEX
  8
0
  5
2095A
 10
1.00001
 20
5.38727
 30
0.000000
  70
    32
  0
VERTEX
  8
0
  5
2095B
 10
0.997649
 20
5.38710
 30
0.000000
  70
    32
  0
VERTEX
  8
0
  5
2095C
 10
0.995295
 20
5.38690
 30
0.000000
  70
    32
  0
VERTEX
  8
0
  5
2095D
 10
0.992943
 20
5.38668
 30
0.000000
  70
    32
  0
VERTEX
  8
0
  5
2095E
 10
0.990594
 20
5.38644
 30
0.000000
  70
    32
  0
VERTEX
  8
0
  5
2095F
 10
0.988249
 20
5.38617
 30
0.000000
  70
    32
  0
VERTEX
  8
0
  5
20960
 10
0.985907
 20
5.38587
 30
0.000000
  70
    32
  0
VERTEX
  8
0
  5
20961
 10
0.983569
 20
5.38554
 30
0.000000
  70
    32
  0
VERTEX
  8
0
  5
20962
 10
0.981235
 20
5.38520
 30
0.000000
  70
    32
  0
VERTEX
  8
0
  5
20963
 10
0.978906
 20
5.38482
 30
0.000000
  70
    32
  0
VERTEX
  8
0
  5
20964
 10
0.976581
 20
5.38442
 30
0.000000
  70
    32
  0
VERTEX
  8
0
  5
20965
 10
0.974263
 20
5.38399
 30
0.000000
  70
    32
  0
VERTEX
  8
0
  5
20966
 10
0.971949
 20
5.38354
 30
0.000000
  70
    32
  0
VERTEX
  8
0
  5
20967
 10
0.969642
 20
5.38306
 30
0.000000
  70
    32
  0
VERTEX
  8
0
  5
20968
 10
0.967341
 20
5.38255
 30
0.000000
  70
    32
  0
VERTEX
  8
0
  5
20969
 10
0.965047
 20
5.38202
 30
0.000000
  70
    32
  0
VERTEX
  8
0
  5
2096A
 10
0.962760
 20
5.38147
 30
0.000000
  70
    32
  0
VERTEX
  8
0
  5
2096B
 10
0.960480
 20
5.38088
 30
0.000000
  70
    32
  0
VERTEX
  8
0
  5
2096C
 10
0.958208
 20
5.38027
 30
0.000000
  70
    32
  0
VERTEX
  8
0
  5
2096D
 10
0.955943
 20
5.37964
 30
0.000000
  70
    32
  0
VERTEX
  8
0
  5
2096E
 10
0.953688
 20
5.37898
 30
0.000000
  70
    32
  0
VERTEX
  8
0
  5
2096F
 10
0.951441
 20
5.37829
 30
0.000000
  70
    32
  0
VERTEX
  8
0
  5
20970
 10
0.949203
 20
5.37758
 30
0.000000
  70
    32
  0
VERTEX
  8
0
  5
20971
 10
0.946974
 20
5.37684
 30
0.000000
  70
    32
  0
VERTEX
  8
0
  5
20972
 10
0.944756
 20
5.37607
 30
0.000000
  70
    32
  0
VERTEX
  8
0
  5
20973
 10
0.942547
 20
5.37528
 30
0.000000
  70
    32
  0
VERTEX
  8
0
  5
20974
 10
0.940349
 20
5.37446
 30
0.000000
  70
    32
  0
VERTEX
  8
0
  5
20975
 10
0.938162
 20
5.37362
 30
0.000000
  70
    32
  0
VERTEX
  8
0
  5
20976
 10
0.935986
 20
5.37275
 30
0.000000
  70
    32
  0
VERTEX
  8
0
  5
20977
 10
0.933821
 20
5.37186
 30
0.000000
  70
    32
  0
VERTEX
  8
0
  5
20978
 10
0.931669
 20
5.37093
 30
0.000000
  70
    32
  0
VERTEX
  8
0
  5
20979
 10
0.929528
 20
5.36999
 30
0.000000
  70
    32
  0
VERTEX
  8
0
  5
2097A
 10
0.927400
 20
5.36901
 30
0.000000
  70
    32
  0
VERTEX
  8
0
  5
2097B
 10
0.925285
 20
5.36801
 30
0.000000
  70
    32
  0
VERTEX
  8
0
  5
2097C
 10
0.923183
 20
5.36699
 30
0.000000
  70
    32
  0
VERTEX
  8
0
  5
2097D
 10
0.921095
 20
5.36594
 30
0.000000
  70
    32
  0
VERTEX
  8
0
  5
2097E
 10
0.919021
 20
5.36486
 30
0.000000
  70
    32
  0
VERTEX
  8
0
  5
2097F
 10
0.916960
 20
5.36375
 30
0.000000
  70
    32
  0
VERTEX
  8
0
  5
20980
 10
0.914915
 20
5.36262
 30
0.000000
  70
    32
  0
VERTEX
  8
0
  5
20981
 10
0.912884
 20
5.36147
 30
0.000000
  70
    32
  0
VERTEX
  8
0
  5
20982
 10
0.910867
 20
5.36028
 30
0.000000
  70
    32
  0
VERTEX
  8
0
  5
20983
 10
0.908865
 20
5.35908
 30
0.000000
  70
    32
  0
VERTEX
  8
0
  5
20984
 10
0.906878
 20
5.35785
 30
0.000000
  70
    32
  0
VERTEX
  8
0
  5
20985
 10
0.904905
 20
5.35659
 30
0.000000
  70
    32
  0
VERTEX
  8
0
  5
20986
 10
0.902947
 20
5.35532
 30
0.000000
  70
    32
  0
VERTEX
  8
0
  5
20987
 10
0.901003
 20
5.35402
 30
0.000000
  70
    32
  0
VERTEX
  8
0
  5
20988
 10
0.899074
 20
5.35269
 30
0.000000
  70
    32
  0
VERTEX
  8
0
  5
20989
 10
0.897160
 20
5.35135
 30
0.000000
  70
    32
  0
VERTEX
  8
0
  5
2098A
 10
0.895260
 20
5.34998
 30
0.000000
  70
    32
  0
VERTEX
  8
0
  5
2098B
 10
0.893375
 20
5.34859
 30
0.000000
  70
    32
  0
VERTEX
  8
0
  5
2098C
 10
0.891505
 20
5.34718
 30
0.000000
  70
    32
  0
VERTEX
  8
0
  5
2098D
 10
0.889649
 20
5.34575
 30
0.000000
  70
    32
  0
VERTEX
  8
0
  5
2098E
 10
0.887808
 20
5.34430
 30
0.000000
  70
    32
  0
VERTEX
  8
0
  5
2098F
 10
0.885982
 20
5.34283
 30
0.000000
  70
    32
  0
VERTEX
  8
0
  5
20990
 10
0.884170
 20
5.34134
 30
0.000000
  70
    32
  0
VERTEX
  8
0
  5
20991
 10
0.882373
 20
5.33983
 30
0.000000
  70
    32
  0
VERTEX
  8
0
  5
20992
 10
0.880591
 20
5.33831
 30
0.000000
  70
    32
  0
VERTEX
  8
0
  5
20993
 10
0.878824
 20
5.33676
 30
0.000000
  70
    32
  0
VERTEX
  8
0
  5
20994
 10
0.877071
 20
5.33520
 30
0.000000
  70
    32
  0
VERTEX
  8
0
  5
20995
 10
0.875334
 20
5.33362
 30
0.000000
  70
    32
  0
VERTEX
  8
0
  5
20996
 10
0.873611
 20
5.33203
 30
0.000000
  70
    32
  0
VERTEX
  8
0
  5
20997
 10
0.871902
 20
5.33042
 30
0.000000
  70
    32
  0
VERTEX
  8
0
  5
20998
 10
0.870209
 20
5.32879
 30
0.000000
  70
    32
  0
VERTEX
  8
0
  5
20999
 10
0.868530
 20
5.32715
 30
0.000000
  70
    32
  0
VERTEX
  8
0
  5
2099A
 10
0.866866
 20
5.32549
 30
0.000000
  70
    32
  0
VERTEX
  8
0
  5
2099B
 10
0.865217
 20
5.32382
 30
0.000000
  70
    32
  0
VERTEX
  8
0
  5
2099C
 10
0.863583
 20
5.32213
 30
0.000000
  70
    32
  0
VERTEX
  8
0
  5
2099D
 10
0.861964
 20
5.32043
 30
0.000000
  70
    32
  0
VERTEX
  8
0
  5
2099E
 10
0.860360
 20
5.31872
 30
0.000000
  70
    32
  0
VERTEX
  8
0
  5
2099F
 10
0.858770
 20
5.31699
 30
0.000000
  70
    32
  0
VERTEX
  8
0
  5
209A0
 10
0.857196
 20
5.31525
 30
0.000000
  70
    32
  0
VERTEX
  8
0
  5
209A1
 10
0.855636
 20
5.31350
 30
0.000000
  70
    32
  0
VERTEX
  8
0
  5
209A2
 10
0.854091
 20
5.31174
 30
0.000000
  70
    32
  0
VERTEX
  8
0
  5
209A3
 10
0.852561
 20
5.30997
 30
0.000000
  70
    32
  0
VERTEX
  8
0
  5
209A4
 10
0.851046
 20
5.30819
 30
0.000000
  70
    32
  0
VERTEX
  8
0
  5
209A5
 10
0.849546
 20
5.30639
 30
0.000000
  70
    32
  0
VERTEX
  8
0
  5
209A6
 10
0.848060
 20
5.30459
 30
0.000000
  70
    32
  0
VERTEX
  8
0
  5
209A7
 10
0.846587
 20
5.30277
 30
0.000000
  70
    32
  0
VERTEX
  8
0
  5
209A8
 10
0.845128
 20
5.30095
 30
0.000000
  70
    32
  0
VERTEX
  8
0
  5
209A9
 10
0.843681
 20
5.29912
 30
0.000000
  70
    32
  0
VERTEX
  8
0
  5
209AA
 10
0.842247
 20
5.29728
 30
0.000000
  70
    32
  0
VERTEX
  8
0
  5
209AB
 10
0.840826
 20
5.29543
 30
0.000000
  70
    32
  0
VERTEX
  8
0
  5
209AC
 10
0.839416
 20
5.29357
 30
0.000000
  70
    32
  0
VERTEX
  8
0
  5
209AD
 10
0.838018
 20
5.29170
 30
0.000000
  70
    32
  0
VERTEX
  8
0
  5
209AE
 10
0.836630
 20
5.28983
 30
0.000000
  70
    32
  0
VERTEX
  8
0
  5
209AF
 10
0.835253
 20
5.28795
 30
0.000000
  70
    32
  0
VERTEX
  8
0
  5
209B0
 10
0.833887
 20
5.28606
 30
0.000000
  70
    32
  0
VERTEX
  8
0
  5
209B1
 10
0.832530
 20
5.28416
 30
0.000000
  70
    32
  0
VERTEX
  8
0
  5
209B2
 10
0.831182
 20
5.28226
 30
0.000000
  70
    32
  0
VERTEX
  8
0
  5
209B3
 10
0.829844
 20
5.28035
 30
0.000000
  70
    32
  0
VERTEX
  8
0
  5
209B4
 10
0.828515
 20
5.27843
 30
0.000000
  70
    32
  0
VERTEX
  8
0
  5
209B5
 10
0.827193
 20
5.27651
 30
0.000000
  70
    32
  0
VERTEX
  8
0
  5
209B6
 10
0.825880
 20
5.27459
 30
0.000000
  70
    32
  0
VERTEX
  8
0
  5
209B7
 10
0.824574
 20
5.27265
 30
0.000000
  70
    32
  0
VERTEX
  8
0
  5
209B8
 10
0.823275
 20
5.27072
 30
0.000000
  70
    32
  0
VERTEX
  8
0
  5
209B9
 10
0.821983
 20
5.26878
 30
0.000000
  70
    32
  0
VERTEX
  8
0
  5
209BA
 10
0.820697
 20
5.26683
 30
0.000000
  70
    32
  0
VERTEX
  8
0
  5
209BB
 10
0.819417
 20
5.26488
 30
0.000000
  70
    32
  0
VERTEX
  8
0
  5
209BC
 10
0.818143
 20
5.26293
 30
0.000000
  70
    32
  0
VERTEX
  8
0
  5
209BD
 10
0.816874
 20
5.26097
 30
0.000000
  70
    32
  0
VERTEX
  8
0
  5
209BE
 10
0.815610
 20
5.25901
 30
0.000000
  70
    32
  0
VERTEX
  8
0
  5
209BF
 10
0.814350
 20
5.25705
 30
0.000000
  70
    32
  0
VERTEX
  8
0
  5
209C0
 10
0.813094
 20
5.25508
 30
0.000000
  70
    32
  0
VERTEX
  8
0
  5
209C1
 10
0.811841
 20
5.25311
 30
0.000000
  70
    32
  0
VERTEX
  8
0
  5
209C2
 10
0.810592
 20
5.25114
 30
0.000000
  70
    32
  0
VERTEX
  8
0
  5
209C3
 10
0.809346
 20
5.24917
 30
0.000000
  70
    32
  0
VERTEX
  8
0
  5
209C4
 10
0.808102
 20
5.24720
 30
0.000000
  70
    32
  0
VERTEX
  8
0
  5
209C5
 10
0.806861
 20
5.24522
 30
0.000000
  70
    32
  0
VERTEX
  8
0
  5
209C6
 10
0.805620
 20
5.24325
 30
0.000000
  70
    32
  0
VERTEX
  8
0
  5
209C7
 10
0.804382
 20
5.24127
 30
0.000000
  70
    32
  0
VERTEX
  8
0
  5
209C8
 10
0.803144
 20
5.23930
 30
0.000000
  70
    32
  0
VERTEX
  8
0
  5
209C9
 10
0.801906
 20
5.23732
 30
0.000000
  70
    32
  0
VERTEX
  8
0
  5
209CA
 10
0.800669
 20
5.23535
 30
0.000000
  70
    32
  0
VERTEX
  8
0
  5
209CB
 10
0.799431
 20
5.23337
 30
0.000000
  70
    32
  0
VERTEX
  8
0
  5
209CC
 10
0.798193
 20
5.23140
 30
0.000000
  70
    32
  0
SEQEND
  8
0
  5
209CD
  0
ARC
  5
1E529
  8
0
  6
CONTINUOUS
 10
1.898548762785651
 20
5.1591324902699114
 30
0.0
 40
0.2125557559448135
 50
28.962865632958739
 51
96.360504763752061
  0
CIRCLE
  5
1E52A
  8
0
  6
CONTINUOUS
 10
1.8750010114733291
 20
1.8750004431210241
 30
0.0
 40
0.2095199531320588
  0
CIRCLE
  5
1E52B
  8
0
  6
CONTINUOUS
 10
1.8750010114733291
 20
1.8750004431210241
 30
0.0
 40
0.2976673781872137
  0
POLYLINE
  8
0
  5
209CE
  66
     1
 10
0.000000
 20
0.000000
 30
0.000000
  70
     8
  0
VERTEX
  8
0
  5
209CF
 10
2.17267
 20
5.26206
 30
0.000000
  70
    32
  0
VERTEX
  8
0
  5
209D0
 10
2.17391
 20
5.26009
 30
0.000000
  70
    32
  0
VERTEX
  8
0
  5
209D1
 10
2.17516
 20
5.25813
 30
0.000000
  70
    32
  0
VERTEX
  8
0
  5
209D2
 10
2.17644
 20
5.25618
 30
0.000000
  70
    32
  0
VERTEX
  8
0
  5
209D3
 10
2.17774
 20
5.25425
 30
0.000000
  70
    32
  0
VERTEX
  8
0
  5
209D4
 10
2.17906
 20
5.25233
 30
0.000000
  70
    32
  0
VERTEX
  8
0
  5
209D5
 10
2.18039
 20
5.25043
 30
0.000000
  70
    32
  0
VERTEX
  8
0
  5
209D6
 10
2.18174
 20
5.24854
 30
0.000000
  70
    32
  0
VERTEX
  8
0
  5
209D7
 10
2.18312
 20
5.24666
 30
0.000000
  70
    32
  0
VERTEX
  8
0
  5
209D8
 10
2.18451
 20
5.24479
 30
0.000000
  70
    32
  0
VERTEX
  8
0
  5
209D9
 10
2.18591
 20
5.24294
 30
0.000000
  70
    32
  0
VERTEX
  8
0
  5
209DA
 10
2.18734
 20
5.24110
 30
0.000000
  70
    32
  0
VERTEX
  8
0
  5
209DB
 10
2.18878
 20
5.23927
 30
0.000000
  70
    32
  0
VERTEX
  8
0
  5
209DC
 10
2.19024
 20
5.23745
 30
0.000000
  70
    32
  0
VERTEX
  8
0
  5
209DD
 10
2.19171
 20
5.23565
 30
0.000000
  70
    32
  0
VERTEX
  8
0
  5
209DE
 10
2.19320
 20
5.23386
 30
0.000000
  70
    32
  0
VERTEX
  8
0
  5
209DF
 10
2.19471
 20
5.23208
 30
0.000000
  70
    32
  0
VERTEX
  8
0
  5
209E0
 10
2.19623
 20
5.23031
 30
0.000000
  70
    32
  0
VERTEX
  8
0
  5
209E1
 10
2.19777
 20
5.22855
 30
0.000000
  70
    32
  0
VERTEX
  8
0
  5
209E2
 10
2.19932
 20
5.22680
 30
0.000000
  70
    32
  0
VERTEX
  8
0
  5
209E3
 10
2.20089
 20
5.22506
 30
0.000000
  70
    32
  0
VERTEX
  8
0
  5
209E4
 10
2.20247
 20
5.22333
 30
0.000000
  70
    32
  0
VERTEX
  8
0
  5
209E5
 10
2.20407
 20
5.22162
 30
0.000000
  70
    32
  0
VERTEX
  8
0
  5
209E6
 10
2.20568
 20
5.21991
 30
0.000000
  70
    32
  0
VERTEX
  8
0
  5
209E7
 10
2.20730
 20
5.21822
 30
0.000000
  70
    32
  0
VERTEX
  8
0
  5
209E8
 10
2.20894
 20
5.21653
 30
0.000000
  70
    32
  0
VERTEX
  8
0
  5
209E9
 10
2.21059
 20
5.21485
 30
0.000000
  70
    32
  0
VERTEX
  8
0
  5
209EA
 10
2.21225
 20
5.21319
 30
0.000000
  70
    32
  0
VERTEX
  8
0
  5
209EB
 10
2.21393
 20
5.21153
 30
0.000000
  70
    32
  0
VERTEX
  8
0
  5
209EC
 10
2.21562
 20
5.20988
 30
0.000000
  70
    32
  0
VERTEX
  8
0
  5
209ED
 10
2.21732
 20
5.20824
 30
0.000000
  70
    32
  0
VERTEX
  8
0
  5
209EE
 10
2.21903
 20
5.20661
 30
0.000000
  70
    32
  0
VERTEX
  8
0
  5
209EF
 10
2.22075
 20
5.20499
 30
0.000000
  70
    32
  0
VERTEX
  8
0
  5
209F0
 10
2.22249
 20
5.20338
 30
0.000000
  70
    32
  0
VERTEX
  8
0
  5
209F1
 10
2.22424
 20
5.20178
 30
0.000000
  70
    32
  0
VERTEX
  8
0
  5
209F2
 10
2.22600
 20
5.20020
 30
0.000000
  70
    32
  0
VERTEX
  8
0
  5
209F3
 10
2.22777
 20
5.19862
 30
0.000000
  70
    32
  0
VERTEX
  8
0
  5
209F4
 10
2.22956
 20
5.19706
 30
0.000000
  70
    32
  0
VERTEX
  8
0
  5
209F5
 10
2.23135
 20
5.19552
 30
0.000000
  70
    32
  0
VERTEX
  8
0
  5
209F6
 10
2.23316
 20
5.19399
 30
0.000000
  70
    32
  0
VERTEX
  8
0
  5
209F7
 10
2.23498
 20
5.19248
 30
0.000000
  70
    32
  0
VERTEX
  8
0
  5
209F8
 10
2.23682
 20
5.19098
 30
0.000000
  70
    32
  0
VERTEX
  8
0
  5
209F9
 10
2.23866
 20
5.18950
 30
0.000000
  70
    32
  0
VERTEX
  8
0
  5
209FA
 10
2.24052
 20
5.18804
 30
0.000000
  70
    32
  0
VERTEX
  8
0
  5
209FB
 10
2.24239
 20
5.18659
 30
0.000000
  70
    32
  0
VERTEX
  8
0
  5
209FC
 10
2.24428
 20
5.18517
 30
0.000000
  70
    32
  0
VERTEX
  8
0
  5
209FD
 10
2.24617
 20
5.18376
 30
0.000000
  70
    32
  0
VERTEX
  8
0
  5
209FE
 10
2.24808
 20
5.18238
 30
0.000000
  70
    32
  0
VERTEX
  8
0
  5
209FF
 10
2.25000
 20
5.18102
 30
0.000000
  70
    32
  0
VERTEX
  8
0
  5
20A00
 10
2.25194
 20
5.17968
 30
0.000000
  70
    32
  0
VERTEX
  8
0
  5
20A01
 10
2.25388
 20
5.17836
 30
0.000000
  70
    32
  0
VERTEX
  8
0
  5
20A02
 10
2.25584
 20
5.17706
 30
0.000000
  70
    32
  0
VERTEX
  8
0
  5
20A03
 10
2.25781
 20
5.17579
 30
0.000000
  70
    32
  0
VERTEX
  8
0
  5
20A04
 10
2.25980
 20
5.17454
 30
0.000000
  70
    32
  0
VERTEX
  8
0
  5
20A05
 10
2.26180
 20
5.17332
 30
0.000000
  70
    32
  0
VERTEX
  8
0
  5
20A06
 10
2.26381
 20
5.17213
 30
0.000000
  70
    32
  0
VERTEX
  8
0
  5
20A07
 10
2.26583
 20
5.17096
 30
0.000000
  70
    32
  0
VERTEX
  8
0
  5
20A08
 10
2.26786
 20
5.16982
 30
0.000000
  70
    32
  0
VERTEX
  8
0
  5
20A09
 10
2.26991
 20
5.16871
 30
0.000000
  70
    32
  0
VERTEX
  8
0
  5
20A0A
 10
2.27197
 20
5.16762
 30
0.000000
  70
    32
  0
VERTEX
  8
0
  5
20A0B
 10
2.27405
 20
5.16657
 30
0.000000
  70
    32
  0
VERTEX
  8
0
  5
20A0C
 10
2.27614
 20
5.16554
 30
0.000000
  70
    32
  0
VERTEX
  8
0
  5
20A0D
 10
2.27824
 20
5.16455
 30
0.000000
  70
    32
  0
VERTEX
  8
0
  5
20A0E
 10
2.28035
 20
5.16359
 30
0.000000
  70
    32
  0
VERTEX
  8
0
  5
20A0F
 10
2.28248
 20
5.16266
 30
0.000000
  70
    32
  0
VERTEX
  8
0
  5
20A10
 10
2.28462
 20
5.16176
 30
0.000000
  70
    32
  0
VERTEX
  8
0
  5
20A11
 10
2.28677
 20
5.16090
 30
0.000000
  70
    32
  0
VERTEX
  8
0
  5
20A12
 10
2.28893
 20
5.16007
 30
0.000000
  70
    32
  0
VERTEX
  8
0
  5
20A13
 10
2.29111
 20
5.15927
 30
0.000000
  70
    32
  0
VERTEX
  8
0
  5
20A14
 10
2.29331
 20
5.15851
 30
0.000000
  70
    32
  0
VERTEX
  8
0
  5
20A15
 10
2.29551
 20
5.15779
 30
0.000000
  70
    32
  0
VERTEX
  8
0
  5
20A16
 10
2.29773
 20
5.15710
 30
0.000000
  70
    32
  0
VERTEX
  8
0
  5
20A17
 10
2.29996
 20
5.15645
 30
0.000000
  70
    32
  0
VERTEX
  8
0
  5
20A18
 10
2.30220
 20
5.15583
 30
0.000000
  70
    32
  0
VERTEX
  8
0
  5
20A19
 10
2.30445
 20
5.15525
 30
0.000000
  70
    32
  0
VERTEX
  8
0
  5
20A1A
 10
2.30671
 20
5.15470
 30
0.000000
  70
    32
  0
VERTEX
  8
0
  5
20A1B
 10
2.30898
 20
5.15418
 30
0.000000
  70
    32
  0
VERTEX
  8
0
  5
20A1C
 10
2.31126
 20
5.15370
 30
0.000000
  70
    32
  0
VERTEX
  8
0
  5
20A1D
 10
2.31356
 20
5.15325
 30
0.000000
  70
    32
  0
VERTEX
  8
0
  5
20A1E
 10
2.31585
 20
5.15284
 30
0.000000
  70
    32
  0
VERTEX
  8
0
  5
20A1F
 10
2.31816
 20
5.15245
 30
0.000000
  70
    32
  0
VERTEX
  8
0
  5
20A20
 10
2.32048
 20
5.15211
 30
0.000000
  70
    32
  0
VERTEX
  8
0
  5
20A21
 10
2.32280
 20
5.15179
 30
0.000000
  70
    32
  0
VERTEX
  8
0
  5
20A22
 10
2.32513
 20
5.15150
 30
0.000000
  70
    32
  0
VERTEX
  8
0
  5
20A23
 10
2.32746
 20
5.15125
 30
0.000000
  70
    32
  0
VERTEX
  8
0
  5
20A24
 10
2.32980
 20
5.15103
 30
0.000000
  70
    32
  0
VERTEX
  8
0
  5
20A25
 10
2.33215
 20
5.15084
 30
0.000000
  70
    32
  0
VERTEX
  8
0
  5
20A26
 10
2.33450
 20
5.15068
 30
0.000000
  70
    32
  0
VERTEX
  8
0
  5
20A27
 10
2.33686
 20
5.15056
 30
0.000000
  70
    32
  0
VERTEX
  8
0
  5
20A28
 10
2.33922
 20
5.15046
 30
0.000000
  70
    32
  0
VERTEX
  8
0
  5
20A29
 10
2.34158
 20
5.15040
 30
0.000000
  70
    32
  0
VERTEX
  8
0
  5
20A2A
 10
2.34395
 20
5.15036
 30
0.000000
  70
    32
  0
VERTEX
  8
0
  5
20A2B
 10
2.34632
 20
5.15036
 30
0.000000
  70
    32
  0
VERTEX
  8
0
  5
20A2C
 10
2.34869
 20
5.15038
 30
0.000000
  70
    32
  0
VERTEX
  8
0
  5
20A2D
 10
2.35106
 20
5.15044
 30
0.000000
  70
    32
  0
VERTEX
  8
0
  5
20A2E
 10
2.35343
 20
5.15052
 30
0.000000
  70
    32
  0
VERTEX
  8
0
  5
20A2F
 10
2.35581
 20
5.15064
 30
0.000000
  70
    32
  0
VERTEX
  8
0
  5
20A30
 10
2.35818
 20
5.15078
 30
0.000000
  70
    32
  0
VERTEX
  8
0
  5
20A31
 10
2.36056
 20
5.15095
 30
0.000000
  70
    32
  0
VERTEX
  8
0
  5
20A32
 10
2.36293
 20
5.15115
 30
0.000000
  70
    32
  0
VERTEX
  8
0
  5
20A33
 10
2.36530
 20
5.15138
 30
0.000000
  70
    32
  0
VERTEX
  8
0
  5
20A34
 10
2.36767
 20
5.15164
 30
0.000000
  70
    32
  0
VERTEX
  8
0
  5
20A35
 10
2.37004
 20
5.15192
 30
0.000000
  70
    32
  0
VERTEX
  8
0
  5
20A36
 10
2.37241
 20
5.15224
 30
0.000000
  70
    32
  0
VERTEX
  8
0
  5
20A37
 10
2.37477
 20
5.15258
 30
0.000000
  70
    32
  0
VERTEX
  8
0
  5
20A38
 10
2.37713
 20
5.15294
 30
0.000000
  70
    32
  0
VERTEX
  8
0
  5
20A39
 10
2.37949
 20
5.15334
 30
0.000000
  70
    32
  0
VERTEX
  8
0
  5
20A3A
 10
2.38184
 20
5.15376
 30
0.000000
  70
    32
  0
VERTEX
  8
0
  5
20A3B
 10
2.38419
 20
5.15420
 30
0.000000
  70
    32
  0
VERTEX
  8
0
  5
20A3C
 10
2.38653
 20
5.15467
 30
0.000000
  70
    32
  0
VERTEX
  8
0
  5
20A3D
 10
2.38887
 20
5.15517
 30
0.000000
  70
    32
  0
VERTEX
  8
0
  5
20A3E
 10
2.39120
 20
5.15570
 30
0.000000
  70
    32
  0
VERTEX
  8
0
  5
20A3F
 10
2.39352
 20
5.15625
 30
0.000000
  70
    32
  0
VERTEX
  8
0
  5
20A40
 10
2.39584
 20
5.15682
 30
0.000000
  70
    32
  0
VERTEX
  8
0
  5
20A41
 10
2.39815
 20
5.15743
 30
0.000000
  70
    32
  0
VERTEX
  8
0
  5
20A42
 10
2.40045
 20
5.15806
 30
0.000000
  70
    32
  0
VERTEX
  8
0
  5
20A43
 10
2.40274
 20
5.15871
 30
0.000000
  70
    32
  0
VERTEX
  8
0
  5
20A44
 10
2.40503
 20
5.15939
 30
0.000000
  70
    32
  0
VERTEX
  8
0
  5
20A45
 10
2.40730
 20
5.16009
 30
0.000000
  70
    32
  0
VERTEX
  8
0
  5
20A46
 10
2.40957
 20
5.16082
 30
0.000000
  70
    32
  0
VERTEX
  8
0
  5
20A47
 10
2.41183
 20
5.16158
 30
0.000000
  70
    32
  0
VERTEX
  8
0
  5
20A48
 10
2.41408
 20
5.16236
 30
0.000000
  70
    32
  0
VERTEX
  8
0
  5
20A49
 10
2.41632
 20
5.16316
 30
0.000000
  70
    32
  0
VERTEX
  8
0
  5
20A4A
 10
2.41854
 20
5.16399
 30
0.000000
  70
    32
  0
VERTEX
  8
0
  5
20A4B
 10
2.42076
 20
5.16485
 30
0.000000
  70
    32
  0
VERTEX
  8
0
  5
20A4C
 10
2.42297
 20
5.16573
 30
0.000000
  70
    32
  0
VERTEX
  8
0
  5
20A4D
 10
2.42516
 20
5.16663
 30
0.000000
  70
    32
  0
VERTEX
  8
0
  5
20A4E
 10
2.42734
 20
5.16756
 30
0.000000
  70
    32
  0
VERTEX
  8
0
  5
20A4F
 10
2.42951
 20
5.16851
 30
0.000000
  70
    32
  0
VERTEX
  8
0
  5
20A50
 10
2.43166
 20
5.16949
 30
0.000000
  70
    32
  0
VERTEX
  8
0
  5
20A51
 10
2.43381
 20
5.17049
 30
0.000000
  70
    32
  0
VERTEX
  8
0
  5
20A52
 10
2.43593
 20
5.17151
 30
0.000000
  70
    32
  0
VERTEX
  8
0
  5
20A53
 10
2.43805
 20
5.17256
 30
0.000000
  70
    32
  0
VERTEX
  8
0
  5
20A54
 10
2.44015
 20
5.17364
 30
0.000000
  70
    32
  0
VERTEX
  8
0
  5
20A55
 10
2.44223
 20
5.17473
 30
0.000000
  70
    32
  0
VERTEX
  8
0
  5
20A56
 10
2.44430
 20
5.17586
 30
0.000000
  70
    32
  0
VERTEX
  8
0
  5
20A57
 10
2.44635
 20
5.17700
 30
0.000000
  70
    32
  0
VERTEX
  8
0
  5
20A58
 10
2.44839
 20
5.17817
 30
0.000000
  70
    32
  0
VERTEX
  8
0
  5
20A59
 10
2.45041
 20
5.17936
 30
0.000000
  70
    32
  0
VERTEX
  8
0
  5
20A5A
 10
2.45242
 20
5.18057
 30
0.000000
  70
    32
  0
VERTEX
  8
0
  5
20A5B
 10
2.45440
 20
5.18181
 30
0.000000
  70
    32
  0
VERTEX
  8
0
  5
20A5C
 10
2.45637
 20
5.18307
 30
0.000000
  70
    32
  0
VERTEX
  8
0
  5
20A5D
 10
2.45832
 20
5.18436
 30
0.000000
  70
    32
  0
VERTEX
  8
0
  5
20A5E
 10
2.46025
 20
5.18567
 30
0.000000
  70
    32
  0
VERTEX
  8
0
  5
20A5F
 10
2.46217
 20
5.18700
 30
0.000000
  70
    32
  0
VERTEX
  8
0
  5
20A60
 10
2.46406
 20
5.18835
 30
0.000000
  70
    32
  0
VERTEX
  8
0
  5
20A61
 10
2.46594
 20
5.18973
 30
0.000000
  70
    32
  0
VERTEX
  8
0
  5
20A62
 10
2.46779
 20
5.19112
 30
0.000000
  70
    32
  0
VERTEX
  8
0
  5
20A63
 10
2.46963
 20
5.19255
 30
0.000000
  70
    32
  0
VERTEX
  8
0
  5
20A64
 10
2.47144
 20
5.19399
 30
0.000000
  70
    32
  0
VERTEX
  8
0
  5
20A65
 10
2.47323
 20
5.19545
 30
0.000000
  70
    32
  0
VERTEX
  8
0
  5
20A66
 10
2.47501
 20
5.19694
 30
0.000000
  70
    32
  0
VERTEX
  8
0
  5
20A67
 10
2.47675
 20
5.19845
 30
0.000000
  70
    32
  0
VERTEX
  8
0
  5
20A68
 10
2.47848
 20
5.19998
 30
0.000000
  70
    32
  0
VERTEX
  8
0
  5
20A69
 10
2.48019
 20
5.20154
 30
0.000000
  70
    32
  0
VERTEX
  8
0
  5
20A6A
 10
2.48187
 20
5.20311
 30
0.000000
  70
    32
  0
VERTEX
  8
0
  5
20A6B
 10
2.48353
 20
5.20471
 30
0.000000
  70
    32
  0
VERTEX
  8
0
  5
20A6C
 10
2.48518
 20
5.20632
 30
0.000000
  70
    32
  0
VERTEX
  8
0
  5
20A6D
 10
2.48680
 20
5.20796
 30
0.000000
  70
    32
  0
VERTEX
  8
0
  5
20A6E
 10
2.48841
 20
5.20961
 30
0.000000
  70
    32
  0
VERTEX
  8
0
  5
20A6F
 10
2.48999
 20
5.21128
 30
0.000000
  70
    32
  0
VERTEX
  8
0
  5
20A70
 10
2.49156
 20
5.21297
 30
0.000000
  70
    32
  0
VERTEX
  8
0
  5
20A71
 10
2.49311
 20
5.21467
 30
0.000000
  70
    32
  0
VERTEX
  8
0
  5
20A72
 10
2.49465
 20
5.21639
 30
0.000000
  70
    32
  0
VERTEX
  8
0
  5
20A73
 10
2.49617
 20
5.21813
 30
0.000000
  70
    32
  0
VERTEX
  8
0
  5
20A74
 10
2.49768
 20
5.21988
 30
0.000000
  70
    32
  0
VERTEX
  8
0
  5
20A75
 10
2.49917
 20
5.22164
 30
0.000000
  70
    32
  0
VERTEX
  8
0
  5
20A76
 10
2.50066
 20
5.22342
 30
0.000000
  70
    32
  0
VERTEX
  8
0
  5
20A77
 10
2.50212
 20
5.22521
 30
0.000000
  70
    32
  0
VERTEX
  8
0
  5
20A78
 10
2.50358
 20
5.22702
 30
0.000000
  70
    32
  0
VERTEX
  8
0
  5
20A79
 10
2.50502
 20
5.22883
 30
0.000000
  70
    32
  0
VERTEX
  8
0
  5
20A7A
 10
2.50646
 20
5.23066
 30
0.000000
  70
    32
  0
VERTEX
  8
0
  5
20A7B
 10
2.50788
 20
5.23249
 30
0.000000
  70
    32
  0
VERTEX
  8
0
  5
20A7C
 10
2.50930
 20
5.23434
 30
0.000000
  70
    32
  0
VERTEX
  8
0
  5
20A7D
 10
2.51070
 20
5.23620
 30
0.000000
  70
    32
  0
VERTEX
  8
0
  5
20A7E
 10
2.51210
 20
5.23806
 30
0.000000
  70
    32
  0
VERTEX
  8
0
  5
20A7F
 10
2.51350
 20
5.23993
 30
0.000000
  70
    32
  0
VERTEX
  8
0
  5
20A80
 10
2.51488
 20
5.24181
 30
0.000000
  70
    32
  0
VERTEX
  8
0
  5
20A81
 10
2.51626
 20
5.24370
 30
0.000000
  70
    32
  0
VERTEX
  8
0
  5
20A82
 10
2.51764
 20
5.24559
 30
0.000000
  70
    32
  0
VERTEX
  8
0
  5
20A83
 10
2.51901
 20
5.24749
 30
0.000000
  70
    32
  0
VERTEX
  8
0
  5
20A84
 10
2.52037
 20
5.24940
 30
0.000000
  70
    32
  0
VERTEX
  8
0
  5
20A85
 10
2.52174
 20
5.25130
 30
0.000000
  70
    32
  0
VERTEX
  8
0
  5
20A86
 10
2.52310
 20
5.25322
 30
0.000000
  70
    32
  0
VERTEX
  8
0
  5
20A87
 10
2.52446
 20
5.25513
 30
0.000000
  70
    32
  0
VERTEX
  8
0
  5
20A88
 10
2.52582
 20
5.25705
 30
0.000000
  70
    32
  0
VERTEX
  8
0
  5
20A89
 10
2.52718
 20
5.25896
 30
0.000000
  70
    32
  0
VERTEX
  8
0
  5
20A8A
 10
2.52854
 20
5.26088
 30
0.000000
  70
    32
  0
VERTEX
  8
0
  5
20A8B
 10
2.52990
 20
5.26281
 30
0.000000
  70
    32
  0
VERTEX
  8
0
  5
20A8C
 10
2.53126
 20
5.26473
 30
0.000000
  70
    32
  0
VERTEX
  8
0
  5
20A8D
 10
2.53263
 20
5.26665
 30
0.000000
  70
    32
  0
VERTEX
  8
0
  5
20A8E
 10
2.53399
 20
5.26856
 30
0.000000
  70
    32
  0
VERTEX
  8
0
  5
20A8F
 10
2.53537
 20
5.27048
 30
0.000000
  70
    32
  0
VERTEX
  8
0
  5
20A90
 10
2.53674
 20
5.27239
 30
0.000000
  70
    32
  0
VERTEX
  8
0
  5
20A91
 10
2.53812
 20
5.27431
 30
0.000000
  70
    32
  0
VERTEX
  8
0
  5
20A92
 10
2.53951
 20
5.27621
 30
0.000000
  70
    32
  0
VERTEX
  8
0
  5
20A93
 10
2.54090
 20
5.27812
 30
0.000000
  70
    32
  0
VERTEX
  8
0
  5
20A94
 10
2.54231
 20
5.28001
 30
0.000000
  70
    32
  0
VERTEX
  8
0
  5
20A95
 10
2.54371
 20
5.28190
 30
0.000000
  70
    32
  0
VERTEX
  8
0
  5
20A96
 10
2.54513
 20
5.28379
 30
0.000000
  70
    32
  0
VERTEX
  8
0
  5
20A97
 10
2.54656
 20
5.28567
 30
0.000000
  70
    32
  0
VERTEX
  8
0
  5
20A98
 10
2.54800
 20
5.28754
 30
0.000000
  70
    32
  0
VERTEX
  8
0
  5
20A99
 10
2.54944
 20
5.28940
 30
0.000000
  70
    32
  0
VERTEX
  8
0
  5
20A9A
 10
2.55090
 20
5.29126
 30
0.000000
  70
    32
  0
VERTEX
  8
0
  5
20A9B
 10
2.55237
 20
5.29311
 30
0.000000
  70
    32
  0
VERTEX
  8
0
  5
20A9C
 10
2.55386
 20
5.29494
 30
0.000000
  70
    32
  0
VERTEX
  8
0
  5
20A9D
 10
2.55536
 20
5.29677
 30
0.000000
  70
    32
  0
VERTEX
  8
0
  5
20A9E
 10
2.55686
 20
5.29858
 30
0.000000
  70
    32
  0
VERTEX
  8
0
  5
20A9F
 10
2.55839
 20
5.30038
 30
0.000000
  70
    32
  0
VERTEX
  8
0
  5
20AA0
 10
2.55992
 20
5.30218
 30
0.000000
  70
    32
  0
VERTEX
  8
0
  5
20AA1
 10
2.56147
 20
5.30396
 30
0.000000
  70
    32
  0
VERTEX
  8
0
  5
20AA2
 10
2.56303
 20
5.30573
 30
0.000000
  70
    32
  0
VERTEX
  8
0
  5
20AA3
 10
2.56461
 20
5.30748
 30
0.000000
  70
    32
  0
VERTEX
  8
0
  5
20AA4
 10
2.56619
 20
5.30923
 30
0.000000
  70
    32
  0
VERTEX
  8
0
  5
20AA5
 10
2.56779
 20
5.31096
 30
0.000000
  70
    32
  0
VERTEX
  8
0
  5
20AA6
 10
2.56941
 20
5.31268
 30
0.000000
  70
    32
  0
VERTEX
  8
0
  5
20AA7
 10
2.57103
 20
5.31439
 30
0.000000
  70
    32
  0
VERTEX
  8
0
  5
20AA8
 10
2.57267
 20
5.31608
 30
0.000000
  70
    32
  0
VERTEX
  8
0
  5
20AA9
 10
2.57432
 20
5.31776
 30
0.000000
  70
    32
  0
VERTEX
  8
0
  5
20AAA
 10
2.57599
 20
5.31943
 30
0.000000
  70
    32
  0
VERTEX
  8
0
  5
20AAB
 10
2.57767
 20
5.32108
 30
0.000000
  70
    32
  0
VERTEX
  8
0
  5
20AAC
 10
2.57936
 20
5.32272
 30
0.000000
  70
    32
  0
VERTEX
  8
0
  5
20AAD
 10
2.58106
 20
5.32434
 30
0.000000
  70
    32
  0
VERTEX
  8
0
  5
20AAE
 10
2.58278
 20
5.32595
 30
0.000000
  70
    32
  0
VERTEX
  8
0
  5
20AAF
 10
2.58451
 20
5.32754
 30
0.000000
  70
    32
  0
VERTEX
  8
0
  5
20AB0
 10
2.58625
 20
5.32912
 30
0.000000
  70
    32
  0
VERTEX
  8
0
  5
20AB1
 10
2.58800
 20
5.33068
 30
0.000000
  70
    32
  0
VERTEX
  8
0
  5
20AB2
 10
2.58977
 20
5.33222
 30
0.000000
  70
    32
  0
VERTEX
  8
0
  5
20AB3
 10
2.59155
 20
5.33375
 30
0.000000
  70
    32
  0
VERTEX
  8
0
  5
20AB4
 10
2.59334
 20
5.33527
 30
0.000000
  70
    32
  0
VERTEX
  8
0
  5
20AB5
 10
2.59515
 20
5.33676
 30
0.000000
  70
    32
  0
VERTEX
  8
0
  5
20AB6
 10
2.59697
 20
5.33824
 30
0.000000
  70
    32
  0
VERTEX
  8
0
  5
20AB7
 10
2.59880
 20
5.33970
 30
0.000000
  70
    32
  0
VERTEX
  8
0
  5
20AB8
 10
2.60065
 20
5.34114
 30
0.000000
  70
    32
  0
VERTEX
  8
0
  5
20AB9
 10
2.60250
 20
5.34257
 30
0.000000
  70
    32
  0
VERTEX
  8
0
  5
20ABA
 10
2.60437
 20
5.34398
 30
0.000000
  70
    32
  0
VERTEX
  8
0
  5
20ABB
 10
2.60626
 20
5.34536
 30
0.000000
  70
    32
  0
VERTEX
  8
0
  5
20ABC
 10
2.60815
 20
5.34673
 30
0.000000
  70
    32
  0
VERTEX
  8
0
  5
20ABD
 10
2.61006
 20
5.34809
 30
0.000000
  70
    32
  0
VERTEX
  8
0
  5
20ABE
 10
2.61198
 20
5.34942
 30
0.000000
  70
    32
  0
VERTEX
  8
0
  5
20ABF
 10
2.61392
 20
5.35073
 30
0.000000
  70
    32
  0
VERTEX
  8
0
  5
20AC0
 10
2.61586
 20
5.35202
 30
0.000000
  70
    32
  0
VERTEX
  8
0
  5
20AC1
 10
2.61782
 20
5.35329
 30
0.000000
  70
    32
  0
VERTEX
  8
0
  5
20AC2
 10
2.61980
 20
5.35454
 30
0.000000
  70
    32
  0
VERTEX
  8
0
  5
20AC3
 10
2.62178
 20
5.35578
 30
0.000000
  70
    32
  0
VERTEX
  8
0
  5
20AC4
 10
2.62378
 20
5.35699
 30
0.000000
  70
    32
  0
VERTEX
  8
0
  5
20AC5
 10
2.62579
 20
5.35817
 30
0.000000
  70
    32
  0
VERTEX
  8
0
  5
20AC6
 10
2.62781
 20
5.35934
 30
0.000000
  70
    32
  0
VERTEX
  8
0
  5
20AC7
 10
2.62985
 20
5.36049
 30
0.000000
  70
    32
  0
VERTEX
  8
0
  5
20AC8
 10
2.63190
 20
5.36161
 30
0.000000
  70
    32
  0
VERTEX
  8
0
  5
20AC9
 10
2.63396
 20
5.36271
 30
0.000000
  70
    32
  0
VERTEX
  8
0
  5
20ACA
 10
2.63604
 20
5.36379
 30
0.000000
  70
    32
  0
VERTEX
  8
0
  5
20ACB
 10
2.63812
 20
5.36485
 30
0.000000
  70
    32
  0
VERTEX
  8
0
  5
20ACC
 10
2.64022
 20
5.36588
 30
0.000000
  70
    32
  0
VERTEX
  8
0
  5
20ACD
 10
2.64234
 20
5.36689
 30
0.000000
  70
    32
  0
VERTEX
  8
0
  5
20ACE
 10
2.64446
 20
5.36788
 30
0.000000
  70
    32
  0
VERTEX
  8
0
  5
20ACF
 10
2.64659
 20
5.36884
 30
0.000000
  70
    32
  0
VERTEX
  8
0
  5
20AD0
 10
2.64874
 20
5.36978
 30
0.000000
  70
    32
  0
VERTEX
  8
0
  5
20AD1
 10
2.65090
 20
5.37070
 30
0.000000
  70
    32
  0
VERTEX
  8
0
  5
20AD2
 10
2.65307
 20
5.37159
 30
0.000000
  70
    32
  0
VERTEX
  8
0
  5
20AD3
 10
2.65525
 20
5.37246
 30
0.000000
  70
    32
  0
VERTEX
  8
0
  5
20AD4
 10
2.65743
 20
5.37331
 30
0.000000
  70
    32
  0
VERTEX
  8
0
  5
20AD5
 10
2.65963
 20
5.37414
 30
0.000000
  70
    32
  0
VERTEX
  8
0
  5
20AD6
 10
2.66184
 20
5.37494
 30
0.000000
  70
    32
  0
VERTEX
  8
0
  5
20AD7
 10
2.66406
 20
5.37571
 30
0.000000
  70
    32
  0
VERTEX
  8
0
  5
20AD8
 10
2.66628
 20
5.37647
 30
0.000000
  70
    32
  0
VERTEX
  8
0
  5
20AD9
 10
2.66852
 20
5.37720
 30
0.000000
  70
    32
  0
VERTEX
  8
0
  5
20ADA
 10
2.67076
 20
5.37790
 30
0.000000
  70
    32
  0
VERTEX
  8
0
  5
20ADB
 10
2.67302
 20
5.37858
 30
0.000000
  70
    32
  0
VERTEX
  8
0
  5
20ADC
 10
2.67527
 20
5.37924
 30
0.000000
  70
    32
  0
VERTEX
  8
0
  5
20ADD
 10
2.67754
 20
5.37987
 30
0.000000
  70
    32
  0
VERTEX
  8
0
  5
20ADE
 10
2.67982
 20
5.38048
 30
0.000000
  70
    32
  0
VERTEX
  8
0
  5
20ADF
 10
2.68210
 20
5.38107
 30
0.000000
  70
    32
  0
VERTEX
  8
0
  5
20AE0
 10
2.68439
 20
5.38163
 30
0.000000
  70
    32
  0
VERTEX
  8
0
  5
20AE1
 10
2.68668
 20
5.38217
 30
0.000000
  70
    32
  0
VERTEX
  8
0
  5
20AE2
 10
2.68898
 20
5.38268
 30
0.000000
  70
    32
  0
VERTEX
  8
0
  5
20AE3
 10
2.69129
 20
5.38317
 30
0.000000
  70
    32
  0
VERTEX
  8
0
  5
20AE4
 10
2.69360
 20
5.38363
 30
0.000000
  70
    32
  0
VERTEX
  8
0
  5
20AE5
 10
2.69592
 20
5.38407
 30
0.000000
  70
    32
  0
VERTEX
  8
0
  5
20AE6
 10
2.69824
 20
5.38449
 30
0.000000
  70
    32
  0
VERTEX
  8
0
  5
20AE7
 10
2.70056
 20
5.38488
 30
0.000000
  70
    32
  0
VERTEX
  8
0
  5
20AE8
 10
2.70290
 20
5.38525
 30
0.000000
  70
    32
  0
VERTEX
  8
0
  5
20AE9
 10
2.70523
 20
5.38559
 30
0.000000
  70
    32
  0
VERTEX
  8
0
  5
20AEA
 10
2.70757
 20
5.38590
 30
0.000000
  70
    32
  0
VERTEX
  8
0
  5
20AEB
 10
2.70991
 20
5.38619
 30
0.000000
  70
    32
  0
VERTEX
  8
0
  5
20AEC
 10
2.71226
 20
5.38646
 30
0.000000
  70
    32
  0
VERTEX
  8
0
  5
20AED
 10
2.71461
 20
5.38670
 30
0.000000
  70
    32
  0
VERTEX
  8
0
  5
20AEE
 10
2.71696
 20
5.38692
 30
0.000000
  70
    32
  0
VERTEX
  8
0
  5
20AEF
 10
2.71931
 20
5.38711
 30
0.000000
  70
    32
  0
VERTEX
  8
0
  5
20AF0
 10
2.72167
 20
5.38727
 30
0.000000
  70
    32
  0
VERTEX
  8
0
  5
20AF1
 10
2.72403
 20
5.38741
 30
0.000000
  70
    32
  0
VERTEX
  8
0
  5
20AF2
 10
2.72638
 20
5.38753
 30
0.000000
  70
    32
  0
VERTEX
  8
0
  5
20AF3
 10
2.72874
 20
5.38762
 30
0.000000
  70
    32
  0
VERTEX
  8
0
  5
20AF4
 10
2.73111
 20
5.38768
 30
0.000000
  70
    32
  0
VERTEX
  8
0
  5
20AF5
 10
2.73347
 20
5.38772
 30
0.000000
  70
    32
  0
VERTEX
  8
0
  5
20AF6
 10
2.73583
 20
5.38773
 30
0.000000
  70
    32
  0
VERTEX
  8
0
  5
20AF7
 10
2.73819
 20
5.38772
 30
0.000000
  70
    32
  0
VERTEX
  8
0
  5
20AF8
 10
2.74056
 20
5.38768
 30
0.000000
  70
    32
  0
VERTEX
  8
0
  5
20AF9
 10
2.74292
 20
5.38761
 30
0.000000
  70
    32
  0
VERTEX
  8
0
  5
20AFA
 10
2.74528
 20
5.38752
 30
0.000000
  70
    32
  0
VERTEX
  8
0
  5
20AFB
 10
2.74764
 20
5.38741
 30
0.000000
  70
    32
  0
VERTEX
  8
0
  5
20AFC
 10
2.75000
 20
5.38727
 30
0.000000
  70
    32
  0
VERTEX
  8
0
  5
20AFD
 10
2.75235
 20
5.38710
 30
0.000000
  70
    32
  0
VERTEX
  8
0
  5
20AFE
 10
2.75471
 20
5.38690
 30
0.000000
  70
    32
  0
VERTEX
  8
0
  5
20AFF
 10
2.75706
 20
5.38668
 30
0.000000
  70
    32
  0
VERTEX
  8
0
  5
20B00
 10
2.75941
 20
5.38644
 30
0.000000
  70
    32
  0
VERTEX
  8
0
  5
20B01
 10
2.76175
 20
5.38617
 30
0.000000
  70
    32
  0
VERTEX
  8
0
  5
20B02
 10
2.76410
 20
5.38587
 30
0.000000
  70
    32
  0
VERTEX
  8
0
  5
20B03
 10
2.76643
 20
5.38554
 30
0.000000
  70
    32
  0
VERTEX
  8
0
  5
20B04
 10
2.76877
 20
5.38520
 30
0.000000
  70
    32
  0
VERTEX
  8
0
  5
20B05
 10
2.77110
 20
5.38482
 30
0.000000
  70
    32
  0
VERTEX
  8
0
  5
20B06
 10
2.77342
 20
5.38442
 30
0.000000
  70
    32
  0
VERTEX
  8
0
  5
20B07
 10
2.77574
 20
5.38399
 30
0.000000
  70
    32
  0
VERTEX
  8
0
  5
20B08
 10
2.77805
 20
5.38354
 30
0.000000
  70
    32
  0
VERTEX
  8
0
  5
20B09
 10
2.78036
 20
5.38306
 30
0.000000
  70
    32
  0
VERTEX
  8
0
  5
20B0A
 10
2.78266
 20
5.38255
 30
0.000000
  70
    32
  0
VERTEX
  8
0
  5
20B0B
 10
2.78496
 20
5.38202
 30
0.000000
  70
    32
  0
VERTEX
  8
0
  5
20B0C
 10
2.78724
 20
5.38147
 30
0.000000
  70
    32
  0
VERTEX
  8
0
  5
20B0D
 10
2.78952
 20
5.38088
 30
0.000000
  70
    32
  0
VERTEX
  8
0
  5
20B0E
 10
2.79179
 20
5.38027
 30
0.000000
  70
    32
  0
VERTEX
  8
0
  5
20B0F
 10
2.79406
 20
5.37964
 30
0.000000
  70
    32
  0
VERTEX
  8
0
  5
20B10
 10
2.79631
 20
5.37898
 30
0.000000
  70
    32
  0
VERTEX
  8
0
  5
20B11
 10
2.79856
 20
5.37829
 30
0.000000
  70
    32
  0
VERTEX
  8
0
  5
20B12
 10
2.80080
 20
5.37758
 30
0.000000
  70
    32
  0
VERTEX
  8
0
  5
20B13
 10
2.80303
 20
5.37684
 30
0.000000
  70
    32
  0
VERTEX
  8
0
  5
20B14
 10
2.80525
 20
5.37607
 30
0.000000
  70
    32
  0
VERTEX
  8
0
  5
20B15
 10
2.80745
 20
5.37528
 30
0.000000
  70
    32
  0
VERTEX
  8
0
  5
20B16
 10
2.80965
 20
5.37446
 30
0.000000
  70
    32
  0
VERTEX
  8
0
  5
20B17
 10
2.81184
 20
5.37362
 30
0.000000
  70
    32
  0
VERTEX
  8
0
  5
20B18
 10
2.81402
 20
5.37275
 30
0.000000
  70
    32
  0
VERTEX
  8
0
  5
20B19
 10
2.81618
 20
5.37186
 30
0.000000
  70
    32
  0
VERTEX
  8
0
  5
20B1A
 10
2.81833
 20
5.37093
 30
0.000000
  70
    32
  0
VERTEX
  8
0
  5
20B1B
 10
2.82047
 20
5.36999
 30
0.000000
  70
    32
  0
VERTEX
  8
0
  5
20B1C
 10
2.82260
 20
5.36901
 30
0.000000
  70
    32
  0
VERTEX
  8
0
  5
20B1D
 10
2.82472
 20
5.36801
 30
0.000000
  70
    32
  0
VERTEX
  8
0
  5
20B1E
 10
2.82682
 20
5.36699
 30
0.000000
  70
    32
  0
VERTEX
  8
0
  5
20B1F
 10
2.82891
 20
5.36594
 30
0.000000
  70
    32
  0
VERTEX
  8
0
  5
20B20
 10
2.83098
 20
5.36486
 30
0.000000
  70
    32
  0
VERTEX
  8
0
  5
20B21
 10
2.83304
 20
5.36375
 30
0.000000
  70
    32
  0
VERTEX
  8
0
  5
20B22
 10
2.83509
 20
5.36262
 30
0.000000
  70
    32
  0
VERTEX
  8
0
  5
20B23
 10
2.83712
 20
5.36147
 30
0.000000
  70
    32
  0
VERTEX
  8
0
  5
20B24
 10
2.83913
 20
5.36028
 30
0.000000
  70
    32
  0
VERTEX
  8
0
  5
20B25
 10
2.84114
 20
5.35908
 30
0.000000
  70
    32
  0
VERTEX
  8
0
  5
20B26
 10
2.84312
 20
5.35785
 30
0.000000
  70
    32
  0
VERTEX
  8
0
  5
20B27
 10
2.84510
 20
5.35659
 30
0.000000
  70
    32
  0
VERTEX
  8
0
  5
20B28
 10
2.84706
 20
5.35532
 30
0.000000
  70
    32
  0
VERTEX
  8
0
  5
20B29
 10
2.84900
 20
5.35402
 30
0.000000
  70
    32
  0
VERTEX
  8
0
  5
20B2A
 10
2.85093
 20
5.35269
 30
0.000000
  70
    32
  0
VERTEX
  8
0
  5
20B2B
 10
2.85284
 20
5.35135
 30
0.000000
  70
    32
  0
VERTEX
  8
0
  5
20B2C
 10
2.85474
 20
5.34998
 30
0.000000
  70
    32
  0
VERTEX
  8
0
  5
20B2D
 10
2.85663
 20
5.34859
 30
0.000000
  70
    32
  0
VERTEX
  8
0
  5
20B2E
 10
2.85850
 20
5.34718
 30
0.000000
  70
    32
  0
VERTEX
  8
0
  5
20B2F
 10
2.86035
 20
5.34575
 30
0.000000
  70
    32
  0
VERTEX
  8
0
  5
20B30
 10
2.86219
 20
5.34430
 30
0.000000
  70
    32
  0
VERTEX
  8
0
  5
20B31
 10
2.86402
 20
5.34283
 30
0.000000
  70
    32
  0
VERTEX
  8
0
  5
20B32
 10
2.86583
 20
5.34134
 30
0.000000
  70
    32
  0
VERTEX
  8
0
  5
20B33
 10
2.86763
 20
5.33983
 30
0.000000
  70
    32
  0
VERTEX
  8
0
  5
20B34
 10
2.86941
 20
5.33831
 30
0.000000
  70
    32
  0
VERTEX
  8
0
  5
20B35
 10
2.87118
 20
5.33676
 30
0.000000
  70
    32
  0
VERTEX
  8
0
  5
20B36
 10
2.87293
 20
5.33520
 30
0.000000
  70
    32
  0
VERTEX
  8
0
  5
20B37
 10
2.87467
 20
5.33362
 30
0.000000
  70
    32
  0
VERTEX
  8
0
  5
20B38
 10
2.87639
 20
5.33203
 30
0.000000
  70
    32
  0
VERTEX
  8
0
  5
20B39
 10
2.87810
 20
5.33042
 30
0.000000
  70
    32
  0
VERTEX
  8
0
  5
20B3A
 10
2.87979
 20
5.32879
 30
0.000000
  70
    32
  0
VERTEX
  8
0
  5
20B3B
 10
2.88147
 20
5.32715
 30
0.000000
  70
    32
  0
VERTEX
  8
0
  5
20B3C
 10
2.88314
 20
5.32549
 30
0.000000
  70
    32
  0
VERTEX
  8
0
  5
20B3D
 10
2.88478
 20
5.32382
 30
0.000000
  70
    32
  0
VERTEX
  8
0
  5
20B3E
 10
2.88642
 20
5.32213
 30
0.000000
  70
    32
  0
VERTEX
  8
0
  5
20B3F
 10
2.88804
 20
5.32043
 30
0.000000
  70
    32
  0
VERTEX
  8
0
  5
20B40
 10
2.88964
 20
5.31872
 30
0.000000
  70
    32
  0
VERTEX
  8
0
  5
20B41
 10
2.89123
 20
5.31699
 30
0.000000
  70
    32
  0
VERTEX
  8
0
  5
20B42
 10
2.89281
 20
5.31525
 30
0.000000
  70
    32
  0
VERTEX
  8
0
  5
20B43
 10
2.89437
 20
5.31350
 30
0.000000
  70
    32
  0
VERTEX
  8
0
  5
20B44
 10
2.89591
 20
5.31174
 30
0.000000
  70
    32
  0
VERTEX
  8
0
  5
20B45
 10
2.89744
 20
5.30997
 30
0.000000
  70
    32
  0
VERTEX
  8
0
  5
20B46
 10
2.89896
 20
5.30819
 30
0.000000
  70
    32
  0
VERTEX
  8
0
  5
20B47
 10
2.90046
 20
5.30639
 30
0.000000
  70
    32
  0
VERTEX
  8
0
  5
20B48
 10
2.90194
 20
5.30459
 30
0.000000
  70
    32
  0
VERTEX
  8
0
  5
20B49
 10
2.90342
 20
5.30277
 30
0.000000
  70
    32
  0
VERTEX
  8
0
  5
20B4A
 10
2.90487
 20
5.30095
 30
0.000000
  70
    32
  0
VERTEX
  8
0
  5
20B4B
 10
2.90632
 20
5.29912
 30
0.000000
  70
    32
  0
VERTEX
  8
0
  5
20B4C
 10
2.90775
 20
5.29728
 30
0.000000
  70
    32
  0
VERTEX
  8
0
  5
20B4D
 10
2.90918
 20
5.29543
 30
0.000000
  70
    32
  0
VERTEX
  8
0
  5
20B4E
 10
2.91059
 20
5.29357
 30
0.000000
  70
    32
  0
VERTEX
  8
0
  5
20B4F
 10
2.91198
 20
5.29170
 30
0.000000
  70
    32
  0
VERTEX
  8
0
  5
20B50
 10
2.91337
 20
5.28983
 30
0.000000
  70
    32
  0
VERTEX
  8
0
  5
20B51
 10
2.91475
 20
5.28795
 30
0.000000
  70
    32
  0
VERTEX
  8
0
  5
20B52
 10
2.91612
 20
5.28606
 30
0.000000
  70
    32
  0
VERTEX
  8
0
  5
20B53
 10
2.91747
 20
5.28416
 30
0.000000
  70
    32
  0
VERTEX
  8
0
  5
20B54
 10
2.91882
 20
5.28226
 30
0.000000
  70
    32
  0
VERTEX
  8
0
  5
20B55
 10
2.92016
 20
5.28035
 30
0.000000
  70
    32
  0
VERTEX
  8
0
  5
20B56
 10
2.92149
 20
5.27843
 30
0.000000
  70
    32
  0
VERTEX
  8
0
  5
20B57
 10
2.92281
 20
5.27651
 30
0.000000
  70
    32
  0
VERTEX
  8
0
  5
20B58
 10
2.92412
 20
5.27459
 30
0.000000
  70
    32
  0
VERTEX
  8
0
  5
20B59
 10
2.92543
 20
5.27265
 30
0.000000
  70
    32
  0
VERTEX
  8
0
  5
20B5A
 10
2.92673
 20
5.27072
 30
0.000000
  70
    32
  0
VERTEX
  8
0
  5
20B5B
 10
2.92802
 20
5.26878
 30
0.000000
  70
    32
  0
VERTEX
  8
0
  5
20B5C
 10
2.92930
 20
5.26683
 30
0.000000
  70
    32
  0
VERTEX
  8
0
  5
20B5D
 10
2.93058
 20
5.26488
 30
0.000000
  70
    32
  0
VERTEX
  8
0
  5
20B5E
 10
2.93186
 20
5.26293
 30
0.000000
  70
    32
  0
VERTEX
  8
0
  5
20B5F
 10
2.93313
 20
5.26097
 30
0.000000
  70
    32
  0
VERTEX
  8
0
  5
20B60
 10
2.93439
 20
5.25901
 30
0.000000
  70
    32
  0
VERTEX
  8
0
  5
20B61
 10
2.93565
 20
5.25705
 30
0.000000
  70
    32
  0
VERTEX
  8
0
  5
20B62
 10
2.93691
 20
5.25508
 30
0.000000
  70
    32
  0
VERTEX
  8
0
  5
20B63
 10
2.93816
 20
5.25311
 30
0.000000
  70
    32
  0
VERTEX
  8
0
  5
20B64
 10
2.93941
 20
5.25114
 30
0.000000
  70
    32
  0
VERTEX
  8
0
  5
20B65
 10
2.94066
 20
5.24917
 30
0.000000
  70
    32
  0
VERTEX
  8
0
  5
20B66
 10
2.94190
 20
5.24720
 30
0.000000
  70
    32
  0
VERTEX
  8
0
  5
20B67
 10
2.94314
 20
5.24522
 30
0.000000
  70
    32
  0
VERTEX
  8
0
  5
20B68
 10
2.94438
 20
5.24325
 30
0.000000
  70
    32
  0
VERTEX
  8
0
  5
20B69
 10
2.94562
 20
5.24127
 30
0.000000
  70
    32
  0
VERTEX
  8
0
  5
20B6A
 10
2.94686
 20
5.23930
 30
0.000000
  70
    32
  0
VERTEX
  8
0
  5
20B6B
 10
2.94810
 20
5.23732
 30
0.000000
  70
    32
  0
VERTEX
  8
0
  5
20B6C
 10
2.94933
 20
5.23535
 30
0.000000
  70
    32
  0
VERTEX
  8
0
  5
20B6D
 10
2.95057
 20
5.23337
 30
0.000000
  70
    32
  0
VERTEX
  8
0
  5
20B6E
 10
2.95181
 20
5.23140
 30
0.000000
  70
    32
  0
SEQEND
  8
0
  5
20B6F
  0
CIRCLE
  5
1E52D
  8
0
  6
CONTINUOUS
 10
1.8750010114733291
 20
1.8750004431210241
 30
0.0
 40
1.0772443959364579
  0
CIRCLE
  5
1E52E
  8
0
  6
CONTINUOUS
 10
1.8750010114733291
 20
1.8750004431210241
 30
0.0
 40
1.264068073711244
  0
ENDBLK
  5
1E530
  8
0
  0
BLOCK
  8
0
  2
*U171
 70
     1
 10
0.0
 20
0.0
 30
0.0
  3
*U171
  1

  0
TEXT
  5
203E2
  8
0
 10
2.0520856342580478
 20
1.4053520973297959
 30
0.0
 40
0.125
  1
Exterior Casing
  0
TEXT
  5
203E3
  8
0
 10
2.0520856342580478
 20
1.1970187639964629
 30
0.0
 40
0.125
  1
TL-180
  0
TEXT
  5
203E4
  8
0
 10
2.0520856342580478
 20
0.9886854306631298
 30
0.0
 40
0.125
  1
1-1/4" x 2"
  0
TEXT
  5
203E5
  8
0
 10
2.0520856342580478
 20
0.7803520973297964
 30
0.0
 40
0.125
  1
800.66.TAGUE
  0
ENDBLK
  5
203E7
  8
0
  0
BLOCK
  8
0
  2
*U172
 70
     1
 10
0.0
 20
0.0
 30
0.0
  3
*U172
  1

  0
TEXT
  5
203E9
  8
0
 10
1.875832532300876
 20
1.1538771312937111
 30
0.0
 40
0.125
  1
Exterior Casing
  0
TEXT
  5
203EA
  8
0
 10
1.875832532300876
 20
0.9455437979603782
 30
0.0
 40
0.125
  1
TL-544
  0
TEXT
  5
203EB
  8
0
 10
1.875832532300876
 20
0.7372104646270449
 30
0.0
 40
0.125
  1
1-1/8" x 1-9/16"
  0
TEXT
  5
203EC
  8
0
 10
1.875832532300876
 20
0.5288771312937115
 30
0.0
 40
0.125
  1
800.66.TAGUE
  0
ENDBLK
  5
203EE
  8
0
  0
BLOCK
  8
0
  2
*U173
 70
     1
 10
0.0
 20
0.0
 30
0.0
  3
*U173
  1

  0
TEXT
  5
203F0
  8
0
 10
2.2653468102219558
 20
1.612015904330746
 30
0.0
 40
0.125
  1
Exterior Casing
  0
TEXT
  5
203F1
  8
0
 10
2.2653468102219558
 20
1.403682570997413
 30
0.0
 40
0.125
  1
TL-2023
  0
TEXT
  5
203F2
  8
0
 10
2.2653468102219558
 20
1.19534923766408
 30
0.0
 40
0.125
  1
1-13/16" x 3" 
  0
TEXT
  5
203F3
  8
0
 10
2.2653468102219558
 20
0.9870159043307467
 30
0.0
 40
0.125
  1
800.66.TAGUE
  0
ENDBLK
  5
203F5
  8
0
  0
BLOCK
  8
0
  2
*U174
 70
     1
 10
0.0
 20
0.0
 30
0.0
  3
*U174
  1

  0
TEXT
  5
203F7
  8
0
 10
2.0898675486657221
 20
0.9145072342178082
 30
0.0
 40
0.125
  1
Exterior Casing
  0
TEXT
  5
203F8
  8
0
 10
2.0898675486657221
 20
0.706173900884475
 30
0.0
 40
0.125
  1
TL-2087
  0
TEXT
  5
203F9
  8
0
 10
2.0898675486657221
 20
0.4978405675511416
 30
0.0
 40
0.125
  1
7/8" x 1-7/16"
  0
TEXT
  5
203FA
  8
0
 10
2.0898675486657221
 20
0.2895072342178082
 30
0.0
 40
0.125
  1
800.66.TAGUE
  0
ENDBLK
  5
203FC
  8
0
  0
BLOCK
  8
0
  2
*U175
 70
     1
 10
0.0
 20
0.0
 30
0.0
  3
*U175
  1

  0
TEXT
  5
203FE
  8
0
 10
2.1806631076311191
 20
0.8419101546792263
 30
0.0
 40
0.125
  1
Exterior Casing
  0
TEXT
  5
203FF
  8
0
 10
2.1806631076311191
 20
0.6335768213458931
 30
0.0
 40
0.125
  1
TL-2158
  0
TEXT
  5
20400
  8
0
 10
2.1806631076311191
 20
0.4252434880125597
 30
0.0
 40
0.125
  1
1-1/16" x 1-5/16"
  0
TEXT
  5
20401
  8
0
 10
2.1806631076311191
 20
0.2169101546792262
 30
0.0
 40
0.125
  1
800.66.TAGUE
  0
ENDBLK
  5
20403
  8
0
  0
BLOCK
  8
0
  2
*U176
 70
     1
 10
0.0
 20
0.0
 30
0.0
  3
*U176
  1

  0
TEXT
  5
20405
  8
0
 10
2.2408536425556909
 20
1.2992247915469759
 30
0.0
 40
0.125
  1
Exterior Casing
  0
TEXT
  5
20406
  8
0
 10
2.2408536425556909
 20
1.090891458213642
 30
0.0
 40
0.125
  1
TL-2174
  0
TEXT
  5
20407
  8
0
 10
2.2408536425556909
 20
0.8825581248803095
 30
0.0
 40
0.125
  1
1-3/8" x 1-7/16"
  0
TEXT
  5
20408
  8
0
 10
2.2408536425556909
 20
0.6742247915469762
 30
0.0
 40
0.125
  1
800.66.TAGUE
  0
ENDBLK
  5
2040A
  8
0
  0
BLOCK
  8
0
  2
*U177
 70
     1
 10
0.0
 20
0.0
 30
0.0
  3
*U177
  1

  0
TEXT
  5
2040C
  8
0
 10
2.8048346441314029
 20
1.129982283289336
 30
0.0
 40
0.125
  1
Exterior Casing
  0
TEXT
  5
2040D
  8
0
 10
2.8048346441314029
 20
0.9216489499560037
 30
0.0
 40
0.125
  1
TL-2175
  0
TEXT
  5
2040E
  8
0
 10
2.8048346441314029
 20
0.7133156166226704
 30
0.0
 40
0.125
  1
1-9/32" x 1-29/32"
  0
TEXT
  5
2040F
  8
0
 10
2.8048346441314029
 20
0.504982283289337
 30
0.0
 40
0.125
  1
800.66.TAGUE
  0
ENDBLK
  5
20411
  8
0
  0
BLOCK
  8
0
  2
*U178
 70
     1
 10
0.0
 20
0.0
 30
0.0
  3
*U178
  1

  0
TEXT
  5
20413
  8
0
 10
2.5484960182450891
 20
0.679430053902138
 30
0.0
 40
0.125
  1
Exterior Casing
  0
TEXT
  5
20414
  8
0
 10
2.5484960182450891
 20
0.4710967205688046
 30
0.0
 40
0.125
  1
TL-2176
  0
TEXT
  5
20415
  8
0
 10
2.5484960182450891
 20
0.2627633872354712
 30
0.0
 40
0.125
  1
19/32" x 1-5/8"
  0
TEXT
  5
20416
  8
0
 10
2.5484960182450891
 20
0.0544300539021379
 30
0.0
 40
0.125
  1
800.66.TAGUE
  0
ENDBLK
  5
20418
  8
0
  0
BLOCK
  8
0
  2
*U179
 70
     1
 10
0.0
 20
0.0
 30
0.0
  3
*U179
  1

  0
TEXT
  5
2041A
  8
0
 10
2.105732231568993
 20
0.7255830389262883
 30
0.0
 40
0.125
  1
Exterior Casing
  0
TEXT
  5
2041B
  8
0
 10
2.105732231568993
 20
0.5172497055929551
 30
0.0
 40
0.125
  1
TL-2108
  0
TEXT
  5
2041C
  8
0
 10
2.105732231568993
 20
0.3089163722596217
 30
0.0
 40
0.125
  1
15/16" x 1-1/16"
  0
TEXT
  5
2041D
  8
0
 10
2.105732231568993
 20
0.1005830389262883
 30
0.0
 40
0.125
  1
800.66.TAGUE
  0
ENDBLK
  5
2041F
  8
0
  0
BLOCK
  8
0
  2
*U180
 70
     1
 10
0.0
 20
0.0
 30
0.0
  3
*U180
  1

  0
TEXT
  5
20421
  8
0
 10
0.0469294570366401
 20
0.67943073463357
 30
0.0
 40
0.125
  1
Exterior Casing
  0
TEXT
  5
20422
  8
0
 10
0.0469294570366401
 20
0.4710974013002366
 30
0.0
 40
0.125
  1
TL-2206
  0
TEXT
  5
20423
  8
0
 10
0.0469294570366401
 20
0.2627640679669033
 30
0.0
 40
0.125
  1
1-3/32" x 1-23/32"
  0
TEXT
  5
20424
  8
0
 10
0.0469294570366401
 20
0.05443073463357
 30
0.0
 40
0.125
  1
800.66.TAGUE
  0
ENDBLK
  5
20426
  8
0
  0
BLOCK
  8
0
  2
*U181
 70
     1
 10
0.0
 20
0.0
 30
0.0
  3
*U181
  1

  0
TEXT
  5
20428
  8
0
 10
0.0449853036485593
 20
0.6794309447934666
 30
0.0
 40
0.125
  1
Exterior Casing
  0
TEXT
  5
20429
  8
0
 10
0.0449853036485593
 20
0.4710976114601333
 30
0.0
 40
0.125
  1
TL-2207
  0
TEXT
  5
2042A
  8
0
 10
0.0449853036485593
 20
0.2627642781267999
 30
0.0
 40
0.125
  1
1-1/8" x 2-15/16"
  0
TEXT
  5
2042B
  8
0
 10
0.0449853036485593
 20
0.0544309447934666
 30
0.0
 40
0.125
  1
800.66.TAGUE
  0
ENDBLK
  5
2042D
  8
0
  0
BLOCK
  8
0
  2
*U182
 70
     1
 10
0.0
 20
0.0
 30
0.0
  3
*U182
  1

  0
TEXT
  5
2042F
  8
0
 62
     0
 10
-346.15979271546257
 20
508.16262619726342
 30
0.0
 40
0.125
  1
Cutter
 50
90.0
  0
ENDBLK
  5
20431
  8
0
  0
BLOCK
  8
0
  2
*U183
 70
     1
 10
0.0
 20
0.0
 30
0.0
  3
*U183
  1

  0
TEXT
  5
20433
  8
0
 10
3.5112004937425918
 20
2.3236705000861089
 30
0.0
 40
0.125
  1
Exterior Casing
  0
TEXT
  5
20434
  8
0
 10
3.5112004937425918
 20
2.1153371667527749
 30
0.0
 40
0.125
  1
TL-2242
  0
TEXT
  5
20435
  8
0
 10
3.5112004937425918
 20
1.9070038334194419
 30
0.0
 40
0.125
  1
2" x 4-1/2"
  0
TEXT
  5
20436
  8
0
 10
3.5112004937425918
 20
1.6986705000861091
 30
0.0
 40
0.125
  1
800.66.TAGUE
  0
ENDBLK
  5
20438
  8
0
  0
BLOCK
  8
0
  2
*U184
 70
     1
 10
0.0
 20
0.0
 30
0.0
  3
*U184
  1

  0
TEXT
  5
2043A
  8
0
 62
     0
 10
-386.5390653119602
 20
838.32040714068194
 30
0.0
 40
0.125
  1
Cutter
 50
90.0
  0
ENDBLK
  5
2043C
  8
0
  0
BLOCK
  8
0
  2
*U185
 70
     1
 10
0.0
 20
0.0
 30
0.0
  3
*U185
  1

  0
TEXT
  5
2043E
  8
0
 10
1.983241637717696
 20
1.2297917133489591
 30
0.0
 40
0.125
  1
Exterior Casing
  0
TEXT
  5
2043F
  8
0
 10
1.983241637717696
 20
1.0214583800156249
 30
0.0
 40
0.125
  1
TL-2254
  0
TEXT
  5
20440
  8
0
 10
1.983241637717696
 20
0.8131250466822924
 30
0.0
 40
0.125
  1
1-1/4" x 1-3/4"
  0
TEXT
  5
20441
  8
0
 10
1.983241637717696
 20
0.6047917133489591
 30
0.0
 40
0.125
  1
800.66.TAGUE
  0
ENDBLK
  5
20443
  8
0
  0
BLOCK
  8
0
  2
*U186
 70
     1
 10
0.0
 20
0.0
 30
0.0
  3
*U186
  1

  0
TEXT
  5
20445
  8
0
 10
2.2285402119240412
 20
3.7215677387475798
 30
0.0
 40
0.125
  1
Exterior Jamb
  0
TEXT
  5
20446
  8
0
 10
2.2285402119240412
 20
3.5132344054142468
 30
0.0
 40
0.125
  1
TL-2126
  0
TEXT
  5
20447
  8
0
 10
2.2285402119240412
 20
3.3049010720809142
 30
0.0
 40
0.125
  1
1-1/4" x 6-5/8"
  0
TEXT
  5
20448
  8
0
 10
2.2285402119240412
 20
3.0965677387475798
 30
0.0
 40
0.125
  1
800.66.TAGUE
  0
ENDBLK
  5
2044A
  8
0
  0
BLOCK
  8
0
  2
*U187
 70
     1
 10
0.0
 20
0.0
 30
0.0
  3
*U187
  1

  0
TEXT
  5
2044C
  8
0
 10
2.025590122046196
 20
3.8877018206065941
 30
0.0
 40
0.125
  1
Exterior Jamb
  0
TEXT
  5
2044D
  8
0
 10
2.025590122046196
 20
3.6793684872732602
 30
0.0
 40
0.125
  1
TL-2127
  0
TEXT
  5
2044E
  8
0
 10
2.025590122046196
 20
3.4710351539399271
 30
0.0
 40
0.125
  1
1-1/4" x 6-5/8"
  0
TEXT
  5
2044F
  8
0
 10
2.025590122046196
 20
3.2627018206065941
 30
0.0
 40
0.125
  1
800.66.TAGUE
  0
ENDBLK
  5
20451
  8
0
  0
BLOCK
  8
0
  2
*U188
 70
     1
 10
0.0
 20
0.0
 30
0.0
  3
*U188
  1

  0
TEXT
  5
20453
  8
0
 10
1.8279899277385421
 20
2.0085009357213721
 30
0.0
 40
0.125
  1
Fluting
  0
TEXT
  5
20454
  8
0
 10
1.8279899277385421
 20
1.800167602388038
 30
0.0
 40
0.125
  1
TL-123
  0
TEXT
  5
20455
  8
0
 10
1.8279899277385421
 20
1.5918342690547049
 30
0.0
 40
0.125
  1
3/4" x 3-1/2"
  0
TEXT
  5
20456
  8
0
 10
1.8279899277385421
 20
1.3835009357213719
 30
0.0
 40
0.125
  1
800.66.TAGUE
  0
ENDBLK
  5
20458
  8
0
  0
BLOCK
  8
0
  2
*U189
 70
     1
 10
0.0
 20
0.0
 30
0.0
  3
*U189
  1

  0
TEXT
  5
2045A
  8
0
 10
1.9710461263608181
 20
3.9608870512416838
 30
0.0
 40
0.125
  1
Fluting
  0
TEXT
  5
2045B
  8
0
 10
1.9710461263608181
 20
3.7525537179083499
 30
0.0
 40
0.125
  1
TL-343
  0
TEXT
  5
2045C
  8
0
 10
1.9710461263608181
 20
3.5442203845750169
 30
0.0
 40
0.125
  1
7/8" x 7-3/16"
  0
TEXT
  5
2045D
  8
0
 10
1.9710461263608181
 20
3.3358870512416838
 30
0.0
 40
0.125
  1
800.66.TAGUE
  0
ENDBLK
  5
2045F
  8
0
  0
BLOCK
  8
0
  2
*U190
 70
     1
 10
0.0
 20
0.0
 30
0.0
  3
*U190
  1

  0
TEXT
  5
20461
  8
0
 10
1.4662897697170929
 20
3.8395028676267202
 30
0.0
 40
0.125
  1
Fluting
  0
TEXT
  5
20462
  8
0
 10
1.4662897697170929
 20
3.6311695342933858
 30
0.0
 40
0.125
  1
TL-2183
  0
TEXT
  5
20463
  8
0
 10
1.4662897697170929
 20
3.4228362009600528
 30
0.0
 40
0.125
  1
3/4" x 7-1/4"
  0
TEXT
  5
20464
  8
0
 10
1.4662897697170929
 20
3.2145028676267202
 30
0.0
 40
0.125
  1
800.66.TAGUE
  0
ENDBLK
  5
20466
  8
0
  0
BLOCK
  8
0
  2
*U191
 70
     1
 10
0.0
 20
0.0
 30
0.0
  3
*U191
  1

  0
TEXT
  5
20468
  8
0
 10
2.0951853732560148
 20
2.6676693683394879
 30
0.0
 40
0.125
  1
Fluting
  0
TEXT
  5
20469
  8
0
 10
2.0951853732560148
 20
2.4593360350061548
 30
0.0
 40
0.125
  1
TL-2276
  0
TEXT
  5
2046A
  8
0
 10
2.0951853732560148
 20
2.2510027016728218
 30
0.0
 40
0.125
  1
11/16" x 3"
  0
TEXT
  5
2046B
  8
0
 10
2.0951853732560148
 20
2.0426693683394879
 30
0.0
 40
0.125
  1
800.66.TAGUE
  0
ENDBLK
  5
2046D
  8
0
  0
BLOCK
  8
0
  2
*U192
 70
     1
 10
0.0
 20
0.0
 30
0.0
  3
*U192
  1

  0
TEXT
  5
2046F
  8
0
 10
2.4586482925877808
 20
1.0775582798773931
 30
0.0
 40
0.125
  1
Full Round
  0
TEXT
  5
20470
  8
0
 10
2.4586482925877808
 20
0.8692249465440607
 30
0.0
 40
0.125
  1
TL-232
  0
TEXT
  5
20471
  8
0
 10
2.4586482925877808
 20
0.6608916132107274
 30
0.0
 40
0.125
  1
1-7/16" x 1-7/16"
  0
TEXT
  5
20472
  8
0
 10
2.4586482925877808
 20
0.452558279877394
 30
0.0
 40
0.125
  1
800.66.TAGUE
  0
ENDBLK
  5
20474
  8
0
  0
BLOCK
  8
0
  2
*U193
 70
     1
 10
0.0
 20
0.0
 30
0.0
  3
*U193
  1

  0
TEXT
  5
20476
  8
0
 10
2.339763263951113
 20
0.912090443150646
 30
0.0
 40
0.125
  1
Full Round
  0
TEXT
  5
20477
  8
0
 10
2.339763263951113
 20
0.7037571098173128
 30
0.0
 40
0.125
  1
TL-233
  0
TEXT
  5
20478
  8
0
 10
2.339763263951113
 20
0.4954237764839795
 30
0.0
 40
0.125
  1
1-3/16" x 1-3/16"
  0
TEXT
  5
20479
  8
0
 10
2.339763263951113
 20
0.287090443150646
 30
0.0
 40
0.125
  1
800.66.TAGUE
  0
ENDBLK
  5
2047B
  8
0
  0
BLOCK
  8
0
  2
*U194
 70
     1
 10
0.0
 20
0.0
 30
0.0
  3
*U194
  1

  0
TEXT
  5
2047D
  8
0
 10
2.2927598682417729
 20
0.8643692839127652
 30
0.0
 40
0.125
  1
Full Round
  0
TEXT
  5
2047E
  8
0
 10
2.2927598682417729
 20
0.6560359505794321
 30
0.0
 40
0.125
  1
TL-234
  0
TEXT
  5
2047F
  8
0
 10
2.2927598682417729
 20
0.4477026172460987
 30
0.0
 40
0.125
  1
1-1/16" x 1-1/16"
  0
TEXT
  5
20480
  8
0
 10
2.2927598682417729
 20
0.2393692839127652
 30
0.0
 40
0.125
  1
800.66.TAGUE
  0
ENDBLK
  5
20482
  8
0
  0
BLOCK
  8
0
  2
*U195
 70
     1
 10
0.0
 20
0.0
 30
0.0
  3
*U195
  1

  0
TEXT
  5
20484
  8
0
 10
2.0765905058337921
 20
1.0252762384561711
 30
0.0
 40
0.125
  1
Glass Bead
  0
TEXT
  5
20485
  8
0
 10
2.0765905058337921
 20
0.8169429051228387
 30
0.0
 40
0.125
  1
TL-145
  0
TEXT
  5
20486
  8
0
 10
2.0765905058337921
 20
0.6086095717895054
 30
0.0
 40
0.125
  1
11/16" x 3/4"
  0
TEXT
  5
20487
  8
0
 10
2.0765905058337921
 20
0.400276238456172
 30
0.0
 40
0.125
  1
800.66.TAGUE
  0
ENDBLK
  5
20489
  8
0
  0
BLOCK
  8
0
  2
*U196
 70
     1
 10
0.0
 20
0.0
 30
0.0
  3
*U196
  1

  0
TEXT
  5
2048B
  8
0
 10
1.468683703905185
 20
0.7455079879047162
 30
0.0
 40
0.125
  1
Glass Bead
  0
TEXT
  5
2048C
  8
0
 10
1.468683703905185
 20
0.537174654571383
 30
0.0
 40
0.125
  1
TL-147
  0
TEXT
  5
2048D
  8
0
 10
1.468683703905185
 20
0.3288413212380496
 30
0.0
 40
0.125
  1
1/2" x 9/16"
  0
TEXT
  5
2048E
  8
0
 10
1.468683703905185
 20
0.1205079879047162
 30
0.0
 40
0.125
  1
800.66.TAGUE
  0
ENDBLK
  5
20490
  8
0
  0
BLOCK
  8
0
  2
*U197
 70
     1
 10
0.0
 20
0.0
 30
0.0
  3
*U197
  1

  0
TEXT
  5
20492
  8
0
 10
1.584020839760341
 20
0.6794303041602916
 30
0.0
 40
0.125
  1
Glass Bead
  0
TEXT
  5
20493
  8
0
 10
1.584020839760341
 20
0.4710969708269583
 30
0.0
 40
0.125
  1
TL-152
  0
TEXT
  5
20494
  8
0
 10
1.584020839760341
 20
0.262763637493625
 30
0.0
 40
0.125
  1
3/8" x 11/16"
  0
TEXT
  5
20495
  8
0
 10
1.584020839760341
 20
0.0544303041602916
 30
0.0
 40
0.125
  1
800.66.TAGUE
  0
ENDBLK
  5
20497
  8
0
  0
BLOCK
  8
0
  2
*U198
 70
     1
 10
0.0
 20
0.0
 30
0.0
  3
*U198
  1

  0
TEXT
  5
20499
  8
0
 10
1.3526095965341931
 20
0.7381811042487243
 30
0.0
 40
0.125
  1
Glass Bead
  0
TEXT
  5
2049A
  8
0
 10
1.3526095965341931
 20
0.5298477709153912
 30
0.0
 40
0.125
  1
TL-2142
  0
TEXT
  5
2049B
  8
0
 10
1.3526095965341931
 20
0.3215144375820577
 30
0.0
 40
0.125
  1
11/32" x 29/32"
  0
TEXT
  5
2049C
  8
0
 10
1.3526095965341931
 20
0.1131811042487243
 30
0.0
 40
0.125
  1
800.66.TAGUE
  0
ENDBLK
  5
2049E
  8
0
  0
BLOCK
  8
0
  2
*U199
 70
     1
 10
0.0
 20
0.0
 30
0.0
  3
*U199
  1

  0
TEXT
  5
204A0
  8
0
 10
1.3435544091540801
 20
0.6794309539541246
 30
0.0
 40
0.125
  1
Glass Bead
  0
TEXT
  5
204A1
  8
0
 10
1.3435544091540801
 20
0.4710976206207913
 30
0.0
 40
0.125
  1
TL-2149
  0
TEXT
  5
204A2
  8
0
 10
1.3435544091540801
 20
0.2627642872874579
 30
0.0
 40
0.125
  1
3/8" x 1/2"
  0
TEXT
  5
204A3
  8
0
 10
1.3435544091540801
 20
0.0544309539541246
 30
0.0
 40
0.125
  1
800.66.TAGUE
  0
ENDBLK
  5
204A5
  8
0
  0
BLOCK
  8
0
  2
*U200
 70
     1
 10
0.0
 20
0.0
 30
0.0
  3
*U200
  1

  0
TEXT
  5
204A7
  8
0
 10
1.488844305553698
 20
0.6807937379744545
 30
0.0
 40
0.125
  1
Glass Bead
  0
TEXT
  5
204A8
  8
0
 10
1.488844305553698
 20
0.4724604046411212
 30
0.0
 40
0.125
  1
TL-2155
  0
TEXT
  5
204A9
  8
0
 10
1.488844305553698
 20
0.2641270713077878
 30
0.0
 40
0.125
  1
1/2" x 13/16"
  0
TEXT
  5
204AA
  8
0
 10
1.488844305553698
 20
0.0557937379744544
 30
0.0
 40
0.125
  1
800.66.TAGUE
  0
ENDBLK
  5
204AC
  8
0
  0
BLOCK
  8
0
  2
*U201
 70
     1
 10
0.0
 20
0.0
 30
0.0
  3
*U201
  1

  0
TEXT
  5
204AE
  8
0
 10
1.52304343587059
 20
0.6794307504626432
 30
0.0
 40
0.125
  1
Glass Bead
  0
TEXT
  5
204AF
  8
0
 10
1.52304343587059
 20
0.4710974171293099
 30
0.0
 40
0.125
  1
TL-2218
  0
TEXT
  5
204B0
  8
0
 10
1.52304343587059
 20
0.2627640837959765
 30
0.0
 40
0.125
  1
1/4" x 5/8"
  0
TEXT
  5
204B1
  8
0
 10
1.52304343587059
 20
0.0544307504626431
 30
0.0
 40
0.125
  1
800.66.TAGUE
  0
ENDBLK
  5
204B3
  8
0
  0
BLOCK
  8
0
  2
*U202
 70
     1
 10
0.0
 20
0.0
 30
0.0
  3
*U202
  1

  0
TEXT
  5
204B5
  8
0
 10
2.8235364504146778
 20
0.7161662597191026
 30
0.0
 40
0.125
  1
Half Round
  0
TEXT
  5
204B6
  8
0
 10
2.8235364504146778
 20
0.5078329263857692
 30
0.0
 40
0.125
  1
TL-6
  0
TEXT
  5
204B7
  8
0
 10
2.8235364504146778
 20
0.2994995930524358
 30
0.0
 40
0.125
  1
7/8" x 1-3/4"
  0
TEXT
  5
204B8
  8
0
 10
2.8235364504146778
 20
0.0911662597191025
 30
0.0
 40
0.125
  1
800.66.TAGUE
  0
ENDBLK
  5
204BA
  8
0
  0
BLOCK
  8
0
  2
*U203
 70
     1
 10
0.0
 20
0.0
 30
0.0
  3
*U203
  1

  0
TEXT
  5
204BC
  8
0
 10
2.8316039409763221
 20
0.7222806133900122
 30
0.0
 40
0.125
  1
Half Round
  0
TEXT
  5
204BD
  8
0
 10
2.8316039409763221
 20
0.5139472800566788
 30
0.0
 40
0.125
  1
TL-7
  0
TEXT
  5
204BE
  8
0
 10
2.8316039409763221
 20
0.3056139467233454
 30
0.0
 40
0.125
  1
1" x 2"
  0
TEXT
  5
204BF
  8
0
 10
2.8316039409763221
 20
0.0972806133900122
 30
0.0
 40
0.125
  1
800.66.TAGUE
  0
ENDBLK
  5
204C1
  8
0
  0
BLOCK
  8
0
  2
*U204
 70
     1
 10
0.0
 20
0.0
 30
0.0
  3
*U204
  1

  0
TEXT
  5
204C3
  8
0
 10
4.3092556456276148
 20
0.8292621657587915
 30
0.0
 40
0.125
  1
Half Round
  0
TEXT
  5
204C4
  8
0
 10
4.3092556456276148
 20
0.6209288324254582
 30
0.0
 40
0.125
  1
TL-8
  0
TEXT
  5
204C5
  8
0
 10
4.3092556456276148
 20
0.4125954990921248
 30
0.0
 40
0.125
  1
1-1/2" x 3"
  0
TEXT
  5
204C6
  8
0
 10
4.3092556456276148
 20
0.2042621657587915
 30
0.0
 40
0.125
  1
800.66.TAGUE
  0
ENDBLK
  5
204C8
  8
0
  0
BLOCK
  8
0
  2
*U205
 70
     1
 10
0.0
 20
0.0
 30
0.0
  3
*U205
  1

  0
TEXT
  5
204CA
  8
0
 10
2.524104426630799
 20
0.6794299200373644
 30
0.0
 40
0.125
  1
Half Round
  0
TEXT
  5
204CB
  8
0
 10
2.524104426630799
 20
0.471096586704031
 30
0.0
 40
0.125
  1
TL-116
  0
TEXT
  5
204CC
  8
0
 10
2.524104426630799
 20
0.2627632533706976
 30
0.0
 40
0.125
  1
3/4" x 1-1/2"
  0
TEXT
  5
204CD
  8
0
 10
2.524104426630799
 20
0.0544299200373644
 30
0.0
 40
0.125
  1
800.66.TAGUE
  0
ENDBLK
  5
204CF
  8
0
  0
BLOCK
  8
0
  2
*U206
 70
     1
 10
0.0
 20
0.0
 30
0.0
  3
*U206
  1

  0
TEXT
  5
204D1
  8
0
 10
2.4691699319003528
 20
0.6794301275302815
 30
0.0
 40
0.125
  1
Half Round
  0
TEXT
  5
204D2
  8
0
 10
2.4691699319003528
 20
0.4710967941969481
 30
0.0
 40
0.125
  1
TL-119
  0
TEXT
  5
204D3
  8
0
 10
2.4691699319003528
 20
0.2627634608636147
 30
0.0
 40
0.125
  1
5/8" x 1-1/4"
  0
TEXT
  5
204D4
  8
0
 10
2.4691699319003528
 20
0.0544301275302814
 30
0.0
 40
0.125
  1
800.66.TAGUE
  0
ENDBLK
  5
204D6
  8
0
  0
BLOCK
  8
0
  2
*U207
 70
     1
 10
0.0
 20
0.0
 30
0.0
  3
*U207
  1

  0
TEXT
  5
204D8
  8
0
 10
1.96218194837894
 20
0.679429735423696
 30
0.0
 40
0.125
  1
Half Round
  0
TEXT
  5
204D9
  8
0
 10
1.96218194837894
 20
0.4710964020903626
 30
0.0
 40
0.125
  1
TL-120
  0
TEXT
  5
204DA
  8
0
 10
1.96218194837894
 20
0.2627630687570293
 30
0.0
 40
0.125
  1
1/2" x 1"
  0
TEXT
  5
204DB
  8
0
 10
1.96218194837894
 20
0.054429735423696
 30
0.0
 40
0.125
  1
800.66.TAGUE
  0
ENDBLK
  5
204DD
  8
0
  0
BLOCK
  8
0
  2
*U208
 70
     1
 10
0.0
 20
0.0
 30
0.0
  3
*U208
  1

  0
TEXT
  5
204DF
  8
0
 10
1.51989036816559
 20
0.679429754589819
 30
0.0
 40
0.125
  1
Half Round
  0
TEXT
  5
204E0
  8
0
 10
1.51989036816559
 20
0.4710964212564856
 30
0.0
 40
0.125
  1
TL-122
  0
TEXT
  5
204E1
  8
0
 10
1.51989036816559
 20
0.2627630879231522
 30
0.0
 40
0.125
  1
11/32" x 11/16"
  0
TEXT
  5
204E2
  8
0
 10
1.51989036816559
 20
0.0544297545898189
 30
0.0
 40
0.125
  1
800.66.TAGUE
  0
ENDBLK
  5
204E4
  8
0
  0
BLOCK
  8
0
  2
*U209
 70
     1
 10
0.0
 20
0.0
 30
0.0
  3
*U209
  1

  0
TEXT
  5
204E6
  8
0
 10
1.332760358760481
 20
0.6794306489528026
 30
0.0
 40
0.125
  1
Half Round
  0
TEXT
  5
204E7
  8
0
 10
1.332760358760481
 20
0.4710973156194692
 30
0.0
 40
0.125
  1
TL-124
  0
TEXT
  5
204E8
  8
0
 10
1.332760358760481
 20
0.2627639822861358
 30
0.0
 40
0.125
  1
1/4" x 1/2"
  0
TEXT
  5
204E9
  8
0
 10
1.332760358760481
 20
0.0544306489528026
 30
0.0
 40
0.125
  1
800.66.TAGUE
  0
ENDBLK
  5
204EB
  8
0
  0
BLOCK
  8
0
  2
*U210
 70
     1
 10
0.0
 20
0.0
 30
0.0
  3
*U210
  1

  0
TEXT
  5
204ED
  8
0
 10
2.6263646070054838
 20
2.827461056571678
 30
0.0
 40
0.125
  1
Hand Rail
  0
TEXT
  5
204EE
  8
0
 10
2.6263646070054838
 20
2.6191277232383441
 30
0.0
 40
0.125
  1
TL-14
  0
TEXT
  5
204EF
  8
0
 10
2.6263646070054838
 20
2.410794389905011
 30
0.0
 40
0.125
  1
1-5/8" x 5-1/4"
  0
TEXT
  5
204F0
  8
0
 10
2.6263646070054838
 20
2.202461056571678
 30
0.0
 40
0.125
  1
800.66.TAGUE
  0
ENDBLK
  5
204F2
  8
0
  0
BLOCK
  8
0
  2
*U211
 70
     1
 10
0.0
 20
0.0
 30
0.0
  3
*U211
  1

  0
TEXT
  5
204F4
  8
0
 10
2.2830209502855041
 20
2.755934710444194
 30
0.0
 40
0.125
  1
Hand Rail
  0
TEXT
  5
204F5
  8
0
 10
2.2830209502855041
 20
2.5476013771108601
 30
0.0
 40
0.125
  1
TL-15
  0
TEXT
  5
204F6
  8
0
 10
2.2830209502855041
 20
2.3392680437775271
 30
0.0
 40
0.125
  1
1-3/8" x 5-1/2"
  0
TEXT
  5
204F7
  8
0
 10
2.2830209502855041
 20
2.130934710444194
 30
0.0
 40
0.125
  1
800.66.TAGUE
  0
ENDBLK
  5
204F9
  8
0
  0
BLOCK
  8
0
  2
*U212
 70
     1
 10
0.0
 20
0.0
 30
0.0
  3
*U212
  1

  0
TEXT
  5
204FB
  8
0
 10
3.5100871080940119
 20
1.046126857764647
 30
0.0
 40
0.125
  1
Hand Rail
  0
TEXT
  5
204FC
  8
0
 10
3.5100871080940119
 20
0.8377935244313146
 30
0.0
 40
0.125
  1
TL-96
  0
TEXT
  5
204FD
  8
0
 10
3.5100871080940119
 20
0.6294601910979814
 30
0.0
 40
0.125
  1
1-1/4" x 2-1/4"
  0
TEXT
  5
204FE
  8
0
 10
3.5100871080940119
 20
0.4211268577646479
 30
0.0
 40
0.125
  1
800.66.TAGUE
  0
ENDBLK
  5
20500
  8
0
  0
BLOCK
  8
0
  2
*U213
 70
     1
 10
0.0
 20
0.0
 30
0.0
  3
*U213
  1

  0
TEXT
  5
20502
  8
0
 10
2.3417636350062589
 20
4.2171919217870482
 30
0.0
 40
0.125
  1
Hand Rail
  0
TEXT
  5
20503
  8
0
 10
2.3417636350062589
 20
4.0088585884537151
 30
0.0
 40
0.125
  1
TL-117
  0
TEXT
  5
20504
  8
0
 10
2.3417636350062589
 20
3.8005252551203812
 30
0.0
 40
0.125
  1
1-1/4" x 8-1/8"
  0
TEXT
  5
20505
  8
0
 10
2.3417636350062589
 20
3.5921919217870482
 30
0.0
 40
0.125
  1
800.66.TAGUE
  0
ENDBLK
  5
20507
  8
0
  0
BLOCK
  8
0
  2
*U214
 70
     1
 10
0.0
 20
0.0
 30
0.0
  3
*U214
  1

  0
TEXT
  5
20509
  8
0
 10
2.7125232555794119
 20
1.098442957172892
 30
0.0
 40
0.125
  1
Hand Rail
  0
TEXT
  5
2050A
  8
0
 10
2.7125232555794119
 20
0.8901096238395592
 30
0.0
 40
0.125
  1
TL-231
  0
TEXT
  5
2050B
  8
0
 10
2.7125232555794119
 20
0.6817762905062259
 30
0.0
 40
0.125
  1
1-1/2" x 1-11/16"
  0
TEXT
  5
2050C
  8
0
 10
2.7125232555794119
 20
0.4734429571728925
 30
0.0
 40
0.125
  1
800.66.TAGUE
  0
ENDBLK
  5
2050E
  8
0
  0
BLOCK
  8
0
  2
*U215
 70
     1
 10
0.0
 20
0.0
 30
0.0
  3
*U215
  1

  0
TEXT
  5
20510
  8
0
 10
2.960252587020249
 20
0.6772989443436474
 30
0.0
 40
0.125
  1
Lattice
  0
TEXT
  5
20511
  8
0
 10
2.960252587020249
 20
0.468965611010314
 30
0.0
 40
0.125
  1
TL-266
  0
TEXT
  5
20512
  8
0
 10
2.960252587020249
 20
0.2606322776769806
 30
0.0
 40
0.125
  1
1/4" x 1-5/8"
  0
TEXT
  5
20513
  8
0
 10
2.960252587020249
 20
0.0522989443436472
 30
0.0
 40
0.125
  1
800.66.TAGUE
  0
ENDBLK
  5
20515
  8
0
  0
BLOCK
  8
0
  2
*U216
 70
     1
 10
0.0
 20
0.0
 30
0.0
  3
*U216
  1

  0
TEXT
  5
20517
  8
0
 10
2.5177643903332401
 20
0.6772985360157691
 30
0.0
 40
0.125
  1
Lattice
  0
TEXT
  5
20518
  8
0
 10
2.5177643903332401
 20
0.4689652026824358
 30
0.0
 40
0.125
  1
TL-267
  0
TEXT
  5
20519
  8
0
 10
2.5177643903332401
 20
0.2606318693491024
 30
0.0
 40
0.125
  1
1/4" x 1-3/8"
  0
TEXT
  5
2051A
  8
0
 10
2.5177643903332401
 20
0.0522985360157691
 30
0.0
 40
0.125
  1
800.66.TAGUE
  0
ENDBLK
  5
2051C
  8
0
  0
BLOCK
  8
0
  2
*U217
 70
     1
 10
0.0
 20
0.0
 30
0.0
  3
*U217
  1

  0
TEXT
  5
2051E
  8
0
 10
2.3872073702682419
 20
0.6772987437404936
 30
0.0
 40
0.125
  1
Lattice
  0
TEXT
  5
2051F
  8
0
 10
2.3872073702682419
 20
0.4689654104071603
 30
0.0
 40
0.125
  1
TL-268
  0
TEXT
  5
20520
  8
0
 10
2.3872073702682419
 20
0.260632077073827
 30
0.0
 40
0.125
  1
1/4" x 1-1/8"
  0
TEXT
  5
20521
  8
0
 10
2.3872073702682419
 20
0.0522987437404936
 30
0.0
 40
0.125
  1
800.66.TAGUE
  0
ENDBLK
  5
20523
  8
0
  0
BLOCK
  8
0
  2
*U218
 70
     1
 10
0.0
 20
0.0
 30
0.0
  3
*U218
  1

  0
TEXT
  5
20525
  8
0
 10
1.7198452767448771
 20
0.6772982915522335
 30
0.0
 40
0.125
  1
Lattice
  0
TEXT
  5
20526
  8
0
 10
1.7198452767448771
 20
0.4689649582189002
 30
0.0
 40
0.125
  1
TL-269
  0
TEXT
  5
20527
  8
0
 10
1.7198452767448771
 20
0.2606316248855668
 30
0.0
 40
0.125
  1
1/4" x 3/4"
  0
TEXT
  5
20528
  8
0
 10
1.7198452767448771
 20
0.0522982915522334
 30
0.0
 40
0.125
  1
800.66.TAGUE
  0
ENDBLK
  5
2052A
  8
0
  0
BLOCK
  8
0
  2
*U219
 70
     1
 10
0.0
 20
0.0
 30
0.0
  3
*U219
  1

  0
TEXT
  5
2052C
  8
0
 10
2.0085733028087129
 20
0.6772989387914095
 30
0.0
 40
0.125
  1
Lattice
  0
TEXT
  5
2052D
  8
0
 10
2.0085733028087129
 20
0.4689656054580762
 30
0.0
 40
0.125
  1
TL-270
  0
TEXT
  5
2052E
  8
0
 10
2.0085733028087129
 20
0.2606322721247428
 30
0.0
 40
0.125
  1
1/4" x 7/8"
  0
TEXT
  5
2052F
  8
0
 10
2.0085733028087129
 20
0.0522989387914095
 30
0.0
 40
0.125
  1
800.66.TAGUE
  0
ENDBLK
  5
20531
  8
0
  0
BLOCK
  8
0
  2
*U220
 70
     1
 10
0.0
 20
0.0
 30
0.0
  3
*U220
  1

  0
TEXT
  5
20533
  8
0
 10
2.940701223973178
 20
0.6772980715210224
 30
0.0
 40
0.125
  1
Lattice
  0
TEXT
  5
20534
  8
0
 10
2.940701223973178
 20
0.4689647381876891
 30
0.0
 40
0.125
  1
TL-962
  0
TEXT
  5
20535
  8
0
 10
2.940701223973178
 20
0.2606314048543558
 30
0.0
 40
0.125
  1
1/4" x 2"
  0
TEXT
  5
20536
  8
0
 10
2.940701223973178
 20
0.0522980715210224
 30
0.0
 40
0.125
  1
800.66.TAGUE
  0
ENDBLK
  5
20538
  8
0
  0
BLOCK
  8
0
  2
*U221
 70
     1
 10
0.0
 20
0.0
 30
0.0
  3
*U221
  1

  0
TEXT
  5
2053A
  8
0
 10
1.983768624240724
 20
1.1498699559202801
 30
0.0
 40
0.125
  1
Lip Moulding
  0
TEXT
  5
2053B
  8
0
 10
1.983768624240724
 20
0.9415366225869473
 30
0.0
 40
0.125
  1
TL-18
  0
TEXT
  5
2053C
  8
0
 10
1.983768624240724
 20
0.7332032892536139
 30
0.0
 40
0.125
  1
3/4" x 1-15/16"
  0
TEXT
  5
2053D
  8
0
 10
1.983768624240724
 20
0.5248699559202806
 30
0.0
 40
0.125
  1
800.66.TAGUE
  0
ENDBLK
  5
2053F
  8
0
  0
BLOCK
  8
0
  2
*U222
 70
     1
 10
0.0
 20
0.0
 30
0.0
  3
*U222
  1

  0
TEXT
  5
20541
  8
0
 10
2.2853728967398861
 20
1.2855052394233999
 30
0.0
 40
0.125
  1
Lip Moulding
  0
TEXT
  5
20542
  8
0
 10
2.2853728967398861
 20
1.0771719060900671
 30
0.0
 40
0.125
  1
TL-530
  0
TEXT
  5
20543
  8
0
 10
2.2853728967398861
 20
0.8688385727567342
 30
0.0
 40
0.125
  1
5/8" x 1-5/8"
  0
TEXT
  5
20544
  8
0
 10
2.2853728967398861
 20
0.6605052394234008
 30
0.0
 40
0.125
  1
800.66.TAGUE
  0
ENDBLK
  5
20546
  8
0
  0
BLOCK
  8
0
  2
*U223
 70
     1
 10
0.0
 20
0.0
 30
0.0
  3
*U223
  1

  0
TEXT
  5
20548
  8
0
 10
2.269200201813987
 20
1.1997502285778401
 30
0.0
 40
0.125
  1
Lip Moulding
  0
TEXT
  5
20549
  8
0
 10
2.269200201813987
 20
0.9914168952445077
 30
0.0
 40
0.125
  1
TL-532
  0
TEXT
  5
2054A
  8
0
 10
2.269200201813987
 20
0.7830835619111745
 30
0.0
 40
0.125
  1
3/4" x 1-3/4"
  0
TEXT
  5
2054B
  8
0
 10
2.269200201813987
 20
0.574750228577841
 30
0.0
 40
0.125
  1
800.66.TAGUE
  0
ENDBLK
  5
2054D
  8
0
  0
BLOCK
  8
0
  2
*U224
 70
     1
 10
0.0
 20
0.0
 30
0.0
  3
*U224
  1

  0
TEXT
  5
2054F
  8
0
 10
1.8892783014391621
 20
1.241449235052527
 30
0.0
 40
0.125
  1
Lip Moulding
  0
TEXT
  5
20550
  8
0
 10
1.8892783014391621
 20
1.033115901719194
 30
0.0
 40
0.125
  1
TL-2169
  0
TEXT
  5
20551
  8
0
 10
1.8892783014391621
 20
0.8247825683858613
 30
0.0
 40
0.125
  1
11/16" x 1-7/8"
  0
TEXT
  5
20552
  8
0
 10
1.8892783014391621
 20
0.6164492350525279
 30
0.0
 40
0.125
  1
800.66.TAGUE
  0
ENDBLK
  5
20554
  8
0
  0
BLOCK
  8
0
  2
*U225
 70
     1
 10
0.0
 20
0.0
 30
0.0
  3
*U225
  1

  0
TEXT
  5
20556
  8
0
 10
1.620143794977025
 20
1.0038028284741349
 30
0.0
 40
0.125
  1
Lip Moulding
  0
TEXT
  5
20557
  8
0
 10
1.620143794977025
 20
0.7954694951408026
 30
0.0
 40
0.125
  1
TL-2179
  0
TEXT
  5
20558
  8
0
 10
1.620143794977025
 20
0.5871361618074693
 30
0.0
 40
0.125
  1
3/4" x 1-1/4"
  0
TEXT
  5
20559
  8
0
 10
1.620143794977025
 20
0.3788028284741358
 30
0.0
 40
0.125
  1
800.66.TAGUE
  0
ENDBLK
  5
2055B
  8
0
  0
BLOCK
  8
0
  2
*U226
 70
     1
 10
0.0
 20
0.0
 30
0.0
  3
*U226
  1

  0
TEXT
  5
2055D
  8
0
 10
1.9163743563030939
 20
1.019442403193352
 30
0.0
 40
0.125
  1
Lip Moulding
  0
TEXT
  5
2055E
  8
0
 10
1.9163743563030939
 20
0.811109069860019
 30
0.0
 40
0.125
  1
TL-2181
  0
TEXT
  5
2055F
  8
0
 10
1.9163743563030939
 20
0.6027757365266857
 30
0.0
 40
0.125
  1
3/4" x 1-11/16"
  0
TEXT
  5
20560
  8
0
 10
1.9163743563030939
 20
0.3944424031933522
 30
0.0
 40
0.125
  1
800.66.TAGUE
  0
ENDBLK
  5
20562
  8
0
  0
BLOCK
  8
0
  2
*U227
 70
     1
 10
0.0
 20
0.0
 30
0.0
  3
*U227
  1

  0
TEXT
  5
20564
  8
0
 10
2.0010341316657332
 20
0.9876257387668374
 30
0.0
 40
0.125
  1
Lip Moulding
  0
TEXT
  5
20565
  8
0
 10
2.0010341316657332
 20
0.7792924054335043
 30
0.0
 40
0.125
  1
TL-2211
  0
TEXT
  5
20566
  8
0
 10
2.0010341316657332
 20
0.5709590721001709
 30
0.0
 40
0.125
  1
1" x 1-15/32"
  0
TEXT
  5
20567
  8
0
 10
2.0010341316657332
 20
0.3626257387668375
 30
0.0
 40
0.125
  1
800.66.TAGUE
  0
ENDBLK
  5
20569
  8
0
  0
BLOCK
  8
0
  2
*U228
 70
     1
 10
0.0
 20
0.0
 30
0.0
  3
*U228
  1

  0
TEXT
  5
2056B
  8
0
 10
1.9547841412725111
 20
1.2443911534714971
 30
0.0
 40
0.125
  1
Lip Mldg
  0
TEXT
  5
2056C
  8
0
 10
1.9547841412725111
 20
1.0360578201381629
 30
0.0
 40
0.125
  1
TL-2302
  0
TEXT
  5
2056D
  8
0
 10
1.9547841412725111
 20
0.8277244868048304
 30
0.0
 40
0.125
  1
13/16" x 1-3/4"
  0
TEXT
  5
2056E
  8
0
 10
1.9547841412725111
 20
0.6193911534714971
 30
0.0
 40
0.125
  1
800.66.TAGUE
  0
ENDBLK
  5
20570
  8
0
  0
BLOCK
  8
0
  2
*U229
 70
     1
 10
0.0
 20
0.0
 30
0.0
  3
*U229
  1

  0
TEXT
  5
20572
  8
0
 10
1.971391504344296
 20
2.3593485866246051
 30
0.0
 40
0.125
  1
Mantle Moulding
  0
TEXT
  5
20573
  8
0
 10
1.971391504344296
 20
2.1510152532912721
 30
0.0
 40
0.125
  1
TL-9
  0
TEXT
  5
20574
  8
0
 10
1.971391504344296
 20
1.942681919957939
 30
0.0
 40
0.125
  1
1-5/8" x 5-1/8"
  0
TEXT
  5
20575
  8
0
 10
1.971391504344296
 20
1.7343485866246049
 30
0.0
 40
0.125
  1
800.66.TAGUE
  0
ENDBLK
  5
20577
  8
0
  0
BLOCK
  8
0
  2
*U230
 70
     1
 10
0.0
 20
0.0
 30
0.0
  3
*U230
  1

  0
TEXT
  5
20579
  8
0
 10
1.824484143033146
 20
2.7467482000251939
 30
0.0
 40
0.125
  1
Mantle Moulding
  0
TEXT
  5
2057A
  8
0
 10
1.824484143033146
 20
2.5384148666918609
 30
0.0
 40
0.125
  1
TL-10
  0
TEXT
  5
2057B
  8
0
 10
1.824484143033146
 20
2.3300815333585279
 30
0.0
 40
0.125
  1
1-3/8" x 5"
  0
TEXT
  5
2057C
  8
0
 10
1.824484143033146
 20
2.1217482000251939
 30
0.0
 40
0.125
  1
800.66.TAGUE
  0
ENDBLK
  5
2057E
  8
0
  0
BLOCK
  8
0
  2
*U231
 70
     1
 10
0.0
 20
0.0
 30
0.0
  3
*U231
  1

  0
TEXT
  5
20580
  8
0
 10
1.778440342841463
 20
0.6794305349126262
 30
0.0
 40
0.125
  1
Mantle Shelf
  0
TEXT
  5
20581
  8
0
 10
1.778440342841463
 20
0.4710972015792928
 30
0.0
 40
0.125
  1
TL-2184
  0
TEXT
  5
20582
  8
0
 10
1.778440342841463
 20
0.2627638682459594
 30
0.0
 40
0.125
  1
1-1/4" x 5-1/2"
  0
TEXT
  5
20583
  8
0
 10
1.778440342841463
 20
0.0544305349126262
 30
0.0
 40
0.125
  1
800.66.TAGUE
  0
ENDBLK
  5
20585
  8
0
  0
BLOCK
  8
0
  2
*U232
 70
     1
 10
0.0
 20
0.0
 30
0.0
  3
*U232
  1

  0
TEXT
  5
20587
  8
0
 10
2.009611089016857
 20
0.679430549910876
 30
0.0
 40
0.125
  1
Mantle Shelf
  0
TEXT
  5
20588
  8
0
 10
2.009611089016857
 20
0.4710972165775426
 30
0.0
 40
0.125
  1
TL-2185
  0
TEXT
  5
20589
  8
0
 10
2.009611089016857
 20
0.2627638832442092
 30
0.0
 40
0.125
  1
1-1/2" x 5-1/2"
  0
TEXT
  5
2058A
  8
0
 10
2.009611089016857
 20
0.0544305499108759
 30
0.0
 40
0.125
  1
800.66.TAGUE
  0
ENDBLK
  5
2058C
  8
0
  0
BLOCK
  8
0
  2
*U233
 70
     1
 10
0.0
 20
0.0
 30
0.0
  3
*U233
  1

  0
TEXT
  5
2058E
  8
0
 62
     0
 10
-367.02425303528412
 20
426.35429858331162
 30
0.0
 40
0.125
  1
1
 50
90.0
  0
TEXT
  5
2058F
  8
0
 62
     0
 10
-367.10758636861738
 20
426.43763191664488
 30
0.0
 40
0.125
  1
3
 50
90.0
  0
LINE
  5
20590
  8
0
 62
     0
 10
-367.08675303528412
 20
426.43763191664488
 30
0.0
 11
-367.08675303528412
 21
426.52096524997819
 31
0.0
  0
TEXT
  5
20591
  8
0
 62
     0
 10
-366.9409197019508
 20
426.43763191664488
 30
0.0
 40
0.125
  1
4
 50
90.0
  0
TEXT
  5
20592
  8
0
 62
     0
 10
-367.02425303528412
 20
426.56263191664482
 30
0.0
 40
0.125
  1
"
 50
90.0
  0
ENDBLK
  5
20594
  8
0
  0
BLOCK
  8
0
  2
*U234
 70
     1
 10
0.0
 20
0.0
 30
0.0
  3
*U234
  1

  0
TEXT
  5
20596
  8
0
 62
     0
 10
-364.19000805364777
 20
425.28877174148101
 30
0.0
 40
0.125
  1
7
  0
LINE
  5
20597
  8
0
 62
     0
 10
-364.19000805364777
 20
425.2679384081477
 30
0.0
 11
-364.10667472031452
 21
425.2679384081477
 31
0.0
  0
TEXT
  5
20598
  8
0
 62
     0
 10
-364.19000805364777
 20
425.12210507481433
 30
0.0
 40
0.125
  1
8
  0
TEXT
  5
20599
  8
0
 62
     0
 10
-364.06500805364777
 20
425.2054384081477
 30
0.0
 40
0.125
  1
"
  0
ENDBLK
  5
2059B
  8
0
  0
BLOCK
  8
0
  2
*U235
 70
     1
 10
0.0
 20
0.0
 30
0.0
  3
*U235
  1

  0
TEXT
  5
2059D
  8
0
 62
     0
 10
-363.14629495961572
 20
426.36117705424232
 30
0.0
 40
0.125
  1
1
 50
90.0
  0
TEXT
  5
2059E
  8
0
 62
     0
 10
-363.22962829294897
 20
426.46534372090889
 30
0.0
 40
0.125
  1
1
 50
90.0
  0
LINE
  5
2059F
  8
0
 62
     0
 10
-363.20879495961572
 20
426.44451038757558
 30
0.0
 11
-363.20879495961572
 21
426.52784372090889
 31
0.0
  0
TEXT
  5
205A0
  8
0
 62
     0
 10
-363.06296162628229
 20
426.44451038757558
 30
0.0
 40
0.125
  1
2
 50
90.0
  0
TEXT
  5
205A1
  8
0
 62
     0
 10
-363.14629495961572
 20
426.56951038757558
 30
0.0
 40
0.125
  1
"
 50
90.0
  0
ENDBLK
  5
205A3
  8
0
  0
BLOCK
  8
0
  2
*U236
 70
     1
 10
0.0
 20
0.0
 30
0.0
  3
*U236
  1

  0
TEXT
  5
205A5
  8
0
 62
     0
 10
-387.96524739614358
 20
838.7451809866343
 30
0.0
 40
0.125
  1
1
 50
90.0
  0
TEXT
  5
205A6
  8
0
 62
     0
 10
-388.0485807294769
 20
838.82851431996767
 30
0.0
 40
0.125
  1
3
 50
90.0
  0
LINE
  5
205A7
  8
0
 62
     0
 10
-388.02774739614358
 20
838.82851431996767
 30
0.0
 11
-388.02774739614358
 21
838.91184765330104
 31
0.0
  0
TEXT
  5
205A8
  8
0
 62
     0
 10
-387.88191406281032
 20
838.82851431996767
 30
0.0
 40
0.125
  1
4
 50
90.0
  0
TEXT
  5
205A9
  8
0
 62
     0
 10
-387.96524739614358
 20
838.95351431996755
 30
0.0
 40
0.125
  1
"
 50
90.0
  0
ENDBLK
  5
205AB
  8
0
  0
BLOCK
  8
0
  2
*U237
 70
     1
 10
0.0
 20
0.0
 30
0.0
  3
*U237
  1

  0
TEXT
  5
205AD
  8
0
 62
     0
 10
-385.13236667098761
 20
837.67914254862364
 30
0.0
 40
0.125
  1
7
  0
LINE
  5
205AE
  8
0
 62
     0
 10
-385.13236667098761
 20
837.65830921529016
 30
0.0
 11
-385.04903333765429
 21
837.65830921529016
 31
0.0
  0
TEXT
  5
205AF
  8
0
 62
     0
 10
-385.13236667098761
 20
837.51247588195702
 30
0.0
 40
0.125
  1
8
  0
TEXT
  5
205B0
  8
0
 62
     0
 10
-385.00736667098761
 20
837.59580921529039
 30
0.0
 40
0.125
  1
"
  0
ENDBLK
  5
205B2
  8
0
  0
BLOCK
  8
0
  2
*U238
 70
     1
 10
0.0
 20
0.0
 30
0.0
  3
*U238
  1

  0
TEXT
  5
205B4
  8
0
 62
     0
 10
-384.08814198077528
 20
838.75205945756488
 30
0.0
 40
0.125
  1
1
 50
90.0
  0
TEXT
  5
205B5
  8
0
 62
     0
 10
-384.1714753141087
 20
838.85622612423163
 30
0.0
 40
0.125
  1
1
 50
90.0
  0
LINE
  5
205B6
  8
0
 62
     0
 10
-384.15064198077539
 20
838.83539279089825
 30
0.0
 11
-384.15064198077539
 21
838.91872612423185
 31
0.0
  0
TEXT
  5
205B7
  8
0
 62
     0
 10
-384.00480864744202
 20
838.83539279089825
 30
0.0
 40
0.125
  1
2
 50
90.0
  0
TEXT
  5
205B8
  8
0
 62
     0
 10
-384.08814198077528
 20
838.96039279089837
 30
0.0
 40
0.125
  1
"
 50
90.0
  0
ENDBLK
  5
205BA
  8
0
  0
BLOCK
  8
0
  2
*U239
 70
     1
 10
0.0
 20
0.0
 30
0.0
  3
*U239
  1

  0
TEXT
  5
205BC
  8
0
 62
     0
 10
-323.13119819751643
 20
425.11559169813461
 30
0.0
 40
0.125
  1
1
 50
90.0
  0
TEXT
  5
205BD
  8
0
 62
     0
 10
-323.2145315308498
 20
425.19892503146798
 30
0.0
 40
0.125
  1
3
 50
90.0
  0
LINE
  5
205BE
  8
0
 62
     0
 10
-323.19369819751643
 20
425.19892503146798
 30
0.0
 11
-323.19369819751643
 21
425.28225836480118
 31
0.0
  0
TEXT
  5
205BF
  8
0
 62
     0
 10
-323.04786486418311
 20
425.19892503146798
 30
0.0
 40
0.125
  1
4
 50
90.0
  0
TEXT
  5
205C0
  8
0
 62
     0
 10
-323.13119819751643
 20
425.32392503146792
 30
0.0
 40
0.125
  1
"
 50
90.0
  0
ENDBLK
  5
205C2
  8
0
  0
BLOCK
  8
0
  2
*U240
 70
     1
 10
0.0
 20
0.0
 30
0.0
  3
*U240
  1

  0
TEXT
  5
205C4
  8
0
 62
     0
 10
-318.6214997668344
 20
425.11559169813461
 30
0.0
 40
0.125
  1
1
 50
90.0
  0
TEXT
  5
205C5
  8
0
 62
     0
 10
-318.70483310016772
 20
425.19892503146798
 30
0.0
 40
0.125
  1
3
 50
90.0
  0
LINE
  5
205C6
  8
0
 62
     0
 10
-318.6839997668344
 20
425.19892503146798
 30
0.0
 11
-318.6839997668344
 21
425.28225836480118
 31
0.0
  0
TEXT
  5
205C7
  8
0
 62
     0
 10
-318.53816643350109
 20
425.19892503146798
 30
0.0
 40
0.125
  1
8
 50
90.0
  0
TEXT
  5
205C8
  8
0
 62
     0
 10
-318.6214997668344
 20
425.32392503146792
 30
0.0
 40
0.125
  1
"
 50
90.0
  0
ENDBLK
  5
205CA
  8
0
  0
BLOCK
  8
0
  2
*U241
 70
     1
 10
0.0
 20
0.0
 30
0.0
  3
*U241
  1

  0
TEXT
  5
205CC
  8
0
 62
     0
 10
-387.56461450221548
 20
838.89288512488679
 30
0.0
 40
0.125
  1
1
 50
90.0
  0
TEXT
  5
205CD
  8
0
 62
     0
 10
-387.64794783554891
 20
838.97621845822005
 30
0.0
 40
0.125
  1
3
 50
90.0
  0
LINE
  5
205CE
  8
0
 62
     0
 10
-387.62711450221559
 20
838.97621845822005
 30
0.0
 11
-387.62711450221559
 21
839.05955179155353
 31
0.0
  0
TEXT
  5
205CF
  8
0
 62
     0
 10
-387.48128116888222
 20
838.97621845822005
 30
0.0
 40
0.125
  1
4
 50
90.0
  0
TEXT
  5
205D0
  8
0
 62
     0
 10
-387.56461450221548
 20
839.10121845822005
 30
0.0
 40
0.125
  1
"
 50
90.0
  0
ENDBLK
  5
205D2
  8
0
  0
BLOCK
  8
0
  2
*U242
 70
     1
 10
0.0
 20
0.0
 30
0.0
  3
*U242
  1

  0
TEXT
  5
205D4
  8
0
 62
     0
 10
-383.05359444806828
 20
838.89288512488679
 30
0.0
 40
0.125
  1
1
 50
90.0
  0
TEXT
  5
205D5
  8
0
 62
     0
 10
-383.13692778140171
 20
838.97621845822005
 30
0.0
 40
0.125
  1
3
 50
90.0
  0
LINE
  5
205D6
  8
0
 62
     0
 10
-383.1160944480684
 20
838.97621845822005
 30
0.0
 11
-383.1160944480684
 21
839.05955179155353
 31
0.0
  0
TEXT
  5
205D7
  8
0
 62
     0
 10
-382.97026111473502
 20
838.97621845822005
 30
0.0
 40
0.125
  1
8
 50
90.0
  0
TEXT
  5
205D8
  8
0
 62
     0
 10
-383.05359444806828
 20
839.10121845822005
 30
0.0
 40
0.125
  1
"
 50
90.0
  0
ENDBLK
  5
205DA
  8
0
  0
BLOCK
  8
0
  2
*U243
 70
     1
 10
0.0
 20
0.0
 30
0.0
  3
*U243
  1

  0
TEXT
  5
205DC
  8
0
 10
1.872123119890716
 20
0.7588046473348414
 30
0.0
 40
0.125
  1
Nosing & Cove
  0
TEXT
  5
205DD
  8
0
 10
1.872123119890716
 20
0.5504713140015081
 30
0.0
 40
0.125
  1
TL-20
  0
TEXT
  5
205DE
  8
0
 10
1.872123119890716
 20
0.3421379806681747
 30
0.0
 40
0.125
  1
3/4" x 1-5/16"
  0
TEXT
  5
205DF
  8
0
 10
1.872123119890716
 20
0.1338046473348413
 30
0.0
 40
0.125
  1
800.66.TAGUE
  0
ENDBLK
  5
205E1
  8
0
  0
BLOCK
  8
0
  2
*U244
 70
     1
 10
0.0
 20
0.0
 30
0.0
  3
*U244
  1

  0
TEXT
  5
205E3
  8
0
 10
1.914126813415123
 20
0.8585704022782466
 30
0.0
 40
0.125
  1
Nosing & Cove
  0
TEXT
  5
205E4
  8
0
 10
1.914126813415123
 20
0.6502370689449134
 30
0.0
 40
0.125
  1
TL-21
  0
TEXT
  5
205E5
  8
0
 10
1.914126813415123
 20
0.44190373561158
 30
0.0
 40
0.125
  1
1-1/8" x 1-3/4"
  0
TEXT
  5
205E6
  8
0
 10
1.914126813415123
 20
0.2335704022782465
 30
0.0
 40
0.125
  1
800.66.TAGUE
  0
ENDBLK
  5
205E8
  8
0
  0
BLOCK
  8
0
  2
*U245
 70
     1
 10
0.0
 20
0.0
 30
0.0
  3
*U245
  1

  0
TEXT
  5
205EA
  8
0
 10
2.1633643582791811
 20
1.2559710060997979
 30
0.0
 40
0.125
  1
Nosing & Cove
  0
TEXT
  5
205EB
  8
0
 10
2.1633643582791811
 20
1.0476376727664649
 30
0.0
 40
0.125
  1
TL-22
  0
TEXT
  5
205EC
  8
0
 10
2.1633643582791811
 20
0.839304339433132
 30
0.0
 40
0.125
  1
1-5/16" x 2-1/4"
  0
TEXT
  5
205ED
  8
0
 10
2.1633643582791811
 20
0.6309710060997987
 30
0.0
 40
0.125
  1
800.66.TAGUE
  0
ENDBLK
  5
205EF
  8
0
  0
BLOCK
  8
0
  2
*U246
 70
     1
 10
0.0
 20
0.0
 30
0.0
  3
*U246
  1

  0
TEXT
  5
205F1
  8
0
 10
1.1386258441601731
 20
1.192489029325315
 30
0.0
 40
0.125
  1
Nosing & Cove
  0
TEXT
  5
205F2
  8
0
 10
1.1386258441601731
 20
0.9841556959919824
 30
0.0
 40
0.125
  1
TL-2256
  0
TEXT
  5
205F3
  8
0
 10
1.1386258441601731
 20
0.7758223626586491
 30
0.0
 40
0.125
  1
5/8" x 1-1/2"
  0
TEXT
  5
205F4
  8
0
 10
1.1386258441601731
 20
0.5674890293253158
 30
0.0
 40
0.125
  1
800.66.TAGUE
  0
ENDBLK
  5
205F6
  8
0
  0
BLOCK
  8
0
  2
*U247
 70
     1
 10
0.0
 20
0.0
 30
0.0
  3
*U247
  1

  0
TEXT
  5
205F8
  8
0
 10
0.8465252202594228
 20
0.679429976342135
 30
0.0
 40
0.125
  1
Nosing & Cove
  0
TEXT
  5
205F9
  8
0
 10
0.8465252202594228
 20
0.4710966430088017
 30
0.0
 40
0.125
  1
TL-2257
  0
TEXT
  5
205FA
  8
0
 10
0.8465252202594228
 20
0.2627633096754684
 30
0.0
 40
0.125
  1
5/16" x 1/2"
  0
TEXT
  5
205FB
  8
0
 10
0.8465252202594228
 20
0.054429976342135
 30
0.0
 40
0.125
  1
800.66.TAGUE
  0
ENDBLK
  5
205FD
  8
0
  0
BLOCK
  8
0
  2
*U248
 70
     1
 10
0.0
 20
0.0
 30
0.0
  3
*U248
  1

  0
TEXT
  5
205FF
  8
0
 10
2.3806405474079488
 20
1.3133539302667709
 30
0.0
 40
0.125
  1
Ogee
  0
TEXT
  5
20600
  8
0
 10
2.3806405474079488
 20
1.1050205969334379
 30
0.0
 40
0.125
  1
TL-16
  0
TEXT
  5
20601
  8
0
 10
2.3806405474079488
 20
0.8966872636001046
 30
0.0
 40
0.125
  1
1-3/8" x 2"
  0
TEXT
  5
20602
  8
0
 10
2.3806405474079488
 20
0.6883539302667714
 30
0.0
 40
0.125
  1
800.66.TAGUE
  0
ENDBLK
  5
20604
  8
0
  0
BLOCK
  8
0
  2
*U249
 70
     1
 10
0.0
 20
0.0
 30
0.0
  3
*U249
  1

  0
TEXT
  5
20617
  8
0
 10
2.7261344289668719
 20
1.6601320963039821
 30
0.0
 40
0.125
  1
Ogee
  0
TEXT
  5
20618
  8
0
 10
2.7261344289668719
 20
1.451798762970649
 30
0.0
 40
0.125
  1
TL-17
  0
TEXT
  5
20619
  8
0
 10
2.7261344289668719
 20
1.2434654296373151
 30
0.0
 40
0.125
  1
2-5/16" x 1-7/8"
  0
TEXT
  5
2061A
  8
0
 10
2.7261344289668719
 20
1.0351320963039821
 30
0.0
 40
0.125
  1
800.66.TAGUE
  0
ENDBLK
  5
2061C
  8
0
  0
BLOCK
  8
0
  2
*U250
 70
     1
 10
0.0
 20
0.0
 30
0.0
  3
*U250
  1

  0
TEXT
  5
2061E
  8
0
 10
1.8303727118446309
 20
0.9120296408366357
 30
0.0
 40
0.125
  1
Ogee
  0
TEXT
  5
2061F
  8
0
 10
1.8303727118446309
 20
0.7036963075033026
 30
0.0
 40
0.125
  1
TL-166
  0
TEXT
  5
20620
  8
0
 10
1.8303727118446309
 20
0.4953629741699692
 30
0.0
 40
0.125
  1
11/16" x 1-1/4"
  0
TEXT
  5
20621
  8
0
 10
1.8303727118446309
 20
0.2870296408366357
 30
0.0
 40
0.125
  1
800.66.TAGUE
  0
ENDBLK
  5
20623
  8
0
  0
BLOCK
  8
0
  2
*U251
 70
     1
 10
0.0
 20
0.0
 30
0.0
  3
*U251
  1

  0
TEXT
  5
20625
  8
0
 10
1.573032674973148
 20
0.835411988577448
 30
0.0
 40
0.125
  1
Ogee
  0
TEXT
  5
20626
  8
0
 10
1.573032674973148
 20
0.6270786552441149
 30
0.0
 40
0.125
  1
TL-167
  0
TEXT
  5
20627
  8
0
 10
1.573032674973148
 20
0.4187453219107815
 30
0.0
 40
0.125
  1
11/16" x 7/8"
  0
TEXT
  5
20628
  8
0
 10
1.573032674973148
 20
0.210411988577448
 30
0.0
 40
0.125
  1
800.66.TAGUE
  0
ENDBLK
  5
2062A
  8
0
  0
BLOCK
  8
0
  2
*U252
 70
     1
 10
0.0
 20
0.0
 30
0.0
  3
*U252
  1

  0
TEXT
  5
2062C
  8
0
 10
1.814825501310565
 20
1.0878383681827011
 30
0.0
 40
0.125
  1
Ogee Moulding
  0
TEXT
  5
2062D
  8
0
 10
1.814825501310565
 20
0.8795050348493685
 30
0.0
 40
0.125
  1
TL-2240
  0
TEXT
  5
2062E
  8
0
 10
1.814825501310565
 20
0.6711717015160352
 30
0.0
 40
0.125
  1
25/32" x 13/16"
  0
TEXT
  5
2062F
  8
0
 10
1.814825501310565
 20
0.4628383681827018
 30
0.0
 40
0.125
  1
800.66.TAGUE
  0
ENDBLK
  5
20631
  8
0
  0
BLOCK
  8
0
  2
*U253
 70
     1
 10
0.0
 20
0.0
 30
0.0
  3
*U253
  1

  0
TEXT
  5
20633
  8
0
 10
2.966704883543116
 20
1.2733224952305591
 30
0.0
 40
0.125
  1
Ogee Moulding
  0
TEXT
  5
20634
  8
0
 10
2.966704883543116
 20
1.0649891618972249
 30
0.0
 40
0.125
  1
TL-2255
  0
TEXT
  5
20635
  8
0
 10
2.966704883543116
 20
0.8566558285638924
 30
0.0
 40
0.125
  1
1-1/2" x 2-1/8"
  0
TEXT
  5
20636
  8
0
 10
2.966704883543116
 20
0.6483224952305591
 30
0.0
 40
0.125
  1
800.66.TAGUE
  0
ENDBLK
  5
20638
  8
0
  0
BLOCK
  8
0
  2
*U254
 70
     1
 10
0.0
 20
0.0
 30
0.0
  3
*U254
  1

  0
TEXT
  5
2063A
  8
0
 10
1.767740232165522
 20
0.6795164786933583
 30
0.0
 40
0.125
  1
Ogee
  0
TEXT
  5
2063B
  8
0
 10
1.767740232165522
 20
0.471183145360025
 30
0.0
 40
0.125
  1
TL-2280
  0
TEXT
  5
2063C
  8
0
 10
1.767740232165522
 20
0.2628498120266917
 30
0.0
 40
0.125
  1
1/2"  x 5/8"
  0
TEXT
  5
2063D
  8
0
 10
1.767740232165522
 20
0.0545164786933583
 30
0.0
 40
0.125
  1
800.66.TAGUE
  0
ENDBLK
  5
2063F
  8
0
  0
BLOCK
  8
0
  2
*U255
 70
     1
 10
0.0
 20
0.0
 30
0.0
  3
*U255
  1

  0
TEXT
  5
20641
  8
0
 10
2.5765420776576198
 20
0.9513347006069352
 30
0.0
 40
0.125
  1
Ogee
  0
TEXT
  5
20642
  8
0
 10
2.5765420776576198
 20
0.7430013672736021
 30
0.0
 40
0.125
  1
TL-2326
  0
TEXT
  5
20643
  8
0
 10
2.5765420776576198
 20
0.5346680339402687
 30
0.0
 40
0.125
  1
1-3/4" x 1-13/32"
  0
TEXT
  5
20644
  8
0
 10
2.5765420776576198
 20
0.3263347006069353
 30
0.0
 40
0.125
  1
800.66.TAGUE
  0
ENDBLK
  5
20646
  8
0
  0
BLOCK
  8
0
  2
*U256
 70
     1
 10
0.0
 20
0.0
 30
0.0
  3
*U256
  1

  0
TEXT
  5
20648
  8
0
 10
1.8232672208571321
 20
1.0097170300313101
 30
0.0
 40
0.125
  1
Panel Moulding
  0
TEXT
  5
20649
  8
0
 10
1.8232672208571321
 20
0.8013836966979775
 30
0.0
 40
0.125
  1
TL-54
  0
TEXT
  5
2064A
  8
0
 10
1.8232672208571321
 20
0.5930503633646445
 30
0.0
 40
0.125
  1
5/8" x 1-3/8"
  0
TEXT
  5
2064B
  8
0
 10
1.8232672208571321
 20
0.384717030031311
 30
0.0
 40
0.125
  1
800.66.TAGUE
  0
ENDBLK
  5
2064D
  8
0
  0
BLOCK
  8
0
  2
*U257
 70
     1
 10
0.0
 20
0.0
 30
0.0
  3
*U257
  1

  0
TEXT
  5
2064F
  8
0
 10
1.6082414945508381
 20
0.8848429445537249
 30
0.0
 40
0.125
  1
Panel Moulding
  0
TEXT
  5
20650
  8
0
 10
1.6082414945508381
 20
0.6765096112203916
 30
0.0
 40
0.125
  1
TL-56
  0
TEXT
  5
20651
  8
0
 10
1.6082414945508381
 20
0.4681762778870584
 30
0.0
 40
0.125
  1
3/4" x 1-1/2"
  0
TEXT
  5
20652
  8
0
 10
1.6082414945508381
 20
0.2598429445537249
 30
0.0
 40
0.125
  1
800.66.TAGUE
  0
ENDBLK
  5
20654
  8
0
  0
BLOCK
  8
0
  2
*U258
 70
     1
 10
0.0
 20
0.0
 30
0.0
  3
*U258
  1

  0
TEXT
  5
20656
  8
0
 10
1.430001145945198
 20
1.055442987142782
 30
0.0
 40
0.125
  1
Panel Moulding
  0
TEXT
  5
20657
  8
0
 10
1.430001145945198
 20
0.8471096538094494
 30
0.0
 40
0.125
  1
TL-57
  0
TEXT
  5
20658
  8
0
 10
1.430001145945198
 20
0.6387763204761163
 30
0.0
 40
0.125
  1
9/16" x 1-15/16"
  0
TEXT
  5
20659
  8
0
 10
1.430001145945198
 20
0.4304429871427829
 30
0.0
 40
0.125
  1
800.66.TAGUE
  0
ENDBLK
  5
2065B
  8
0
  0
BLOCK
  8
0
  2
*U259
 70
     1
 10
0.0
 20
0.0
 30
0.0
  3
*U259
  1

  0
TEXT
  5
2065D
  8
0
 10
1.681303805809534
 20
1.2026941795735411
 30
0.0
 40
0.125
  1
Panel Moulding
  0
TEXT
  5
2065E
  8
0
 10
1.681303805809534
 20
0.9943608462402076
 30
0.0
 40
0.125
  1
TL-62
  0
TEXT
  5
2065F
  8
0
 10
1.681303805809534
 20
0.7860275129068745
 30
0.0
 40
0.125
  1
1" x 1-3/4"
  0
TEXT
  5
20660
  8
0
 10
1.681303805809534
 20
0.5776941795735411
 30
0.0
 40
0.125
  1
800.66.TAGUE
  0
ENDBLK
  5
20662
  8
0
  0
BLOCK
  8
0
  2
*U260
 70
     1
 10
0.0
 20
0.0
 30
0.0
  3
*U260
  1

  0
TEXT
  5
20664
  8
0
 10
2.133056331073703
 20
1.437235578786044
 30
0.0
 40
0.125
  1
Panel Moulding
  0
TEXT
  5
20665
  8
0
 10
2.133056331073703
 20
1.2289022454527101
 30
0.0
 40
0.125
  1
TL-64
  0
TEXT
  5
20666
  8
0
 10
2.133056331073703
 20
1.0205689121193771
 30
0.0
 40
0.125
  1
1-1/4" x 1-15/16"
  0
TEXT
  5
20667
  8
0
 10
2.133056331073703
 20
0.8122355787860442
 30
0.0
 40
0.125
  1
800.66.TAGUE
  0
ENDBLK
  5
20669
  8
0
  0
BLOCK
  8
0
  2
*U261
 70
     1
 10
0.0
 20
0.0
 30
0.0
  3
*U261
  1

  0
TEXT
  5
2066B
  8
0
 10
1.6378445869512459
 20
1.1242484052883119
 30
0.0
 40
0.125
  1
Panel Moulding
  0
TEXT
  5
2066C
  8
0
 10
1.6378445869512459
 20
0.9159150719549795
 30
0.0
 40
0.125
  1
TL-314
  0
TEXT
  5
2066D
  8
0
 10
1.6378445869512459
 20
0.7075817386216463
 30
0.0
 40
0.125
  1
3/4" x 1-3/8"
  0
TEXT
  5
2066E
  8
0
 10
1.6378445869512459
 20
0.4992484052883129
 30
0.0
 40
0.125
  1
800.66.TAGUE
  0
ENDBLK
  5
20670
  8
0
  0
BLOCK
  8
0
  2
*U262
 70
     1
 10
0.0
 20
0.0
 30
0.0
  3
*U262
  1

  0
TEXT
  5
20672
  8
0
 10
1.793042575215281
 20
1.3157146661659449
 30
0.0
 40
0.125
  1
Panel Moulding
  0
TEXT
  5
20673
  8
0
 10
1.793042575215281
 20
1.107381332832611
 30
0.0
 40
0.125
  1
TL-2032
  0
TEXT
  5
20674
  8
0
 10
1.793042575215281
 20
0.8990479994992785
 30
0.0
 40
0.125
  1
3/4" x 2"
  0
TEXT
  5
20675
  8
0
 10
1.793042575215281
 20
0.6907146661659454
 30
0.0
 40
0.125
  1
800.66.TAGUE
  0
ENDBLK
  5
20677
  8
0
  0
BLOCK
  8
0
  2
*U263
 70
     1
 10
0.0
 20
0.0
 30
0.0
  3
*U263
  1

  0
TEXT
  5
20679
  8
0
 10
1.8141185831191251
 20
0.8182814091084082
 30
0.0
 40
0.125
  1
Panel Moulding
  0
TEXT
  5
2067A
  8
0
 10
1.8141185831191251
 20
0.6099480757750749
 30
0.0
 40
0.125
  1
TL-2016
  0
TEXT
  5
2067B
  8
0
 10
1.8141185831191251
 20
0.4016147424417417
 30
0.0
 40
0.125
  1
15/16" x 1-11/16"
  0
TEXT
  5
2067C
  8
0
 10
1.8141185831191251
 20
0.1932814091084083
 30
0.0
 40
0.125
  1
800.66.TAGUE
  0
ENDBLK
  5
2067E
  8
0
  0
BLOCK
  8
0
  2
*U264
 70
     1
 10
0.0
 20
0.0
 30
0.0
  3
*U264
  1

  0
TEXT
  5
20680
  8
0
 10
1.6323248967152031
 20
0.9094451817165918
 30
0.0
 40
0.125
  1
Panel Moulding
  0
TEXT
  5
20681
  8
0
 10
1.6323248967152031
 20
0.7011118483832585
 30
0.0
 40
0.125
  1
TL-2136
  0
TEXT
  5
20682
  8
0
 10
1.6323248967152031
 20
0.4927785150499253
 30
0.0
 40
0.125
  1
21/32" x 1"
  0
TEXT
  5
20683
  8
0
 10
1.6323248967152031
 20
0.2844451817165918
 30
0.0
 40
0.125
  1
800.66.TAGUE
  0
ENDBLK
  5
20685
  8
0
  0
BLOCK
  8
0
  2
*U265
 70
     1
 10
0.0
 20
0.0
 30
0.0
  3
*U265
  1

  0
TEXT
  5
20687
  8
0
 10
1.417623633629318
 20
0.9199699342109398
 30
0.0
 40
0.125
  1
Panel Moulding
  0
TEXT
  5
20688
  8
0
 10
1.417623633629318
 20
0.7116366008776064
 30
0.0
 40
0.125
  1
TL-2198
  0
TEXT
  5
20689
  8
0
 10
1.417623633629318
 20
0.5033032675442732
 30
0.0
 40
0.125
  1
3/8" x 15/16"
  0
TEXT
  5
2068A
  8
0
 10
1.417623633629318
 20
0.2949699342109397
 30
0.0
 40
0.125
  1
800.66.TAGUE
  0
ENDBLK
  5
2068C
  8
0
  0
BLOCK
  8
0
  2
*U266
 70
     1
 10
0.0
 20
0.0
 30
0.0
  3
*U266
  1

  0
TEXT
  5
2068E
  8
0
 10
1.152367654636123
 20
0.6934204479599658
 30
0.0
 40
0.125
  1
Panel Moulding
  0
TEXT
  5
2068F
  8
0
 10
1.152367654636123
 20
0.4850871146266324
 30
0.0
 40
0.125
  1
TL-2068
  0
TEXT
  5
20690
  8
0
 10
1.152367654636123
 20
0.276753781293299
 30
0.0
 40
0.125
  1
3/8" x 3/4"
  0
TEXT
  5
20691
  8
0
 10
1.152367654636123
 20
0.0684204479599657
 30
0.0
 40
0.125
  1
800.66.TAGUE
  0
ENDBLK
  5
20693
  8
0
  0
BLOCK
  8
0
  2
*U267
 70
     1
 10
0.0
 20
0.0
 30
0.0
  3
*U267
  1

  0
TEXT
  5
20695
  8
0
 10
1.6525119768826919
 20
0.6772984067825975
 30
0.0
 40
0.125
  1
Panel Moulding
  0
TEXT
  5
20696
  8
0
 10
1.6525119768826919
 20
0.468965073449264
 30
0.0
 40
0.125
  1
TL-2074
  0
TEXT
  5
20697
  8
0
 10
1.6525119768826919
 20
0.2606317401159307
 30
0.0
 40
0.125
  1
1/2" x 17/32"
  0
TEXT
  5
20698
  8
0
 10
1.6525119768826919
 20
0.0522984067825974
 30
0.0
 40
0.125
  1
800.66.TAGUE
  0
ENDBLK
  5
2069A
  8
0
  0
BLOCK
  8
0
  2
*U268
 70
     1
 10
0.0
 20
0.0
 30
0.0
  3
*U268
  1

  0
TEXT
  5
2069C
  8
0
 10
1.2174996695814571
 20
0.677298529590189
 30
0.0
 40
0.125
  1
Panel Moulding
  0
TEXT
  5
2069D
  8
0
 10
1.2174996695814571
 20
0.4689651962568556
 30
0.0
 40
0.125
  1
TL-2178
  0
TEXT
  5
2069E
  8
0
 10
1.2174996695814571
 20
0.2606318629235224
 30
0.0
 40
0.125
  1
5/16" x 11/16"
  0
TEXT
  5
2069F
  8
0
 10
1.2174996695814571
 20
0.052298529590189
 30
0.0
 40
0.125
  1
800.66.TAGUE
  0
ENDBLK
  5
206A1
  8
0
  0
BLOCK
  8
0
  2
*U269
 70
     1
 10
0.0
 20
0.0
 30
0.0
  3
*U269
  1

  0
TEXT
  5
206A3
  8
0
 10
1.621705506624266
 20
1.0164844833981299
 30
0.0
 40
0.125
  1
Panel Moulding
  0
TEXT
  5
206A4
  8
0
 10
1.621705506624266
 20
0.8081511500647971
 30
0.0
 40
0.125
  1
TL-2237
  0
TEXT
  5
206A5
  8
0
 10
1.621705506624266
 20
0.599817816731464
 30
0.0
 40
0.125
  1
3/4" x 1-1/2"
  0
TEXT
  5
206A6
  8
0
 10
1.621705506624266
 20
0.3914844833981306
 30
0.0
 40
0.125
  1
800.66.TAGUE
  0
ENDBLK
  5
206A8
  8
0
  0
BLOCK
  8
0
  2
*U270
 70
     1
 10
0.0
 20
0.0
 30
0.0
  3
*U270
  1

  0
TEXT
  5
206AA
  8
0
 10
2.0683925889327379
 20
1.262249770558469
 30
0.0
 40
0.125
  1
Panel Moulding
  0
TEXT
  5
206AB
  8
0
 10
2.0683925889327379
 20
1.0539164372251351
 30
0.0
 40
0.125
  1
TL-2239
  0
TEXT
  5
206AC
  8
0
 10
2.0683925889327379
 20
0.8455831038918026
 30
0.0
 40
0.125
  1
27/32" x 1-7/8"
  0
TEXT
  5
206AD
  8
0
 10
2.0683925889327379
 20
0.6372497705584692
 30
0.0
 40
0.125
  1
800.66.TAGUE
  0
ENDBLK
  5
206AF
  8
0
  0
BLOCK
  8
0
  2
*U271
 70
     1
 10
0.0
 20
0.0
 30
0.0
  3
*U271
  1

  0
TEXT
  5
206B1
  8
0
 10
2.746924783524491
 20
2.4371414641403808
 30
0.0
 40
0.125
  1
Panel Moulding
  0
TEXT
  5
206B2
  8
0
 10
2.746924783524491
 20
2.2288081308070482
 30
0.0
 40
0.125
  1
TL-2241
  0
TEXT
  5
206B3
  8
0
 10
2.746924783524491
 20
2.0204747974737152
 30
0.0
 40
0.125
  1
1-5/32" x 3-9/16"
  0
TEXT
  5
206B4
  8
0
 10
2.746924783524491
 20
1.812141464140381
 30
0.0
 40
0.125
  1
800.66.TAGUE
  0
ENDBLK
  5
206B6
  8
0
  0
BLOCK
  8
0
  2
*U272
 70
     1
 10
0.0
 20
0.0
 30
0.0
  3
*U272
  1

  0
TEXT
  5
206B8
  8
0
 10
1.48967271797386
 20
1.0711974611003821
 30
0.0
 40
0.125
  1
Panel Moulding
  0
TEXT
  5
206B9
  8
0
 10
1.48967271797386
 20
0.8628641277670491
 30
0.0
 40
0.125
  1
TL-2248
  0
TEXT
  5
206BA
  8
0
 10
1.48967271797386
 20
0.6545307944337159
 30
0.0
 40
0.125
  1
7/8" x 1-7/8"
  0
TEXT
  5
206BB
  8
0
 10
1.48967271797386
 20
0.4461974611003825
 30
0.0
 40
0.125
  1
800.66.TAGUE
  0
ENDBLK
  5
206BD
  8
0
  0
BLOCK
  8
0
  2
*U273
 70
     1
 10
0.0
 20
0.0
 30
0.0
  3
*U273
  1

  0
TEXT
  5
206BF
  8
0
 10
1.3774554366254961
 20
1.0325907140347681
 30
0.0
 40
0.125
  1
Panel Moulding
  0
TEXT
  5
206C0
  8
0
 10
1.3774554366254961
 20
0.8242573807014347
 30
0.0
 40
0.125
  1
TL-2259
  0
TEXT
  5
206C1
  8
0
 10
1.3774554366254961
 20
0.6159240473681015
 30
0.0
 40
0.125
  1
1/2" x 1-3/16"
  0
TEXT
  5
206C2
  8
0
 10
1.3774554366254961
 20
0.4075907140347681
 30
0.0
 40
0.125
  1
800.66.TAGUE
  0
ENDBLK
  5
206C4
  8
0
  0
BLOCK
  8
0
  2
*U274
 70
     1
 10
0.0
 20
0.0
 30
0.0
  3
*U274
  1

  0
TEXT
  5
206C6
  8
0
 10
1.4427956644998969
 20
1.4622105465398361
 30
0.0
 40
0.125
  1
Panel Moulding
  0
TEXT
  5
206C7
  8
0
 10
1.4427956644998969
 20
1.2538772132065019
 30
0.0
 40
0.125
  1
TL-2260
  0
TEXT
  5
206C8
  8
0
 10
1.4427956644998969
 20
1.0455438798731691
 30
0.0
 40
0.125
  1
1/2" x 1-13/16"
  0
TEXT
  5
206C9
  8
0
 10
1.4427956644998969
 20
0.8372105465398362
 30
0.0
 40
0.125
  1
800.66.TAGUE
  0
ENDBLK
  5
206CB
  8
0
  0
BLOCK
  8
0
  2
*U275
 70
     1
 10
0.0
 20
0.0
 30
0.0
  3
*U275
  1

  0
TEXT
  5
206CD
  8
0
 10
2.4257777135581469
 20
1.4688991231314501
 30
0.0
 40
0.125
  1
Panel Moulding
  0
TEXT
  5
206CE
  8
0
 10
2.4257777135581469
 20
1.260565789798116
 30
0.0
 40
0.125
  1
TL-2261
  0
TEXT
  5
206CF
  8
0
 10
2.4257777135581469
 20
1.0522324564647829
 30
0.0
 40
0.125
  1
13/16" x 2"
  0
TEXT
  5
206D0
  8
0
 10
2.4257777135581469
 20
0.8438991231314503
 30
0.0
 40
0.125
  1
800.66.TAGUE
  0
ENDBLK
  5
206D2
  8
0
  0
BLOCK
  8
0
  2
*U276
 70
     1
 10
0.0
 20
0.0
 30
0.0
  3
*U276
  1

  0
TEXT
  5
206D4
  8
0
 10
2.5069500958813928
 20
0.7911043912140486
 30
0.0
 40
0.125
  1
Panel Moulding
  0
TEXT
  5
206D5
  8
0
 10
2.5069500958813928
 20
0.5827710578807152
 30
0.0
 40
0.125
  1
TL-2270
  0
TEXT
  5
206D6
  8
0
 10
2.5069500958813928
 20
0.3744377245473819
 30
0.0
 40
0.125
  1
11/16" x 15/16"
  0
TEXT
  5
206D7
  8
0
 10
2.5069500958813928
 20
0.1661043912140485
 30
0.0
 40
0.125
  1
800.66.TAGUE
  0
ENDBLK
  5
206D9
  8
0
  0
BLOCK
  8
0
  2
*U277
 70
     1
 10
0.0
 20
0.0
 30
0.0
  3
*U277
  1

  0
TEXT
  5
206DB
  8
0
 62
     0
 10
-266.30534787530831
 20
273.59262856062833
 30
0.0
 40
0.125
  1
1
 50
90.0
  0
TEXT
  5
206DC
  8
0
 62
     0
 10
-266.38868120864157
 20
273.71762856062833
 30
0.0
 40
0.125
  1
5
 50
90.0
  0
LINE
  5
206DD
  8
0
 62
     0
 10
-266.36784787530831
 20
273.6759618939617
 30
0.0
 11
-266.36784787530831
 21
273.84262856062833
 31
0.0
  0
TEXT
  5
206DE
  8
0
 62
     0
 10
-266.222014541975
 20
273.6759618939617
 30
0.0
 40
0.125
  1
16
 50
90.0
  0
TEXT
  5
206DF
  8
0
 62
     0
 10
-266.30534787530831
 20
273.88429522729501
 30
0.0
 40
0.125
  1
"
 50
90.0
  0
ENDBLK
  5
206E1
  8
0
  0
BLOCK
  8
0
  2
*U278
 70
     1
 10
0.0
 20
0.0
 30
0.0
  3
*U278
  1

  0
TEXT
  5
206E3
  8
0
 62
     0
 10
-265.70247366384262
 20
273.99008194853201
 30
0.0
 40
0.125
  1
11
  0
LINE
  5
206E4
  8
0
 62
     0
 10
-265.74414033050931
 20
273.96924861519869
 30
0.0
 11
-265.535806997176
 21
273.96924861519869
 31
0.0
  0
TEXT
  5
206E5
  8
0
 62
     0
 10
-265.74414033050931
 20
273.82341528186532
 30
0.0
 40
0.125
  1
32
  0
TEXT
  5
206E6
  8
0
 62
     0
 10
-265.49414033050931
 20
273.90674861519869
 30
0.0
 40
0.125
  1
"
  0
ENDBLK
  5
206E8
  8
0
  0
BLOCK
  8
0
  2
*U279
 70
     1
 10
0.0
 20
0.0
 30
0.0
  3
*U279
  1

  0
TEXT
  5
206EA
  8
0
 10
0.909015082031658
 20
0.6872605440269127
 30
0.0
 40
0.125
  1
Panel Mldg
  0
TEXT
  5
206EB
  8
0
 10
0.909015082031658
 20
0.4789272106935793
 30
0.0
 40
0.125
  1
TL-2283
  0
TEXT
  5
206EC
  8
0
 10
0.909015082031658
 20
0.3080938773602461
 30
0.0
 40
0.0875
  1
13
  0
LINE
  5
206ED
  8
0
 10
0.9900771438509416
 20
0.2364180734849593
 30
0.0
 11
1.0904530202123739
 21
0.3797696812355328
 31
0.0
  0
TEXT
  5
206EE
  8
0
 10
1.0548484153649911
 20
0.1914272106935794
 30
0.0
 40
0.0875
  1
16
  0
TEXT
  5
206EF
  8
0
 10
1.2006817486983239
 20
0.220593877360246
 30
0.0
 40
0.125
  1
" x 1-
  0
TEXT
  5
206F0
  8
0
 10
1.8673484153649911
 20
0.3080938773602461
 30
0.0
 40
0.0875
  1
3
  0
LINE
  5
206F1
  8
0
 10
1.8900771438509409
 20
0.2364180734849593
 30
0.0
 11
1.990453020212374
 21
0.3797696812355328
 31
0.0
  0
TEXT
  5
206F2
  8
0
 10
1.954848415364991
 20
0.1914272106935794
 30
0.0
 40
0.0875
  1
4
  0
TEXT
  5
206F3
  8
0
 10
2.0423484153649909
 20
0.220593877360246
 30
0.0
 40
0.125
  1
"
  0
TEXT
  5
206F4
  8
0
 10
0.909015082031658
 20
0.0539272106935793
 30
0.0
 40
0.125
  1
800.66.TAGUE
  0
ENDBLK
  5
206F6
  8
0
  0
BLOCK
  8
0
  2
*U280
 70
     1
 10
0.0
 20
0.0
 30
0.0
  3
*U280
  1

  0
TEXT
  5
206F8
  8
0
 62
     0
 10
-388.10095765539421
 20
838.47949397127331
 30
0.0
 40
0.125
  1
1
 50
90.0
  0
TEXT
  5
206F9
  8
0
 62
     0
 10
-388.18429098872758
 20
838.60449397127343
 30
0.0
 40
0.125
  1
5
 50
90.0
  0
LINE
  5
206FA
  8
0
 62
     0
 10
-388.16345765539432
 20
838.5628273046068
 30
0.0
 11
-388.16345765539432
 21
838.72949397127343
 31
0.0
  0
TEXT
  5
206FB
  8
0
 62
     0
 10
-388.0176243220609
 20
838.5628273046068
 30
0.0
 40
0.125
  1
16
 50
90.0
  0
TEXT
  5
206FC
  8
0
 62
     0
 10
-388.10095765539421
 20
838.77116063794006
 30
0.0
 40
0.125
  1
"
 50
90.0
  0
ENDBLK
  5
206FE
  8
0
  0
BLOCK
  8
0
  2
*U281
 70
     1
 10
0.0
 20
0.0
 30
0.0
  3
*U281
  1

  0
TEXT
  5
20700
  8
0
 62
     0
 10
-387.49961823246872
 20
838.8753273046068
 30
0.0
 40
0.125
  1
11
  0
LINE
  5
20701
  8
0
 62
     0
 10
-387.54128489913541
 20
838.85449397127331
 30
0.0
 11
-387.33295156580209
 21
838.85449397127331
 31
0.0
  0
TEXT
  5
20702
  8
0
 62
     0
 10
-387.54128489913541
 20
838.70866063794006
 30
0.0
 40
0.125
  1
32
  0
TEXT
  5
20703
  8
0
 62
     0
 10
-387.29128489913541
 20
838.79199397127366
 30
0.0
 40
0.125
  1
"
  0
ENDBLK
  5
20705
  8
0
  0
BLOCK
  8
0
  2
*U282
 70
     1
 10
0.0
 20
0.0
 30
0.0
  3
*U282
  1

  0
TEXT
  5
20707
  8
0
 10
2.6345862085493641
 20
1.498411677627927
 30
0.0
 40
0.125
  1
Panel Moulding
  0
TEXT
  5
20708
  8
0
 10
2.6345862085493641
 20
1.290078344294594
 30
0.0
 40
0.125
  1
TL-2304
  0
TEXT
  5
20709
  8
0
 10
2.6345862085493641
 20
1.081745010961261
 30
0.0
 40
0.125
  1
1-3/8" x 2"
  0
TEXT
  5
2070A
  8
0
 10
2.6345862085493641
 20
0.8734116776279279
 30
0.0
 40
0.125
  1
800.66.TAGUE
  0
ENDBLK
  5
2070C
  8
0
  0
BLOCK
  8
0
  2
*U283
 70
     1
 10
0.0
 20
0.0
 30
0.0
  3
*U283
  1

  0
TEXT
  5
2070E
  8
0
 10
2.0187131816974211
 20
1.20118096128408
 30
0.0
 40
0.125
  1
Picture Moulding
  0
TEXT
  5
2070F
  8
0
 10
2.0187131816974211
 20
0.9928476279507473
 30
0.0
 40
0.125
  1
TL-276
  0
TEXT
  5
20710
  8
0
 10
2.0187131816974211
 20
0.7845142946174141
 30
0.0
 40
0.125
  1
3/4" x 1-3/4"
  0
TEXT
  5
20711
  8
0
 10
2.0187131816974211
 20
0.5761809612840807
 30
0.0
 40
0.125
  1
800.66.TAGUE
  0
ENDBLK
  5
20713
  8
0
  0
BLOCK
  8
0
  2
*U284
 70
     1
 10
0.0
 20
0.0
 30
0.0
  3
*U284
  1

  0
TEXT
  5
20715
  8
0
 10
1.49770647708442
 20
1.222690512861845
 30
0.0
 40
0.125
  1
Picture Moulding
  0
TEXT
  5
20716
  8
0
 10
1.49770647708442
 20
1.014357179528512
 30
0.0
 40
0.125
  1
TL-277
  0
TEXT
  5
20717
  8
0
 10
1.49770647708442
 20
0.8060238461951788
 30
0.0
 40
0.125
  1
3/4" x 1-3/4"
  0
TEXT
  5
20718
  8
0
 10
1.49770647708442
 20
0.5976905128618455
 30
0.0
 40
0.125
  1
800.66.TAGUE
  0
ENDBLK
  5
2071A
  8
0
  0
BLOCK
  8
0
  2
*U285
 70
     1
 10
0.0
 20
0.0
 30
0.0
  3
*U285
  1

  0
TEXT
  5
2071C
  8
0
 10
1.606155954235418
 20
0.8433418361508984
 30
0.0
 40
0.125
  1
Picture Moulding
  0
TEXT
  5
2071D
  8
0
 10
1.606155954235418
 20
0.6350085028175651
 30
0.0
 40
0.125
  1
TL-2173
  0
TEXT
  5
2071E
  8
0
 10
1.606155954235418
 20
0.4266751694842318
 30
0.0
 40
0.125
  1
13/16" x 1-1/2"
  0
TEXT
  5
2071F
  8
0
 10
1.606155954235418
 20
0.2183418361508984
 30
0.0
 40
0.125
  1
800.66.TAGUE
  0
ENDBLK
  5
20721
  8
0
  0
BLOCK
  8
0
  2
*U286
 70
     1
 10
0.0
 20
0.0
 30
0.0
  3
*U286
  1

  0
TEXT
  5
20723
  8
0
 10
1.771900475170298
 20
1.126578925655167
 30
0.0
 40
0.125
  1
Plank Moulding
  0
TEXT
  5
20724
  8
0
 10
1.771900475170298
 20
0.9182455923218338
 30
0.0
 40
0.125
  1
TL-211
  0
TEXT
  5
20725
  8
0
 10
1.771900475170298
 20
0.7099122589885005
 30
0.0
 40
0.125
  1
11/16" x 1-9/16"
  0
TEXT
  5
20726
  8
0
 10
1.771900475170298
 20
0.5015789256551672
 30
0.0
 40
0.125
  1
800.66.TAGUE
  0
ENDBLK
  5
20728
  8
0
  0
BLOCK
  8
0
  2
*U287
 70
     1
 10
0.0
 20
0.0
 30
0.0
  3
*U287
  1

  0
TEXT
  5
2072A
  8
0
 10
1.4505245364633761
 20
0.8622422781851356
 30
0.0
 40
0.125
  1
Plank Moulding
  0
TEXT
  5
2072B
  8
0
 10
1.4505245364633761
 20
0.6539089448518024
 30
0.0
 40
0.125
  1
TL-2286
  0
TEXT
  5
2072C
  8
0
 10
1.4505245364633761
 20
0.395575611518469
 30
0.0
 40
0.125
  1
1/2" x 1-
  0
TEXT
  5
2072D
  8
0
 10
2.4505245364633761
 20
0.483075611518469
 30
0.0
 40
0.0875
  1
1
  0
LINE
  5
2072E
  8
0
 10
2.4440865982826598
 20
0.4113998076431822
 30
0.0
 11
2.5444624746440931
 21
0.5547514153937558
 31
0.0
  0
TEXT
  5
2072F
  8
0
 10
2.5088578697967092
 20
0.3664089448518023
 30
0.0
 40
0.0875
  1
8
  0
TEXT
  5
20730
  8
0
 10
2.5963578697967091
 20
0.395575611518469
 30
0.0
 40
0.125
  1
"
  0
TEXT
  5
20731
  8
0
 10
1.4505245364633761
 20
0.2289089448518022
 30
0.0
 40
0.125
  1
800.66.TAGUE
  0
ENDBLK
  5
20733
  8
0
  0
BLOCK
  8
0
  2
*U288
 70
     1
 10
0.0
 20
0.0
 30
0.0
  3
*U288
  1

  0
TEXT
  5
20735
  8
0
 10
2.1711370769962168
 20
0.7594393410427074
 30
0.0
 40
0.125
  1
Plank Moulding
  0
TEXT
  5
20736
  8
0
 10
2.1711370769962168
 20
0.5511060077093742
 30
0.0
 40
0.125
  1
TL-2291
  0
TEXT
  5
20737
  8
0
 10
2.1711370769962168
 20
0.2927726743760408
 30
0.0
 40
0.125
  1
1" x 1-
  0
TEXT
  5
20738
  8
0
 10
2.9211370769962168
 20
0.3802726743760409
 30
0.0
 40
0.0875
  1
1
  0
LINE
  5
20739
  8
0
 10
2.914699138815501
 20
0.3085968705007541
 30
0.0
 11
3.015075015176933
 21
0.4519484782513276
 31
0.0
  0
TEXT
  5
2073A
  8
0
 10
2.97947041032955
 20
0.2636060077093742
 30
0.0
 40
0.0875
  1
4
  0
TEXT
  5
2073B
  8
0
 10
3.0669704103295499
 20
0.2927726743760408
 30
0.0
 40
0.125
  1
"
  0
TEXT
  5
2073C
  8
0
 10
2.1711370769962168
 20
0.1261060077093741
 30
0.0
 40
0.125
  1
800.66.TAGUE
  0
ENDBLK
  5
2073E
  8
0
  0
BLOCK
  8
0
  2
*U289
 70
     1
 10
0.0
 20
0.0
 30
0.0
  3
*U289
  1

  0
TEXT
  5
20740
  8
0
 10
4.8409202131259121
 20
5.087561484758111
 30
0.0
 40
0.125
  1
Plinth Block
  0
TEXT
  5
20741
  8
0
 10
4.8409202131259121
 20
4.8792281514247779
 30
0.0
 40
0.125
  1
TL-720
  0
TEXT
  5
20742
  8
0
 10
4.8409202131259121
 20
4.670894818091444
 30
0.0
 40
0.125
  1
1" x 4" x Any Height
  0
TEXT
  5
20743
  8
0
 10
4.8409202131259121
 20
4.462561484758111
 30
0.0
 40
0.125
  1
For use w/ TL-332 & TL-361 
  0
TEXT
  5
20744
  8
0
 10
4.8409202131259121
 20
4.2542281514247779
 30
0.0
 40
0.125
  1
Casing
  0
TEXT
  5
20745
  8
0
 10
4.8409202131259121
 20
4.0458948180914449
 30
0.0
 40
0.125
  1
(1" x 3-3/4" x Any Height is 
  0
TEXT
  5
20746
  8
0
 10
4.8409202131259121
 20
3.837561484758111
 30
0.0
 40
0.125
  1
also available for use w/ 
  0
TEXT
  5
20747
  8
0
 10
4.8409202131259121
 20
3.6292281514247779
 30
0.0
 40
0.125
  1
TL-750 Casing)
  0
TEXT
  5
20748
  8
0
 10
4.8409202131259121
 20
3.420894818091444
 30
0.0
 40
0.125
  1
800.66.TAGUE
  0
ENDBLK
  5
2074A
  8
0
  0
BLOCK
  8
0
  2
*U290
 70
     1
 10
0.0
 20
0.0
 30
0.0
  3
*U290
  1

  0
TEXT
  5
2074C
  8
0
 10
5.0851826815998598
 20
4.9480590124609298
 30
0.0
 40
0.125
  1
Plinth Block
  0
TEXT
  5
2074D
  8
0
 10
5.0851826815998598
 20
4.7397256791275968
 30
0.0
 40
0.125
  1
TL-722
  0
TEXT
  5
2074E
  8
0
 10
5.0851826815998598
 20
4.5313923457942629
 30
0.0
 40
0.125
  1
7/8" x 4" x Any Height
  0
TEXT
  5
2074F
  8
0
 10
5.0851826815998598
 20
4.3230590124609298
 30
0.0
 40
0.125
  1
For use w/ TL-332 & TL-361 
  0
TEXT
  5
20750
  8
0
 10
5.0851826815998598
 20
4.1147256791275968
 30
0.0
 40
0.125
  1
Casing
  0
TEXT
  5
20751
  8
0
 10
5.0851826815998598
 20
3.9063923457942642
 30
0.0
 40
0.125
  1
(7/8" x 3-3/4" x Any Height 
  0
TEXT
  5
20752
  8
0
 10
5.0851826815998598
 20
3.6980590124609298
 30
0.0
 40
0.125
  1
is also available for use w/ 
  0
TEXT
  5
20753
  8
0
 10
5.0851826815998598
 20
3.4897256791275968
 30
0.0
 40
0.125
  1
TL-445 Casing)
  0
TEXT
  5
20754
  8
0
 10
5.0851826815998598
 20
3.2813923457942642
 30
0.0
 40
0.125
  1
800.66.TAGUE
  0
ENDBLK
  5
20756
  8
0
  0
BLOCK
  8
0
  2
*U291
 70
     1
 10
0.0
 20
0.0
 30
0.0
  3
*U291
  1

  0
TEXT
  5
20758
  8
0
 10
5.4276068026422868
 20
5.2765876151471502
 30
0.0
 40
0.125
  1
Plinth Block
  0
TEXT
  5
20759
  8
0
 10
5.4276068026422868
 20
5.0682542818138172
 30
0.0
 40
0.125
  1
TL-724
  0
TEXT
  5
2075A
  8
0
 10
5.4276068026422868
 20
4.8599209484804833
 30
0.0
 40
0.125
  1
1-1/4" x 4" x Any Height
  0
TEXT
  5
2075B
  8
0
 10
5.4276068026422868
 20
4.6515876151471502
 30
0.0
 40
0.125
  1
For use w/ TL-310 & TL-311 
  0
TEXT
  5
2075C
  8
0
 10
5.4276068026422868
 20
4.4432542818138172
 30
0.0
 40
0.125
  1
Casing
  0
TEXT
  5
2075D
  8
0
 10
5.4276068026422868
 20
4.2349209484804842
 30
0.0
 40
0.125
  1
800.66.TAGUE
  0
ENDBLK
  5
2075F
  8
0
  0
BLOCK
  8
0
  2
*U292
 70
     1
 10
0.0
 20
0.0
 30
0.0
  3
*U292
  1

  0
TEXT
  5
20761
  8
0
 10
1.9834761602972431
 20
3.9146888730343781
 30
0.0
 40
0.125
  1
Plinth Block
  0
TEXT
  5
20762
  8
0
 10
1.9834761602972431
 20
3.706355539701045
 30
0.0
 40
0.125
  1
TL-2269
  0
TEXT
  5
20763
  8
0
 10
1.9834761602972431
 20
3.498022206367712
 30
0.0
 40
0.125
  1
1-3/8" x 7-3/8" x Any 
  0
TEXT
  5
20764
  8
0
 10
1.9834761602972431
 20
3.2896888730343781
 30
0.0
 40
0.125
  1
Height
  0
TEXT
  5
20765
  8
0
 10
1.9834761602972431
 20
3.081355539701045
 30
0.0
 40
0.125
  1
800.66.TAGUE
  0
ENDBLK
  5
20767
  8
0
  0
BLOCK
  8
0
  2
*U293
 70
     1
 10
0.0
 20
0.0
 30
0.0
  3
*U293
  1

  0
TEXT
  5
20769
  8
0
 10
2.5585888631325702
 20
2.655863615564499
 30
0.0
 40
0.125
  1
Plinth Blocks
  0
TEXT
  5
2076A
  8
0
 10
2.5585888631325702
 20
2.4475302822311651
 30
0.0
 40
0.125
  1
TL-2328
  0
TEXT
  5
2076B
  8
0
 10
2.5585888631325702
 20
2.2391969488978321
 30
0.0
 40
0.125
  1
2-3/32" x 4-1/2" x Any 
  0
TEXT
  5
2076C
  8
0
 10
2.5585888631325702
 20
2.030863615564499
 30
0.0
 40
0.125
  1
Height
  0
TEXT
  5
2076D
  8
0
 10
2.5585888631325702
 20
1.8225302822311651
 30
0.0
 40
0.125
  1
800.66.TAGUE
  0
ENDBLK
  5
2076F
  8
0
  0
BLOCK
  8
0
  2
*U294
 70
     1
 10
0.0
 20
0.0
 30
0.0
  3
*U294
  1

  0
TEXT
  5
20774
  8
0
 10
3.673295288944245
 20
1.146820656308591
 30
0.0
 40
0.125
  1
Porch Rail
  0
TEXT
  5
20775
  8
0
 10
3.673295288944245
 20
0.9384873229752581
 30
0.0
 40
0.125
  1
TL-533
  0
TEXT
  5
20776
  8
0
 10
3.673295288944245
 20
0.7301539896419247
 30
0.0
 40
0.125
  1
1-5/8" x 2-5/8"
  0
TEXT
  5
20777
  8
0
 10
3.673295288944245
 20
0.5218206563085915
 30
0.0
 40
0.125
  1
800.66.TAGUE
  0
ENDBLK
  5
20779
  8
0
  0
BLOCK
  8
0
  2
*U295
 70
     1
 10
0.0
 20
0.0
 30
0.0
  3
*U295
  1

  0
TEXT
  5
2077B
  8
0
 10
3.647211252831652
 20
0.9654272552400016
 30
0.0
 40
0.125
  1
Porch Rail
  0
TEXT
  5
2077C
  8
0
 10
3.647211252831652
 20
0.7570939219066684
 30
0.0
 40
0.125
  1
TL-534
  0
TEXT
  5
2077D
  8
0
 10
3.647211252831652
 20
0.5487605885733349
 30
0.0
 40
0.125
  1
1-5/8" x 2-5/8"
  0
TEXT
  5
2077E
  8
0
 10
3.647211252831652
 20
0.3404272552400016
 30
0.0
 40
0.125
  1
800.66.TAGUE
  0
ENDBLK
  5
20780
  8
0
  0
BLOCK
  8
0
  2
*U296
 70
     1
 10
0.0
 20
0.0
 30
0.0
  3
*U296
  1

  0
TEXT
  5
20782
  8
0
 10
3.5326212019666619
 20
1.841797648224087
 30
0.0
 40
0.125
  1
Porch Rail
  0
TEXT
  5
20783
  8
0
 10
3.5326212019666619
 20
1.6334643148907531
 30
0.0
 40
0.125
  1
TL-535
  0
TEXT
  5
20784
  8
0
 10
3.5326212019666619
 20
1.42513098155742
 30
0.0
 40
0.125
  1
2-13/16" x 3-15/16"
  0
TEXT
  5
20785
  8
0
 10
3.5326212019666619
 20
1.216797648224087
 30
0.0
 40
0.125
  1
800.66.TAGUE
  0
ENDBLK
  5
20787
  8
0
  0
BLOCK
  8
0
  2
*U297
 70
     1
 10
0.0
 20
0.0
 30
0.0
  3
*U297
  1

  0
TEXT
  5
20789
  8
0
 10
3.6833274969948202
 20
1.2803413518801099
 30
0.0
 40
0.125
  1
Porch Rail
  0
TEXT
  5
2078A
  8
0
 10
3.6833274969948202
 20
1.0720080185467771
 30
0.0
 40
0.125
  1
TL-536
  0
TEXT
  5
2078B
  8
0
 10
3.6833274969948202
 20
0.8636746852134439
 30
0.0
 40
0.125
  1
2-13/16" x 2-3/4"
  0
TEXT
  5
2078C
  8
0
 10
3.6833274969948202
 20
0.6553413518801108
 30
0.0
 40
0.125
  1
800.66.TAGUE
  0
ENDBLK
  5
2078E
  8
0
  0
BLOCK
  8
0
  2
*U298
 70
     1
 10
0.0
 20
0.0
 30
0.0
  3
*U298
  1

  0
TEXT
  5
20790
  8
0
 10
3.6069621879840952
 20
2.1489956094399072
 30
0.0
 40
0.125
  1
Porch Rail
  0
TEXT
  5
20791
  8
0
 10
3.6069621879840952
 20
1.9406622761065739
 30
0.0
 40
0.125
  1
TL-2126
  0
TEXT
  5
20792
  8
0
 10
3.6069621879840952
 20
1.73232894277324
 30
0.0
 40
0.125
  1
2-11/16" x 4-1/2"
  0
TEXT
  5
20793
  8
0
 10
3.6069621879840952
 20
1.523995609439907
 30
0.0
 40
0.125
  1
800.66.TAGUE
  0
ENDBLK
  5
20795
  8
0
  0
BLOCK
  8
0
  2
*U299
 70
     1
 10
0.0
 20
0.0
 30
0.0
  3
*U299
  1

  0
TEXT
  5
20797
  8
0
 10
3.8069044970130781
 20
1.021502829450696
 30
0.0
 40
0.125
  1
Porch Rail
  0
TEXT
  5
20798
  8
0
 10
3.8069044970130781
 20
0.813169496117363
 30
0.0
 40
0.125
  1
TL-2129
  0
TEXT
  5
20799
  8
0
 10
3.8069044970130781
 20
0.6048361627840297
 30
0.0
 40
0.125
  1
2-11/16" x 1-7/16"
  0
TEXT
  5
2079A
  8
0
 10
3.8069044970130781
 20
0.3965028294506965
 30
0.0
 40
0.125
  1
800.66.TAGUE
  0
ENDBLK
  5
2079C
  8
0
  0
BLOCK
  8
0
  2
*U300
 70
     1
 10
0.0
 20
0.0
 30
0.0
  3
*U300
  1

  0
TEXT
  5
2079E
  8
0
 10
4.0968280973845594
 20
1.019018154800619
 30
0.0
 40
0.125
  1
Porch Rail
  0
TEXT
  5
2079F
  8
0
 10
4.0968280973845594
 20
0.810684821467286
 30
0.0
 40
0.125
  1
TL-605
  0
TEXT
  5
207A0
  8
0
 10
4.0968280973845594
 20
0.6023514881339527
 30
0.0
 40
0.125
  1
1-3/8" x 3-1/8"
  0
TEXT
  5
207A1
  8
0
 10
4.0968280973845594
 20
0.3940181548006194
 30
0.0
 40
0.125
  1
800.66.TAGUE
  0
ENDBLK
  5
207A3
  8
0
  0
BLOCK
  8
0
  2
*U301
 70
     1
 10
0.0
 20
0.0
 30
0.0
  3
*U301
  1

  0
TEXT
  5
207A5
  8
0
 10
4.6436762802991893
 20
1.567947324961664
 30
0.0
 40
0.125
  1
Porch Rail
  0
TEXT
  5
207A6
  8
0
 10
4.6436762802991893
 20
1.359613991628331
 30
0.0
 40
0.125
  1
TL-2244
  0
TEXT
  5
207A7
  8
0
 10
4.6436762802991893
 20
1.1512806582949979
 30
0.0
 40
0.125
  1
2-3/8" x 3-1/8"
  0
TEXT
  5
207A8
  8
0
 10
4.6436762802991893
 20
0.9429473249616648
 30
0.0
 40
0.125
  1
800.66.TAGUE
  0
ENDBLK
  5
207AA
  8
0
  0
BLOCK
  8
0
  2
*U302
 70
     1
 10
0.0
 20
0.0
 30
0.0
  3
*U302
  1

  0
TEXT
  5
207AC
  8
0
 10
2.2959526571365809
 20
0.8020693383100763
 30
0.0
 40
0.125
  1
Quarter Round
  0
TEXT
  5
207AD
  8
0
 10
2.2959526571365809
 20
0.5937360049767431
 30
0.0
 40
0.125
  1
TL-103
  0
TEXT
  5
207AE
  8
0
 10
2.2959526571365809
 20
0.3854026716434097
 30
0.0
 40
0.125
  1
1-1/16" x 1-1/16"
  0
TEXT
  5
207AF
  8
0
 10
2.2959526571365809
 20
0.1770693383100763
 30
0.0
 40
0.125
  1
800.66.TAGUE
  0
ENDBLK
  5
207B1
  8
0
  0
BLOCK
  8
0
  2
*U303
 70
     1
 10
0.0
 20
0.0
 30
0.0
  3
*U303
  1

  0
TEXT
  5
207B3
  8
0
 10
2.6265492555164651
 20
1.0389249032068899
 30
0.0
 40
0.125
  1
Quarter Round
  0
TEXT
  5
207B4
  8
0
 10
2.6265492555164651
 20
0.8305915698735571
 30
0.0
 40
0.125
  1
TL-104
  0
TEXT
  5
207B5
  8
0
 10
2.6265492555164651
 20
0.6222582365402238
 30
0.0
 40
0.125
  1
1-1/2" x 1-1/2"
  0
TEXT
  5
207B6
  8
0
 10
2.6265492555164651
 20
0.4139249032068904
 30
0.0
 40
0.125
  1
800.66.TAGUE
  0
ENDBLK
  5
207B8
  8
0
  0
BLOCK
  8
0
  2
*U304
 70
     1
 10
0.0
 20
0.0
 30
0.0
  3
*U304
  1

  0
TEXT
  5
207BA
  8
0
 10
1.754862706562903
 20
0.8601960421464411
 30
0.0
 40
0.125
  1
Quarter Round
  0
TEXT
  5
207BB
  8
0
 10
1.754862706562903
 20
0.651862708813108
 30
0.0
 40
0.125
  1
TL-106
  0
TEXT
  5
207BC
  8
0
 10
1.754862706562903
 20
0.4435293754797746
 30
0.0
 40
0.125
  1
11/16" x 11/16"
  0
TEXT
  5
207BD
  8
0
 10
1.754862706562903
 20
0.2351960421464412
 30
0.0
 40
0.125
  1
800.66.TAGUE
  0
ENDBLK
  5
207BF
  8
0
  0
BLOCK
  8
0
  2
*U305
 70
     1
 10
0.0
 20
0.0
 30
0.0
  3
*U305
  1

  0
TEXT
  5
207C1
  8
0
 10
1.838217438367564
 20
0.7107824417724089
 30
0.0
 40
0.125
  1
Quarter Round
  0
TEXT
  5
207C2
  8
0
 10
1.838217438367564
 20
0.5024491084390758
 30
0.0
 40
0.125
  1
TL-107
  0
TEXT
  5
207C3
  8
0
 10
1.838217438367564
 20
0.2941157751057423
 30
0.0
 40
0.125
  1
7/8" x 7/8"
  0
TEXT
  5
207C4
  8
0
 10
1.838217438367564
 20
0.0857824417724089
 30
0.0
 40
0.125
  1
800.66.TAGUE
  0
ENDBLK
  5
207C6
  8
0
  0
BLOCK
  8
0
  2
*U306
 70
     1
 10
0.0
 20
0.0
 30
0.0
  3
*U306
  1

  0
TEXT
  5
207C8
  8
0
 10
1.352485397822192
 20
0.6795157652888122
 30
0.0
 40
0.125
  1
Quarter Round
  0
TEXT
  5
207C9
  8
0
 10
1.352485397822192
 20
0.4711824319554789
 30
0.0
 40
0.125
  1
TL-108
  0
TEXT
  5
207CA
  8
0
 10
1.352485397822192
 20
0.2628490986221456
 30
0.0
 40
0.125
  1
1/2" x 1/2"
  0
TEXT
  5
207CB
  8
0
 10
1.352485397822192
 20
0.0545157652888122
 30
0.0
 40
0.125
  1
800.66.TAGUE
  0
ENDBLK
  5
207CD
  8
0
  0
BLOCK
  8
0
  2
*U307
 70
     1
 10
0.0
 20
0.0
 30
0.0
  3
*U307
  1

  0
TEXT
  5
207CF
  8
0
 10
1.5395795649736781
 20
0.6795162946313269
 30
0.0
 40
0.125
  1
Quarter Round
  0
TEXT
  5
207D0
  8
0
 10
1.5395795649736781
 20
0.4711829612979936
 30
0.0
 40
0.125
  1
TL-109
  0
TEXT
  5
207D1
  8
0
 10
1.5395795649736781
 20
0.2628496279646603
 30
0.0
 40
0.125
  1
3/8" x 3/8"
  0
TEXT
  5
207D2
  8
0
 10
1.5395795649736781
 20
0.0545162946313269
 30
0.0
 40
0.125
  1
800.66.TAGUE
  0
ENDBLK
  5
207D4
  8
0
  0
BLOCK
  8
0
  2
*U308
 70
     1
 10
0.0
 20
0.0
 30
0.0
  3
*U308
  1

  0
TEXT
  5
207D6
  8
0
 10
1.127533430492007
 20
0.716014195759982
 30
0.0
 40
0.125
  1
Quarter Round
  0
TEXT
  5
207D7
  8
0
 10
1.127533430492007
 20
0.5076808624266488
 30
0.0
 40
0.125
  1
TL-110
  0
TEXT
  5
207D8
  8
0
 10
1.127533430492007
 20
0.2993475290933153
 30
0.0
 40
0.125
  1
1/4" x 1/4"
  0
TEXT
  5
207D9
  8
0
 10
1.127533430492007
 20
0.091014195759982
 30
0.0
 40
0.125
  1
800.66.TAGUE
  0
ENDBLK
  5
207DB
  8
0
  0
BLOCK
  8
0
  2
*U309
 70
     1
 10
0.0
 20
0.0
 30
0.0
  3
*U309
  1

  0
TEXT
  5
207DD
  8
0
 10
1.8956187639500961
 20
1.9750706814052701
 30
0.0
 40
0.125
  1
Reeding
  0
TEXT
  5
207DE
  8
0
 10
1.8956187639500961
 20
1.7667373480719371
 30
0.0
 40
0.125
  1
TL-750
  0
TEXT
  5
207DF
  8
0
 10
1.8956187639500961
 20
1.558404014738604
 30
0.0
 40
0.125
  1
3/4" x 3-1/4"
  0
TEXT
  5
207E0
  8
0
 10
1.8956187639500961
 20
1.3500706814052701
 30
0.0
 40
0.125
  1
800.66.TAGUE
  0
ENDBLK
  5
207E2
  8
0
  0
BLOCK
  8
0
  2
*U310
 70
     1
 10
0.0
 20
0.0
 30
0.0
  3
*U310
  1

  0
TEXT
  5
207E4
  8
0
 10
1.373304977175166
 20
7.0938793499937836
 30
0.0
 40
0.125
  1
Rosette
  0
TEXT
  5
207E5
  8
0
 10
1.373304977175166
 20
6.8855460166604514
 30
0.0
 40
0.125
  1
TL-733
  0
TEXT
  5
207E6
  8
0
 10
1.373304977175166
 20
6.6772126833271166
 30
0.0
 40
0.125
  1
1" x 3-3/4" x 3-3/4"
  0
TEXT
  5
207E7
  8
0
 10
1.373304977175166
 20
6.4688793499937836
 30
0.0
 40
0.125
  1
(Bullseye is 2-9/16")
  0
TEXT
  5
207E8
  8
0
 10
1.373304977175166
 20
6.2605460166604514
 30
0.0
 40
0.125
  1
800.66.TAGUE
  0
ENDBLK
  5
207EA
  8
0
  0
BLOCK
  8
0
  2
*U311
 70
     1
 10
0.0
 20
0.0
 30
0.0
  3
*U311
  1

  0
TEXT
  5
207EC
  8
0
 10
1.373304977175166
 20
7.0938793499937836
 30
0.0
 40
0.125
  1
Rosette
  0
TEXT
  5
207ED
  8
0
 10
1.373304977175166
 20
6.8855460166604514
 30
0.0
 40
0.125
  1
TL-733
  0
TEXT
  5
207EE
  8
0
 10
1.373304977175166
 20
6.6772126833271166
 30
0.0
 40
0.125
  1
1" x 3-3/4" x 3-3/4"
  0
TEXT
  5
207EF
  8
0
 10
1.373304977175166
 20
6.4688793499937836
 30
0.0
 40
0.125
  1
(Bullseye is 2-9/16")
  0
TEXT
  5
207F0
  8
0
 10
1.373304977175166
 20
6.2605460166604514
 30
0.0
 40
0.125
  1
800.66.TAGUE
  0
ENDBLK
  5
207F2
  8
0
  0
BLOCK
  8
0
  2
*U312
 70
     1
 10
0.0
 20
0.0
 30
0.0
  3
*U312
  1

  0
TEXT
  5
207F4
  8
0
 10
1.2806627711731831
 20
7.3249591226432074
 30
0.0
 40
0.125
  1
Rosette
  0
TEXT
  5
207F5
  8
0
 10
1.2806627711731831
 20
7.1166257893098743
 30
0.0
 40
0.125
  1
TL-736
  0
TEXT
  5
207F6
  8
0
 10
1.2806627711731831
 20
6.9082924559765404
 30
0.0
 40
0.125
  1
1" x 3-3/4" x 3-3/4"
  0
TEXT
  5
207F7
  8
0
 10
1.2806627711731831
 20
6.6999591226432074
 30
0.0
 40
0.125
  1
(Bullseye is 3-5/16")
  0
TEXT
  5
207F8
  8
0
 10
1.2806627711731831
 20
6.4916257893098743
 30
0.0
 40
0.125
  1
800.66.TAGUE
  0
ENDBLK
  5
207FA
  8
0
  0
BLOCK
  8
0
  2
*U313
 70
     1
 10
0.0
 20
0.0
 30
0.0
  3
*U313
  1

  0
TEXT
  5
207FC
  8
0
 10
1.468200758244393
 20
0.6794297505788336
 30
0.0
 40
0.125
  1
Scotia
  0
TEXT
  5
207FD
  8
0
 10
1.468200758244393
 20
0.4710964172455003
 30
0.0
 40
0.125
  1
TL-43
  0
TEXT
  5
207FE
  8
0
 10
1.468200758244393
 20
0.262763083912167
 30
0.0
 40
0.125
  1
5/8" x 1/2"
  0
TEXT
  5
207FF
  8
0
 10
1.468200758244393
 20
0.0544297505788336
 30
0.0
 40
0.125
  1
800.66.TAGUE
  0
ENDBLK
  5
20801
  8
0
  0
BLOCK
  8
0
  2
*U314
 70
     1
 10
0.0
 20
0.0
 30
0.0
  3
*U314
  1

  0
TEXT
  5
20803
  8
0
 10
1.6796567097686641
 20
0.6794312077095697
 30
0.0
 40
0.125
  1
Screen Moulding
  0
TEXT
  5
20804
  8
0
 10
1.6796567097686641
 20
0.4710978743762364
 30
0.0
 40
0.125
  1
TL-138
  0
TEXT
  5
20805
  8
0
 10
1.6796567097686641
 20
0.262764541042903
 30
0.0
 40
0.125
  1
5/16" x 5/8"
  0
TEXT
  5
20806
  8
0
 10
1.6796567097686641
 20
0.0544312077095697
 30
0.0
 40
0.125
  1
800.66.TAGUE
  0
ENDBLK
  5
20808
  8
0
  0
BLOCK
  8
0
  2
*U315
 70
     1
 10
0.0
 20
0.0
 30
0.0
  3
*U315
  1

  0
TEXT
  5
2080A
  8
0
 10
1.85571357960157
 20
0.6794307426418415
 30
0.0
 40
0.125
  1
Screen Moulding
  0
TEXT
  5
2080B
  8
0
 10
1.85571357960157
 20
0.4710974093085081
 30
0.0
 40
0.125
  1
TL-142
  0
TEXT
  5
2080C
  8
0
 10
1.85571357960157
 20
0.2627640759751747
 30
0.0
 40
0.125
  1
1/4" x 3/4"
  0
TEXT
  5
2080D
  8
0
 10
1.85571357960157
 20
0.0544307426418413
 30
0.0
 40
0.125
  1
800.66.TAGUE
  0
ENDBLK
  5
2080F
  8
0
  0
BLOCK
  8
0
  2
*U316
 70
     1
 10
0.0
 20
0.0
 30
0.0
  3
*U316
  1

  0
TEXT
  5
20811
  8
0
 10
1.9554039385765229
 20
0.6794310226893572
 30
0.0
 40
0.125
  1
Screen Moulding
  0
TEXT
  5
20812
  8
0
 10
1.9554039385765229
 20
0.4710976893560239
 30
0.0
 40
0.125
  1
TL-144
  0
TEXT
  5
20813
  8
0
 10
1.9554039385765229
 20
0.2627643560226906
 30
0.0
 40
0.125
  1
1/4" x 3/4"
  0
TEXT
  5
20814
  8
0
 10
1.9554039385765229
 20
0.0544310226893572
 30
0.0
 40
0.125
  1
800.66.TAGUE
  0
ENDBLK
  5
20816
  8
0
  0
BLOCK
  8
0
  2
*U317
 70
     1
 10
0.0
 20
0.0
 30
0.0
  3
*U317
  1

  0
TEXT
  5
20818
  8
0
 10
1.803800422793074
 20
0.6794303959038075
 30
0.0
 40
0.125
  1
Screen Moulding
  0
TEXT
  5
20819
  8
0
 10
1.803800422793074
 20
0.4710970625704742
 30
0.0
 40
0.125
  1
TL-525
  0
TEXT
  5
2081A
  8
0
 10
1.803800422793074
 20
0.2627637292371409
 30
0.0
 40
0.125
  1
1/4" x 3/4"
  0
TEXT
  5
2081B
  8
0
 10
1.803800422793074
 20
0.0544303959038075
 30
0.0
 40
0.125
  1
800.66.TAGUE
  0
ENDBLK
  5
2081D
  8
0
  0
BLOCK
  8
0
  2
*U318
 70
     1
 10
0.0
 20
0.0
 30
0.0
  3
*U318
  1

  0
TEXT
  5
2081F
  8
0
 10
1.3492638038874241
 20
0.7907760561204498
 30
0.0
 40
0.125
  1
Shoe Moulding
  0
TEXT
  5
20820
  8
0
 10
1.3492638038874241
 20
0.5824427227871164
 30
0.0
 40
0.125
  1
TL-126
  0
TEXT
  5
20821
  8
0
 10
1.3492638038874241
 20
0.3741093894537832
 30
0.0
 40
0.125
  1
1/2" x 3/4"
  0
TEXT
  5
20822
  8
0
 10
1.3492638038874241
 20
0.1657760561204498
 30
0.0
 40
0.125
  1
800.66.TAGUE
  0
ENDBLK
  5
20824
  8
0
  0
BLOCK
  8
0
  2
*U319
 70
     1
 10
0.0
 20
0.0
 30
0.0
  3
*U319
  1

  0
TEXT
  5
20826
  8
0
 10
-385.48616231798411
 20
841.53989008342808
 30
0.0
 40
0.125
  1
Shoe Moulding
  0
TEXT
  5
20827
  8
0
 10
-385.48616231798411
 20
841.33155675009482
 30
0.0
 40
0.125
  1
TL-126
  0
TEXT
  5
20828
  8
0
 10
-385.48616231798411
 20
841.12322341676145
 30
0.0
 40
0.125
  1
1/2" x 3/4"
  0
TEXT
  5
20829
  8
0
 10
-385.48616231798411
 20
840.91489008342808
 30
0.0
 40
0.125
  1
800.66.TAGUE
  0
ENDBLK
  5
2082B
  8
0
  0
ENDSEC
  0
SECTION
  2
ENTITIES
  0
INSERT
  5
203CE
  8
0
  2
*U319
 10
0.0
 20
0.0
 30
0.0
  0
LINE
  5
203CF
  8
0
 10
-386.33542689377822
 20
840.9991134964888
 30
0.0
 11
-386.3354268967995
 21
840.74911349951014
 31
0.0
  0
LINE
  5
203D0
  8
0
 10
-386.83542689075699
 20
840.74911349951014
 30
0.0
 11
-386.83542689377822
 21
841.49911349648892
 31
0.0
  0
LINE
  5
203D1
  8
0
 10
-386.83542689075699
 20
840.74911349951014
 30
0.0
 11
-386.3354268967995
 21
840.74911349951014
 31
0.0
  0
ARC
  5
203D2
  8
0
  6
CONTINUOUS
 62
     7
 10
-386.83542689377822
 20
840.9991134964888
 30
0.0
 40
0.4999999999999992
 50
0.0
 51
90.0
  0
VIEWPORT
  5
BADA
 67
     1
  8
0
 10
5.2498666443542197
 20
4.0168606514874199
 30
0.0
 40
16.259611459837419
 41
8.0159429045697088
 68
     2
 69
     1
1001
ACAD
1000
MVIEW
1002
{
1070
    16
1010
0.0
1020
0.0
1030
0.0
1010
0.0
1020
0.0
1030
1.0
1040
0.0
1040
8.0159429045697088
1040
5.2498666443542197
1040
4.0168606514874199
1040
50.0
1040
0.0
1040
0.0
1070
     0
1070
   100
1070
     1
1070
     1
1070
     0
1070
     0
1070
     0
1070
     0
1040
0.0
1040
0.0
1040
0.0
1040
0.5
1040
0.5
1040
0.5
1040
0.5
1070
     0
1002
{
1002
}
1002
}
  0
VIEWPORT
  5
BADD
 67
     1
  8
0
 10
5.249999629487192
 20
4.0166741807634683
 30
0.0
 40
10.44245679893058
 41
7.8813805131999892
 68
     1
 69
     2
1001
ACAD
1000
MVIEW
1002
{
1070
    16
1010
0.0
1020
0.0
1030
0.0
1010
0.0
1020
0.0
1030
1.0
1040
0.0
1040
7.8813805131999892
1040
-385.35664407640701
1040
841.0898081338986
1040
50.0
1040
0.0
1040
0.0
1070
     0
1070
   100
1070
     1
1070
     2
1070
     0
1070
     0
1070
     0
1070
     0
1040
0.0
1040
0.0
1040
0.0
1040
0.5
1040
0.5
1040
0.5
1040
0.5
1070
     0
1002
{
1002
}
1002
}
  0
ENDSEC
  0
EOF
