  0
SECTION
  2
HEADER
  9
$ACADVER
  1
AC1009
  9
$INSBASE
 10
0.0
 20
0.0
 30
0.0
  9
$EXTMIN
 10
-389.93991239393989
 20
835.97402333860146
 30
0.0
  9
$EXTMAX
 10
-382.63839773167001
 20
840.55090068666777
 30
0.0
  9
$LIMMIN
 10
0.0
 20
0.0
  9
$LIMMAX
 10
1500.0
 20
1500.0
  9
$ORTHOMODE
 70
     0
  9
$REGENMODE
 70
     1
  9
$FILLMODE
 70
     1
  9
$QTEXTMODE
 70
     0
  9
$MIRRTEXT
 70
     1
  9
$DRAGMODE
 70
     2
  9
$LTSCALE
 40
1.0
  9
$OSMODE
 70
    37
  9
$ATTMODE
 70
     1
  9
$TEXTSIZE
 40
1.5
  9
$TRACEWID
 40
0.05
  9
$TEXTSTYLE
  7
STANDARD
  9
$CLAYER
  8
0
  9
$CELTYPE
  6
BYLAYER
  9
$CECOLOR
 62
   256
  9
$DIMSCALE
 40
1.0
  9
$DIMASZ
 40
0.75
  9
$DIMEXO
 40
1.5
  9
$DIMDLI
 40
2.0
  9
$DIMRND
 40
0.0
  9
$DIMDLE
 40
0.0
  9
$DIMEXE
 40
1.0
  9
$DIMTP
 40
0.0
  9
$DIMTM
 40
0.0
  9
$DIMTXT
 40
1.5
  9
$DIMCEN
 40
2.0
  9
$DIMTSZ
 40
0.0
  9
$DIMTOL
 70
     0
  9
$DIMLIM
 70
     0
  9
$DIMTIH
 70
     0
  9
$DIMTOH
 70
     0
  9
$DIMSE1
 70
     0
  9
$DIMSE2
 70
     0
  9
$DIMTAD
 70
     1
  9
$DIMZIN
 70
     0
  9
$DIMBLK
  1
ARCHTICK
  9
$DIMASO
 70
     1
  9
$DIMSHO
 70
     1
  9
$DIMPOST
  1
"
  9
$DIMAPOST
  1

  9
$DIMALT
 70
     0
  9
$DIMALTD
 70
     2
  9
$DIMALTF
 40
25.399999999999999
  9
$DIMLFAC
 40
1.0
  9
$DIMTOFL
 70
     0
  9
$DIMTVP
 40
0.0
  9
$DIMTIX
 70
     1
  9
$DIMSOXD
 70
     0
  9
$DIMSAH
 70
     0
  9
$DIMBLK1
  1

  9
$DIMBLK2
  1

  9
$DIMSTYLE
  2
THREE_QUARTER_INCH_SCALE
  9
$DIMCLRD
 70
     0
  9
$DIMCLRE
 70
     0
  9
$DIMCLRT
 70
     0
  9
$DIMTFAC
 40
1.0
  9
$DIMGAP
 40
1.0
  9
$LUNITS
 70
     2
  9
$LUPREC
 70
     4
  9
$SKETCHINC
 40
0.1
  9
$FILLETRAD
 40
0.0
  9
$AUNITS
 70
     0
  9
$AUPREC
 70
     0
  9
$MENU
  1
.
  9
$ELEVATION
 40
0.0
  9
$PELEVATION
 40
0.0
  9
$THICKNESS
 40
0.0
  9
$LIMCHECK
 70
     0
  9
$BLIPMODE
 70
     0
  9
$CHAMFERA
 40
0.5
  9
$CHAMFERB
 40
0.5
  9
$SKPOLY
 70
     0
  9
$TDCREATE
 40
2452089.395738773
  9
$TDUPDATE
 40
2453613.3219873039
  9
$TDINDWG
 40
0.9958719213
  9
$TDUSRTIMER
 40
0.9958717477
  9
$USRTIMER
 70
     1
  9
$ANGBASE
 50
0.0
  9
$ANGDIR
 70
     0
  9
$PDMODE
 70
     0
  9
$PDSIZE
 40
10.0
  9
$PLINEWID
 40
0.0
  9
$COORDS
 70
     1
  9
$SPLFRAME
 70
     0
  9
$SPLINETYPE
 70
     6
  9
$SPLINESEGS
 70
     8
  9
$ATTDIA
 70
     0
  9
$ATTREQ
 70
     1
  9
$HANDLING
 70
     1
  9
$HANDSEED
  5
D6CC
  9
$SURFTAB1
 70
     6
  9
$SURFTAB2
 70
     6
  9
$SURFTYPE
 70
     6
  9
$SURFU
 70
     6
  9
$SURFV
 70
     6
  9
$UCSNAME
  2

  9
$UCSORG
 10
0.0
 20
0.0
 30
0.0
  9
$UCSXDIR
 10
1.0
 20
0.0
 30
0.0
  9
$UCSYDIR
 10
0.0
 20
1.0
 30
0.0
  9
$PUCSNAME
  2

  9
$PUCSORG
 10
0.0
 20
0.0
 30
0.0
  9
$PUCSXDIR
 10
1.0
 20
0.0
 30
0.0
  9
$PUCSYDIR
 10
0.0
 20
1.0
 30
0.0
  9
$USERI1
 70
     0
  9
$USERI2
 70
     0
  9
$USERI3
 70
     0
  9
$USERI4
 70
     0
  9
$USERI5
 70
     0
  9
$USERR1
 40
0.0
  9
$USERR2
 40
0.0
  9
$USERR3
 40
0.0
  9
$USERR4
 40
0.0
  9
$USERR5
 40
0.0
  9
$WORLDVIEW
 70
     1
  9
$SHADEDGE
 70
     3
  9
$SHADEDIF
 70
    70
  9
$TILEMODE
 70
     0
  9
$MAXACTVP
 70
    64
  9
$PLIMCHECK
 70
     0
  9
$PEXTMIN
 10
0.0282895744820628
 20
0.0759353784799721
 30
-0.0015258207003583
  9
$PEXTMAX
 10
10.47170975585299
 20
7.9577863512286546
 30
0.0000000349246037
  9
$PLIMMIN
 10
-0.1682389550263349
 20
-0.2033427855578579
  9
$PLIMMAX
 10
10.754640548407011
 20
8.2370640492290015
  9
$UNITMODE
 70
     0
  9
$VISRETAIN
 70
     1
  9
$PLINEGEN
 70
     0
  9
$PSLTSCALE
 70
     1
  0
ENDSEC
  0
SECTION
  2
TABLES
  0
TABLE
  2
VPORT
 70
     1
  0
VPORT
  2
*ACTIVE
 70
     0
 10
0.0
 20
0.0
 11
1.0
 21
1.0
 12
-386.52380251144001
 22
838.09204166179234
 13
0.0
 23
0.0
 14
0.5
 24
0.5
 15
0.5
 25
0.5
 16
0.0
 26
0.0
 36
1.0
 17
0.0
 27
0.0
 37
0.0
 40
3.930952126162941
 41
2.0226628895184122
 42
50.0
 43
0.0
 44
0.0
 50
0.0
 51
0.0
 71
     0
 72
   100
 73
     1
 74
     2
 75
     0
 76
     0
 77
     0
 78
     0
  0
ENDTAB
  0
TABLE
  2
LTYPE
 70
     1
  0
LTYPE
  2
CONTINUOUS
 70
     0
  3
Solid line
 72
    65
 73
     0
 40
0.0
  0
ENDTAB
  0
TABLE
  2
LAYER
 70
    11
  0
LAYER
  2
0
 70
     0
 62
     7
  6
CONTINUOUS
  0
LAYER
  2
DEFPOINTS
 70
     0
 62
     7
  6
CONTINUOUS
  0
LAYER
  2
FRAME_200
 70
     0
 62
     8
  6
CONTINUOUS
  0
LAYER
  2
FRAME_070
 70
     0
 62
     5
  6
CONTINUOUS
  0
LAYER
  2
FRAME_050
 70
     0
 62
     6
  6
CONTINUOUS
  0
LAYER
  2
TITLE_BLOCK
 70
     0
 62
     7
  6
CONTINUOUS
  0
LAYER
  2
FRAME_025
 70
     0
 62
     7
  6
CONTINUOUS
  0
LAYER
  2
VIEWPORT
 70
     0
 62
     7
  6
CONTINUOUS
  0
LAYER
  2
PROF
 70
     0
 62
     7
  6
CONTINUOUS
  0
LAYER
  2
PROFILE
 70
     0
 62
     7
  6
CONTINUOUS
  0
LAYER
  2
FRAME_0500
 70
     0
 62
     6
  6
CONTINUOUS
  0
ENDTAB
  0
TABLE
  2
STYLE
 70
     2
  0
STYLE
  2
STANDARD
 70
     0
 40
0.0
 41
1.0
 50
0.0
 71
     0
 42
1.5
  3
txt
  4

  0
STYLE
  2
ISO_PROPORTIONAL
 70
     0
 40
0.0
 41
1.0
 50
0.0
 71
     0
 42
2.5
  3
isocp.shx
  4

  0
ENDTAB
  0
TABLE
  2
VIEW
 70
     0
  0
ENDTAB
  0
TABLE
  2
UCS
 70
     0
  0
ENDTAB
  0
TABLE
  2
APPID
 70
     6
  0
APPID
  2
ACAD
 70
     0
  0
APPID
  2
DCO15
 70
     0
  0
APPID
  2
ACAD_EXEMPT_FROM_CAD_STANDARDS
 70
     0
  0
APPID
  2
ACAD_PSEXT
 70
     0
  0
APPID
  2
CONTENTBLOCKDESCRIPTION
 70
     0
  0
APPID
  2
CONTENTBLOCKICON
 70
     0
  0
ENDTAB
  0
TABLE
  2
DIMSTYLE
 70
    10
  0
DIMSTYLE
  2
FULL_SCALE
 70
     0
  3
"
  4

  5

  6

  7

 40
1.0
 41
0.046875
 42
0.09375
 43
0.125
 44
0.0625
 45
0.0
 46
0.0
 47
0.0
 48
0.0
140
0.125
141
0.125
142
0.0
143
25.399999999999999
144
1.0
145
0.0
146
1.0
147
0.0625
 71
     0
 72
     0
 73
     0
 74
     0
 75
     0
 76
     0
 77
     1
 78
     0
170
     0
171
     2
172
     0
173
     0
174
     1
175
     0
176
     0
177
     0
178
     0
  0
DIMSTYLE
  2
HALF_SCALE
 70
     0
  3
"
  4

  5

  6

  7

 40
1.0
 41
0.09375
 42
0.1875
 43
0.25
 44
0.125
 45
0.0
 46
0.0
 47
0.0
 48
0.0
140
0.25
141
0.25
142
0.0
143
25.399999999999999
144
1.0
145
0.0
146
1.0
147
0.125
 71
     0
 72
     0
 73
     0
 74
     0
 75
     0
 76
     0
 77
     1
 78
     0
170
     0
171
     2
172
     0
173
     0
174
     1
175
     0
176
     0
177
     0
178
     0
  0
DIMSTYLE
  2
INCH_SCALE
 70
     0
  3
"
  4

  5

  6

  7

 40
1.0
 41
0.5625
 42
1.125
 43
1.5
 44
0.75
 45
0.0
 46
0.0
 47
0.0
 48
0.0
140
1.125
141
1.5
142
0.0
143
25.399999999999999
144
1.0
145
0.0
146
1.0
147
0.75
 71
     0
 72
     0
 73
     0
 74
     0
 75
     0
 76
     0
 77
     1
 78
     0
170
     0
171
     2
172
     0
173
     0
174
     1
175
     0
176
     0
177
     0
178
     0
  0
DIMSTYLE
  2
THREE_QUARTER_INCH_SCALE
 70
     0
  3
"
  4

  5

  6

  7

 40
1.0
 41
0.75
 42
1.5
 43
2.0
 44
1.0
 45
0.0
 46
0.0
 47
0.0
 48
0.0
140
1.5
141
2.0
142
0.0
143
25.399999999999999
144
1.0
145
0.0
146
1.0
147
1.0
 71
     0
 72
     0
 73
     0
 74
     0
 75
     0
 76
     0
 77
     1
 78
     0
170
     0
171
     2
172
     0
173
     0
174
     1
175
     0
176
     0
177
     0
178
     0
  0
DIMSTYLE
  2
ZHALF_INCH_SCALE
 70
     0
  3
"
  4

  5

  6

  7

 40
1.0
 41
1.125
 42
2.25
 43
3.0
 44
1.5
 45
0.0
 46
0.0
 47
0.0
 48
0.0
140
2.25
141
3.0
142
0.0
143
25.399999999999999
144
1.0
145
0.0
146
1.0
147
1.5
 71
     0
 72
     0
 73
     0
 74
     0
 75
     0
 76
     0
 77
     1
 78
     0
170
     0
171
     2
172
     0
173
     0
174
     1
175
     0
176
     0
177
     0
178
     0
  0
DIMSTYLE
  2
FULL_SCALE0
 70
     0
  3
"
  4

  5
ARCHTICK
  6

  7

 40
1.0
 41
0.046875
 42
0.09375
 43
0.125
 44
0.0625
 45
0.0
 46
0.0
 47
0.0
 48
0.0
140
0.125
141
0.125
142
0.0
143
25.399999999999999
144
1.0
145
0.0
146
1.0
147
0.0625
 71
     0
 72
     0
 73
     0
 74
     0
 75
     0
 76
     0
 77
     1
 78
     0
170
     0
171
     2
172
     0
173
     0
174
     1
175
     0
176
     0
177
     0
178
     0
  0
DIMSTYLE
  2
HALF_SCALE0
 70
     0
  3
"
  4

  5
ARCHTICK
  6

  7

 40
1.0
 41
0.09375
 42
0.1875
 43
0.25
 44
0.125
 45
0.0
 46
0.0
 47
0.0
 48
0.0
140
0.25
141
0.25
142
0.0
143
25.399999999999999
144
1.0
145
0.0
146
1.0
147
0.125
 71
     0
 72
     0
 73
     0
 74
     0
 75
     0
 76
     0
 77
     1
 78
     0
170
     0
171
     2
172
     0
173
     0
174
     1
175
     0
176
     0
177
     0
178
     0
  0
DIMSTYLE
  2
INCH_SCALE0
 70
     0
  3
"
  4

  5
ARCHTICK
  6

  7

 40
1.0
 41
0.5625
 42
1.125
 43
1.5
 44
0.75
 45
0.0
 46
0.0
 47
0.0
 48
0.0
140
1.125
141
1.5
142
0.0
143
25.399999999999999
144
1.0
145
0.0
146
1.0
147
0.75
 71
     0
 72
     0
 73
     0
 74
     0
 75
     0
 76
     0
 77
     1
 78
     0
170
     0
171
     2
172
     0
173
     0
174
     1
175
     0
176
     0
177
     0
178
     0
  0
DIMSTYLE
  2
THREE_QUARTER_INCH_SCALE0
 70
     0
  3
"
  4

  5
ARCHTICK
  6

  7

 40
1.0
 41
0.75
 42
1.5
 43
2.0
 44
1.0
 45
0.0
 46
0.0
 47
0.0
 48
0.0
140
1.5
141
2.0
142
0.0
143
25.399999999999999
144
1.0
145
0.0
146
1.0
147
1.0
 71
     0
 72
     0
 73
     0
 74
     0
 75
     0
 76
     0
 77
     1
 78
     0
170
     0
171
     2
172
     0
173
     0
174
     1
175
     0
176
     0
177
     0
178
     0
  0
DIMSTYLE
  2
ZHALF_INCH_SCALE0
 70
     0
  3
"
  4

  5
ARCHTICK
  6

  7

 40
1.0
 41
1.125
 42
2.25
 43
3.0
 44
1.5
 45
0.0
 46
0.0
 47
0.0
 48
0.0
140
2.25
141
3.0
142
0.0
143
25.399999999999999
144
1.0
145
0.0
146
1.0
147
1.5
 71
     0
 72
     0
 73
     0
 74
     0
 75
     0
 76
     0
 77
     1
 78
     0
170
     0
171
     2
172
     0
173
     0
174
     1
175
     0
176
     0
177
     0
178
     0
  0
ENDTAB
  0
ENDSEC
  0
SECTION
  2
BLOCKS
  0
BLOCK
  8
0
  2
$MODEL_SPACE
 70
     0
 10
0.0
 20
0.0
 30
0.0
  3
$MODEL_SPACE
  1

  0
ENDBLK
  5
C9DC
  8
0
  0
BLOCK
 67
     1
  8
0
  2
$PAPER_SPACE
 70
     0
 10
0.0
 20
0.0
 30
0.0
  3
$PAPER_SPACE
  1

  0
ENDBLK
  5
C9D8
 67
     1
  8
0
  0
BLOCK
  8
0
  2
_ARCHTICK
 70
     0
 10
0.0
 20
0.0
 30
0.0
  3
_ARCHTICK
  1

  0
POLYLINE
  5
158
  8
0
  6
BYBLOCK
 62
     0
 66
     1
 10
0.0
 20
0.0
 30
0.0
 40
0.15
 41
0.15
  0
VERTEX
  5
D3B8
  8
0
  6
BYBLOCK
 62
     0
 10
-0.5
 20
-0.5
 30
0.0
  0
VERTEX
  5
D3B9
  8
0
  6
BYBLOCK
 62
     0
 10
0.5
 20
0.5
 30
0.0
  0
SEQEND
  5
D3BA
  8
0
  6
BYBLOCK
 62
     0
  0
ENDBLK
  5
15A
  8
0
  0
BLOCK
  8
0
  2
_OPEN30
 70
     0
 10
0.0
 20
0.0
 30
0.0
  3
_OPEN30
  1

  0
LINE
  5
15C
  8
0
  6
BYBLOCK
 62
     0
 10
-1.0
 20
0.26794919
 30
0.0
 11
0.0
 21
0.0
 31
0.0
  0
LINE
  5
15D
  8
0
  6
BYBLOCK
 62
     0
 10
0.0
 20
0.0
 30
0.0
 11
-1.0
 21
-0.26794919
 31
0.0
  0
LINE
  5
15E
  8
0
  6
BYBLOCK
 62
     0
 10
0.0
 20
0.0
 30
0.0
 11
-1.0
 21
0.0
 31
0.0
  0
ENDBLK
  5
160
  8
0
  0
BLOCK
  8
0
  2
ISO_A2_TITLE_BLOCK
 70
     2
 10
0.0
 20
0.0
 30
0.0
  3
ISO_A2_TITLE_BLOCK
  1

  0
LINE
  5
BDD
  8
FRAME_050
 10
299.5
 20
12.5
 30
0.0
 11
297.0
 21
7.5
 31
0.0
  0
LINE
  5
BDE
  8
FRAME_050
 10
294.5
 20
12.5
 30
0.0
 11
299.5
 21
12.5
 31
0.0
  0
LINE
  5
BDF
  8
FRAME_050
 10
247.0
 20
5.0
 30
0.0
 11
347.0
 21
5.0
 31
0.0
  0
LINE
  5
BE0
  8
FRAME_070
 10
584.0
 20
410.0
 30
0.0
 11
10.0
 21
410.0
 31
0.0
  0
LINE
  5
BE1
  8
FRAME_070
 10
10.0
 20
10.0
 30
0.0
 11
584.0
 21
10.0
 31
0.0
  0
LINE
  5
BE2
  8
FRAME_050
 10
12.5
 20
207.5
 30
0.0
 11
7.5
 21
210.0
 31
0.0
  0
LINE
  5
BE3
  8
FRAME_050
 10
12.5
 20
212.5
 30
0.0
 11
12.5
 21
207.5
 31
0.0
  0
LINE
  5
BE4
  8
FRAME_070
 10
10.0
 20
410.0
 30
0.0
 11
10.0
 21
10.0
 31
0.0
  0
LINE
  5
BE5
  8
FRAME_200
 10
0.0
 20
0.0
 30
0.0
 11
0.0
 21
10.0
 31
0.0
  0
LINE
  5
BE6
  8
FRAME_200
 10
0.0
 20
0.0
 30
0.0
 11
10.0
 21
0.0
 31
0.0
  0
TEXT
  5
BE7
  8
FRAME_050
 10
5.9000000000000004
 20
35.0
 30
0.0
 40
4.0
  1
H
  7
ISO_PROPORTIONAL
 72
     4
 11
7.5
 21
37.0
 31
0.0
  0
LINE
  5
BE8
  8
FRAME_050
 10
10.0
 20
60.0
 30
0.0
 11
5.0
 21
60.0
 31
0.0
  0
LINE
  5
BE9
  8
FRAME_050
 10
81.75
 20
5.0
 30
0.0
 11
81.75
 21
10.0
 31
0.0
  0
TEXT
  5
BEA
  8
FRAME_050
 10
44.874999999999993
 20
5.5
 30
0.0
 40
4.0
  1
1
  7
ISO_PROPORTIONAL
 72
     4
 11
45.875
 21
7.5
 31
0.0
  0
TEXT
  5
BEB
  8
FRAME_050
 10
6.0035533905932743
 20
85.0
 30
0.0
 40
4.0
  1
G
  7
ISO_PROPORTIONAL
 72
     4
 11
7.5
 21
87.0
 31
0.0
  0
LINE
  5
BEC
  8
FRAME_050
 10
10.0
 20
110.0
 30
0.0
 11
5.0
 21
110.0
 31
0.0
  0
TEXT
  5
BED
  8
FRAME_050
 10
6.0999999999999988
 20
135.0
 30
0.0
 40
4.0
  1
F
  7
ISO_PROPORTIONAL
 72
     4
 11
7.5
 21
137.0
 31
0.0
  0
LINE
  5
BEE
  8
FRAME_050
 10
10.0
 20
160.0
 30
0.0
 11
5.0
 21
160.0
 31
0.0
  0
TEXT
  5
BEF
  8
FRAME_050
 10
6.0999999999999988
 20
185.0
 30
0.0
 40
4.0
  1
E
  7
ISO_PROPORTIONAL
 72
     4
 11
7.5
 21
187.0
 31
0.0
  0
LINE
  5
BF0
  8
FRAME_050
 10
153.5
 20
5.0
 30
0.0
 11
153.5
 21
10.0
 31
0.0
  0
TEXT
  5
BF1
  8
FRAME_050
 10
116.1556692913386
 20
5.3996062992125982
 30
0.0
 40
4.0
  1
2
  7
ISO_PROPORTIONAL
 72
     4
 11
117.625
 21
7.5
 31
0.0
  0
TEXT
  5
BF2
  8
FRAME_050
 10
187.89215728752529
 20
5.5828427124746138
 30
0.0
 40
4.0
  1
3
  7
ISO_PROPORTIONAL
 72
     4
 11
189.375
 21
7.5
 31
0.0
  0
LINE
  5
BF3
  8
FRAME_050
 10
225.25
 20
5.0
 30
0.0
 11
225.25
 21
10.0
 31
0.0
  0
LINE
  5
BF4
  8
FRAME_050
 10
297.0
 20
7.5
 30
0.0
 11
294.5
 21
12.5
 31
0.0
  0
LINE
  5
BF5
  8
FRAME_050
 10
287.0
 20
5.0
 30
0.0
 11
287.0
 21
10.0
 31
0.0
  0
LINE
  5
BF6
  8
FRAME_050
 10
277.0
 20
5.0
 30
0.0
 11
277.0
 21
10.0
 31
0.0
  0
LINE
  5
BF7
  8
FRAME_050
 10
267.0
 20
5.0
 30
0.0
 11
267.0
 21
10.0
 31
0.0
  0
LINE
  5
BF8
  8
FRAME_050
 10
257.0
 20
5.0
 30
0.0
 11
257.0
 21
10.0
 31
0.0
  0
LINE
  5
BF9
  8
FRAME_050
 10
247.0
 20
5.0
 30
0.0
 11
247.0
 21
10.0
 31
0.0
  0
LINE
  5
BFA
  8
FRAME_050
 10
297.0
 20
10.0
 30
0.0
 11
297.0
 21
5.0
 31
0.0
  0
LINE
  5
BFB
  8
FRAME_050
 10
297.0
 20
10.0
 30
0.0
 11
297.0
 21
15.0
 31
0.0
  0
LINE
  5
BFC
  8
FRAME_050
 10
5.0
 20
210.0
 30
0.0
 11
15.0
 21
210.0
 31
0.0
  0
LINE
  5
BFD
  8
FRAME_050
 10
7.5
 20
210.0
 30
0.0
 11
12.5
 21
212.5
 31
0.0
  0
TEXT
  5
BFE
  8
FRAME_050
 10
5.7860912703473977
 20
235.0
 30
0.0
 40
4.0
  1
D
  7
ISO_PROPORTIONAL
 72
     4
 11
7.5
 21
237.0
 31
0.0
  0
LINE
  5
BFF
  8
FRAME_050
 10
10.0
 20
260.0
 30
0.0
 11
5.0
 21
260.0
 31
0.0
  0
TEXT
  5
C00
  8
FRAME_050
 10
6.1931980515339466
 20
285.0
 30
0.0
 40
4.0
  1
C
  7
ISO_PROPORTIONAL
 72
     4
 11
7.5
 21
287.0
 31
0.0
  0
LINE
  5
C01
  8
FRAME_050
 10
10.0
 20
310.0
 30
0.0
 11
5.0
 21
310.0
 31
0.0
  0
TEXT
  5
C02
  8
FRAME_050
 10
5.8999999999999959
 20
335.0
 30
0.0
 40
4.0
  1
B
  7
ISO_PROPORTIONAL
 72
     4
 11
7.5
 21
337.0
 31
0.0
  0
LINE
  5
C03
  8
FRAME_050
 10
10.0
 20
360.0
 30
0.0
 11
5.0
 21
360.0
 31
0.0
  0
TEXT
  5
C04
  8
FRAME_050
 10
5.6999999999999993
 20
385.0
 30
0.0
 40
4.0
  1
A
  7
ISO_PROPORTIONAL
 72
     4
 11
7.5
 21
387.0
 31
0.0
  0
LINE
  5
C05
  8
FRAME_200
 10
10.0
 20
420.0
 30
0.0
 11
0.0
 21
420.0
 31
0.0
  0
LINE
  5
C06
  8
FRAME_200
 10
0.0
 20
420.0
 30
0.0
 11
0.0
 21
410.0
 31
0.0
  0
TEXT
  5
C07
  8
FRAME_050
 10
44.874999999999993
 20
410.5
 30
0.0
 40
4.0
  1
1
  7
ISO_PROPORTIONAL
 72
     4
 11
45.875
 21
412.5
 31
0.0
  0
LINE
  5
C08
  8
FRAME_050
 10
81.75
 20
410.0
 30
0.0
 11
81.75
 21
415.0
 31
0.0
  0
TEXT
  5
C09
  8
FRAME_050
 10
116.1556692913386
 20
410.39960629921262
 30
0.0
 40
4.0
  1
2
  7
ISO_PROPORTIONAL
 72
     4
 11
117.625
 21
412.5
 31
0.0
  0
LINE
  5
C0A
  8
FRAME_050
 10
153.5
 20
410.0
 30
0.0
 11
153.5
 21
415.0
 31
0.0
  0
TEXT
  5
C0B
  8
FRAME_050
 10
187.89215728752529
 20
410.58284271247459
 30
0.0
 40
4.0
  1
3
  7
ISO_PROPORTIONAL
 72
     4
 11
189.375
 21
412.5
 31
0.0
  0
LINE
  5
C0C
  8
FRAME_050
 10
297.0
 20
405.0
 30
0.0
 11
297.0
 21
415.0
 31
0.0
  0
LINE
  5
C0D
  8
FRAME_050
 10
225.25
 20
410.0
 30
0.0
 11
225.25
 21
415.0
 31
0.0
  0
TEXT
  5
C0E
  8
FRAME_050
 10
259.52499999999998
 20
410.5
 30
0.0
 40
4.0
  1
4
  7
ISO_PROPORTIONAL
 72
     4
 11
261.125
 21
412.5
 31
0.0
  0
LINE
  5
C0F
  8
FRAME_070
 10
584.0
 20
10.0
 30
0.0
 11
584.0
 21
410.0
 31
0.0
  0
ATTDEF
  5
C10
  8
FRAME_025
 10
473.0
 20
31.75
 30
0.0
 40
2.5
  1
XXX - 00/00/00
  7
ISO_PROPORTIONAL
 11
473.0
 21
33.0
 31
0.0
  3
Approved by - Date
  2
APPROVED_BY_DATE
 70
     8
 74
     2
  0
TEXT
  5
C11
  8
FRAME_025
 10
448.0
 20
41.749999999999993
 30
0.0
 40
2.5
  1
Title/Name, designation, material, dimension etc
  7
ISO_PROPORTIONAL
 11
448.0
 21
43.0
 31
0.0
 73
     2
  0
TEXT
  5
C12
  8
FRAME_025
 10
473.0
 20
35.75
 30
0.0
 40
2.5
  1
Approved by - date
  7
ISO_PROPORTIONAL
 11
473.0
 21
37.0
 31
0.0
 73
     2
  0
LINE
  5
C13
  8
FRAME_070
 10
414.0
 20
46.0
 30
0.0
 11
584.0
 21
46.0
 31
0.0
  0
LINE
  5
C14
  8
FRAME_070
 10
414.0
 20
40.0
 30
0.0
 11
584.0
 21
40.0
 31
0.0
  0
LINE
  5
C15
  8
FRAME_070
 10
414.0
 20
30.0
 30
0.0
 11
584.0
 21
30.0
 31
0.0
  0
LINE
  5
C16
  8
FRAME_050
 10
368.75
 20
5.0
 30
0.0
 11
368.75
 21
10.0
 31
0.0
  0
LINE
  5
C17
  8
FRAME_050
 10
337.0
 20
5.0
 30
0.0
 11
337.0
 21
10.0
 31
0.0
  0
LINE
  5
C18
  8
FRAME_050
 10
327.0
 20
5.0
 30
0.0
 11
327.0
 21
10.0
 31
0.0
  0
LINE
  5
C19
  8
FRAME_050
 10
317.0
 20
5.0
 30
0.0
 11
317.0
 21
10.0
 31
0.0
  0
LINE
  5
C1A
  8
FRAME_050
 10
307.0
 20
5.0
 30
0.0
 11
307.0
 21
10.0
 31
0.0
  0
LINE
  5
C1B
  8
FRAME_050
 10
347.0
 20
5.0
 30
0.0
 11
347.0
 21
10.0
 31
0.0
  0
LINE
  5
C1C
  8
FRAME_050
 10
440.5
 20
5.0
 30
0.0
 11
440.5
 21
10.0
 31
0.0
  0
TEXT
  5
C1D
  8
FRAME_050
 10
403.24547244094481
 20
5.4102362204724406
 30
0.0
 40
4.0
  1
6
  7
ISO_PROPORTIONAL
 72
     4
 11
404.62499999999989
 21
7.5
 31
0.0
  0
TEXT
  5
C1E
  8
FRAME_050
 10
474.97499999999991
 20
5.5
 30
0.0
 40
4.0
  1
7
  7
ISO_PROPORTIONAL
 72
     4
 11
476.37499999999989
 21
7.5
 31
0.0
  0
TEXT
  5
C1F
  8
FRAME_025
 10
431.0
 20
41.749999999999993
 30
0.0
 40
2.5
  1
Quantity
  7
ISO_PROPORTIONAL
 11
431.0
 21
43.0
 31
0.0
 73
     2
  0
TEXT
  5
C20
  8
FRAME_025
 10
416.0
 20
41.749999999999993
 30
0.0
 40
2.5
  1
Itemref
  7
ISO_PROPORTIONAL
 11
416.0
 21
43.0
 31
0.0
 73
     2
  0
LINE
  5
C21
  8
FRAME_070
 10
414.0
 20
40.0
 30
0.0
 11
414.0
 21
46.0
 31
0.0
  0
LINE
  5
C22
  8
FRAME_070
 10
429.0
 20
40.0
 30
0.0
 11
429.0
 21
46.0
 31
0.0
  0
LINE
  5
C23
  8
FRAME_070
 10
414.0
 20
10.0
 30
0.0
 11
414.0
 21
40.0
 31
0.0
  0
ATTDEF
  5
C24
  8
FRAME_025
 10
416.0
 20
31.75
 30
0.0
 40
2.5
  1
XXX
  7
ISO_PROPORTIONAL
 11
416.0
 21
33.0
 31
0.0
  3
Designed by
  2
DESIGNED_BY
 70
     8
 74
     2
  0
TEXT
  5
C25
  8
FRAME_025
 10
416.0
 20
35.75
 30
0.0
 40
2.5
  1
Designed by
  7
ISO_PROPORTIONAL
 11
416.0
 21
37.0
 31
0.0
 73
     2
  0
LINE
  5
C26
  8
FRAME_070
 10
446.0
 20
40.0
 30
0.0
 11
446.0
 21
46.0
 31
0.0
  0
ATTDEF
  5
C27
  8
FRAME_025
 10
448.0
 20
31.75
 30
0.0
 40
2.5
  1
XXX
  7
ISO_PROPORTIONAL
 11
448.0
 21
33.0
 31
0.0
  3
Checked by
  2
CHECKED_BY
 70
     8
 74
     2
  0
TEXT
  5
C28
  8
FRAME_025
 10
448.0
 20
35.75
 30
0.0
 40
2.5
  1
Checked by
  7
ISO_PROPORTIONAL
 11
448.0
 21
37.0
 31
0.0
 73
     2
  0
ATTDEF
  5
C29
  8
FRAME_050
 10
444.74999999999989
 20
17.5
 30
0.0
 40
5.0
  1
XXX
  7
ISO_PROPORTIONAL
 72
     4
 11
451.49999999999989
 21
20.0
 31
0.0
  3
Owner
  2
OWNER
 70
     8
  0
LINE
  5
C2A
  8
FRAME_070
 10
446.0
 20
30.0
 30
0.0
 11
446.0
 21
40.0
 31
0.0
  0
LINE
  5
C2B
  8
FRAME_070
 10
471.0
 20
30.0
 30
0.0
 11
471.0
 21
40.0
 31
0.0
  0
LINE
  5
C2C
  8
FRAME_070
 10
489.0
 20
20.0
 30
0.0
 11
584.0
 21
20.0
 31
0.0
  0
LINE
  5
C2D
  8
FRAME_050
 10
512.25
 20
5.0
 30
0.0
 11
512.25
 21
10.0
 31
0.0
  0
TEXT
  5
C2E
  8
FRAME_050
 10
546.72499999999991
 20
5.5
 30
0.0
 40
4.0
  1
8
  7
ISO_PROPORTIONAL
 72
     4
 11
548.125
 21
7.5
 31
0.0
  0
ATTDEF
  5
C2F
  8
FRAME_050
 10
517.64999999999986
 20
13.5
 30
0.0
 40
3.0
  1
X
  7
ISO_PROPORTIONAL
 72
     4
 11
519.0
 21
15.0
 31
0.0
  3
Drawing number
  2
DRAWING_NUMBER
 70
     8
  0
ATTDEF
  5
C30
  8
FRAME_050
 10
529.75
 20
22.5
 30
0.0
 40
5.0
  1
XXX
  7
ISO_PROPORTIONAL
 72
     4
 11
536.5
 21
25.0
 31
0.0
  3
Title / Name
  2
TITLE
 70
     8
  0
LINE
  5
C31
  8
FRAME_070
 10
489.0
 20
10.0
 30
0.0
 11
489.0
 21
30.0
 31
0.0
  0
ATTDEF
  5
C32
  8
FRAME_025
 10
511.0
 20
31.75
 30
0.0
 40
2.5
  1
XXX
  7
ISO_PROPORTIONAL
 11
511.0
 21
33.0
 31
0.0
  3
Filename
  2
FILENAME
 70
     8
 74
     2
  0
TEXT
  5
C33
  8
FRAME_025
 10
511.0
 20
35.75
 30
0.0
 40
2.5
  1
Filename
  7
ISO_PROPORTIONAL
 11
511.0
 21
37.0
 31
0.0
 73
     2
  0
LINE
  5
C34
  8
FRAME_070
 10
509.0
 20
30.0
 30
0.0
 11
509.0
 21
40.0
 31
0.0
  0
TEXT
  5
C35
  8
FRAME_025
 10
536.0
 20
41.749999999999993
 30
0.0
 40
2.5
  1
Article No./Reference
  7
ISO_PROPORTIONAL
 11
536.0
 21
43.0
 31
0.0
 73
     2
  0
LINE
  5
C36
  8
FRAME_070
 10
534.0
 20
40.0
 30
0.0
 11
534.0
 21
46.0
 31
0.0
  0
ATTDEF
  5
C37
  8
FRAME_025
 10
551.0
 20
11.75
 30
0.0
 40
2.5
  1
0
  7
ISO_PROPORTIONAL
 11
551.0
 21
13.0
 31
0.0
  3
Edition
  2
EDITION
 70
     8
 74
     2
  0
TEXT
  5
C38
  8
FRAME_025
 10
551.0
 20
15.75
 30
0.0
 40
2.5
  1
Edition
  7
ISO_PROPORTIONAL
 11
551.0
 21
17.0
 31
0.0
 73
     2
  0
LINE
  5
C39
  8
FRAME_070
 10
549.0
 20
10.0
 30
0.0
 11
549.0
 21
20.0
 31
0.0
  0
ATTDEF
  5
C3A
  8
FRAME_025
 10
536.0
 20
31.75
 30
0.0
 40
2.5
  1
00/00/00
  7
ISO_PROPORTIONAL
 11
536.0
 21
33.0
 31
0.0
  3
Date
  2
DATE
 70
     8
 74
     2
  0
TEXT
  5
C3B
  8
FRAME_025
 10
536.0
 20
35.75
 30
0.0
 40
2.5
  1
Date
  7
ISO_PROPORTIONAL
 11
536.0
 21
37.0
 31
0.0
 73
     2
  0
LINE
  5
C3C
  8
FRAME_070
 10
534.0
 20
30.0
 30
0.0
 11
534.0
 21
40.0
 31
0.0
  0
ATTDEF
  5
C3D
  8
FRAME_025
 10
566.0
 20
11.75
 30
0.0
 40
2.5
  1
1/1
  7
ISO_PROPORTIONAL
 11
566.0
 21
13.0
 31
0.0
  3
Sheet
  2
SHEET
 70
     8
 74
     2
  0
TEXT
  5
C3E
  8
FRAME_025
 10
566.0
 20
15.75
 30
0.0
 40
2.5
  1
Sheet
  7
ISO_PROPORTIONAL
 11
566.0
 21
17.0
 31
0.0
 73
     2
  0
LINE
  5
C3F
  8
FRAME_070
 10
564.0
 20
10.0
 30
0.0
 11
564.0
 21
20.0
 31
0.0
  0
ATTDEF
  5
C40
  8
FRAME_025
 10
566.0
 20
31.75
 30
0.0
 40
2.5
  1
1:1
  7
ISO_PROPORTIONAL
 11
566.0
 21
33.0
 31
0.0
  3
Scale
  2
SCALE
 70
     8
 74
     2
  0
TEXT
  5
C41
  8
FRAME_025
 10
566.0
 20
35.75
 30
0.0
 40
2.5
  1
Scale
  7
ISO_PROPORTIONAL
 11
566.0
 21
37.0
 31
0.0
 73
     2
  0
LINE
  5
C42
  8
FRAME_070
 10
564.0
 20
30.0
 30
0.0
 11
564.0
 21
40.0
 31
0.0
  0
LINE
  5
C43
  8
FRAME_200
 10
594.0
 20
0.0
 30
0.0
 11
594.0
 21
10.0
 31
0.0
  0
LINE
  5
C44
  8
FRAME_200
 10
594.0
 20
0.0
 30
0.0
 11
584.0
 21
0.0
 31
0.0
  0
TEXT
  5
C45
  8
FRAME_050
 10
584.89999999999998
 20
35.0
 30
0.0
 40
4.0
  1
H
  7
ISO_PROPORTIONAL
 72
     4
 11
586.5
 21
37.0
 31
0.0
  0
LINE
  5
C46
  8
FRAME_050
 10
589.0
 20
60.0
 30
0.0
 11
584.0
 21
60.0
 31
0.0
  0
TEXT
  5
C47
  8
FRAME_050
 10
585.0035533905932
 20
85.0
 30
0.0
 40
4.0
  1
G
  7
ISO_PROPORTIONAL
 72
     4
 11
586.5
 21
87.0
 31
0.0
  0
LINE
  5
C48
  8
FRAME_050
 10
589.0
 20
110.0
 30
0.0
 11
584.0
 21
110.0
 31
0.0
  0
TEXT
  5
C49
  8
FRAME_050
 10
585.09999999999991
 20
135.0
 30
0.0
 40
4.0
  1
F
  7
ISO_PROPORTIONAL
 72
     4
 11
586.5
 21
137.0
 31
0.0
  0
LINE
  5
C4A
  8
FRAME_050
 10
589.0
 20
160.0
 30
0.0
 11
584.0
 21
160.0
 31
0.0
  0
TEXT
  5
C4B
  8
FRAME_050
 10
585.09999999999991
 20
185.0
 30
0.0
 40
4.0
  1
E
  7
ISO_PROPORTIONAL
 72
     4
 11
586.5
 21
187.0
 31
0.0
  0
LINE
  5
C4C
  8
FRAME_070
 10
414.0
 20
404.0
 30
0.0
 11
584.0
 21
404.0
 31
0.0
  0
TEXT
  5
C4D
  8
FRAME_050
 10
331.39215728752538
 20
410.58284271247459
 30
0.0
 40
4.0
  1
5
  7
ISO_PROPORTIONAL
 72
     4
 11
332.875
 21
412.5
 31
0.0
  0
LINE
  5
C4E
  8
FRAME_050
 10
368.75
 20
410.0
 30
0.0
 11
368.75
 21
415.0
 31
0.0
  0
TEXT
  5
C4F
  8
FRAME_025
 10
428.0
 20
405.75
 30
0.0
 40
2.5
  1
Revision note
  7
ISO_PROPORTIONAL
 11
428.0
 21
407.0
 31
0.0
 73
     2
  0
TEXT
  5
C50
  8
FRAME_025
 10
416.0
 20
405.75
 30
0.0
 40
2.5
  1
RevNo
  7
ISO_PROPORTIONAL
 11
416.0
 21
407.0
 31
0.0
 73
     2
  0
LINE
  5
C51
  8
FRAME_070
 10
426.0
 20
404.0
 30
0.0
 11
426.0
 21
410.0
 31
0.0
  0
LINE
  5
C52
  8
FRAME_070
 10
414.0
 20
404.0
 30
0.0
 11
414.0
 21
410.0
 31
0.0
  0
TEXT
  5
C53
  8
FRAME_050
 10
403.24547244094481
 20
410.41023622047243
 30
0.0
 40
4.0
  1
6
  7
ISO_PROPORTIONAL
 72
     4
 11
404.62499999999989
 21
412.5
 31
0.0
  0
LINE
  5
C54
  8
FRAME_050
 10
440.5
 20
410.0
 30
0.0
 11
440.5
 21
415.0
 31
0.0
  0
TEXT
  5
C55
  8
FRAME_050
 10
474.97499999999991
 20
410.5
 30
0.0
 40
4.0
  1
7
  7
ISO_PROPORTIONAL
 72
     4
 11
476.37499999999989
 21
412.5
 31
0.0
  0
LINE
  5
C56
  8
FRAME_050
 10
579.0
 20
210.0
 30
0.0
 11
589.0
 21
210.0
 31
0.0
  0
TEXT
  5
C57
  8
FRAME_050
 10
584.78609127034736
 20
235.0
 30
0.0
 40
4.0
  1
D
  7
ISO_PROPORTIONAL
 72
     4
 11
586.5
 21
237.0
 31
0.0
  0
LINE
  5
C58
  8
FRAME_050
 10
589.0
 20
260.0
 30
0.0
 11
584.0
 21
260.0
 31
0.0
  0
TEXT
  5
C59
  8
FRAME_050
 10
585.19319805153395
 20
285.0
 30
0.0
 40
4.0
  1
C
  7
ISO_PROPORTIONAL
 72
     4
 11
586.5
 21
287.0
 31
0.0
  0
LINE
  5
C5A
  8
FRAME_050
 10
589.0
 20
310.0
 30
0.0
 11
584.0
 21
310.0
 31
0.0
  0
TEXT
  5
C5B
  8
FRAME_050
 10
584.89999999999998
 20
335.0
 30
0.0
 40
4.0
  1
B
  7
ISO_PROPORTIONAL
 72
     4
 11
586.5
 21
337.0
 31
0.0
  0
TEXT
  5
C5C
  8
FRAME_025
 10
571.08299391850551
 20
405.75
 30
0.0
 40
2.5
  1
Checked
  7
ISO_PROPORTIONAL
 11
571.08299391850551
 21
407.0
 31
0.0
 73
     2
  0
TEXT
  5
C5D
  8
FRAME_025
 10
555.36099797283521
 20
405.75
 30
0.0
 40
2.5
  1
Signature
  7
ISO_PROPORTIONAL
 11
555.36099797283521
 21
407.0
 31
0.0
 73
     2
  0
TEXT
  5
C5E
  8
FRAME_025
 10
537.0
 20
405.75
 30
0.0
 40
2.5
  1
Date
  7
ISO_PROPORTIONAL
 11
537.0
 21
407.0
 31
0.0
 73
     2
  0
LINE
  5
C5F
  8
FRAME_070
 10
570.0
 20
404.0
 30
0.0
 11
570.0
 21
410.0
 31
0.0
  0
LINE
  5
C60
  8
FRAME_070
 10
555.0
 20
404.0
 30
0.0
 11
555.0
 21
410.0
 31
0.0
  0
LINE
  5
C61
  8
FRAME_070
 10
535.0
 20
404.0
 30
0.0
 11
535.0
 21
410.0
 31
0.0
  0
LINE
  5
C62
  8
FRAME_050
 10
512.25
 20
410.0
 30
0.0
 11
512.25
 21
415.0
 31
0.0
  0
TEXT
  5
C63
  8
FRAME_050
 10
546.72499999999991
 20
410.5
 30
0.0
 40
4.0
  1
8
  7
ISO_PROPORTIONAL
 72
     4
 11
548.125
 21
412.5
 31
0.0
  0
LINE
  5
C64
  8
FRAME_050
 10
589.0
 20
360.0
 30
0.0
 11
584.0
 21
360.0
 31
0.0
  0
TEXT
  5
C65
  8
FRAME_050
 10
584.70000000000005
 20
385.0
 30
0.0
 40
4.0
  1
A
  7
ISO_PROPORTIONAL
 72
     4
 11
586.5
 21
387.0
 31
0.0
  0
LINE
  5
C66
  8
FRAME_200
 10
594.0
 20
420.0
 30
0.0
 11
584.0
 21
420.0
 31
0.0
  0
LINE
  5
C67
  8
FRAME_200
 10
594.0
 20
410.0
 30
0.0
 11
594.0
 21
420.0
 31
0.0
  0
ENDBLK
  5
C69
  8
0
  0
BLOCK
  8
0
  2
WOBB001END
 70
     0
 10
0.0
 20
0.0
 30
0.0
  3
WOBB001END
  1

  0
LINE
  5
4D66
  8
0
  6
CONTINUOUS
 10
0.0
 20
0.0
 30
0.0
 11
0.8749999999999998
 21
0.0
 31
0.0
  0
ARC
  5
4D67
  8
0
  6
CONTINUOUS
 10
0.0331648379439287
 20
-0.5087238935900234
 30
0.0
 40
0.8790130605592325
 50
284.06490243660443
 51
312.19222981924361
  0
ARC
  5
4D68
  8
0
  6
CONTINUOUS
 10
0.2841534338796767
 20
-1.510548310625538
 30
0.0
 40
0.1537731892806598
 50
104.0649024366044
 51
179.4721730735024
  0
LINE
  5
4D69
  8
0
  6
CONTINUOUS
 10
0.0
 20
0.0
 30
0.0
 11
-0.0000000000000003
 21
-1.7501564476661911
 31
0.0
  0
ARC
  5
4D6A
  8
0
  6
CONTINUOUS
 10
0.1404622019506122
 20
-1.630313718354619
 30
0.0
 40
0.1198427293115722
 50
275.0
 51
85.000000000000057
  0
LINE
  5
4D6B
  8
0
  6
CONTINUOUS
 10
-0.0000000000000003
 20
-1.7501564476661911
 30
0.0
 11
0.1456946485130855
 21
-1.7501564476661911
 31
0.0
  0
LINE
  5
4D6C
  8
0
  6
CONTINUOUS
 10
0.1377603739254348
 20
-1.7508506067459131
 30
0.0
 11
0.150907184036669
 21
-1.7497004098996509
 31
0.0
  0
LINE
  5
4D6D
  8
0
  6
CONTINUOUS
 10
0.1303867696719884
 20
-1.5091317231818231
 30
0.0
 11
0.1509071840366689
 21
-1.510927026809586
 31
0.0
  0
LINE
  5
4D6E
  8
0
  6
CONTINUOUS
 10
0.8749999999999998
 20
0.0
 30
0.0
 11
0.8749999999999996
 21
-0.8649327026588228
 31
0.0
  0
LINE
  5
4D6F
  8
0
  6
CONTINUOUS
 10
0.727014513830997
 20
-0.872688293355061
 30
0.0
 11
0.727014513830997
 21
-0.9264923397184784
 31
0.0
  0
ARC
  5
4D70
  8
0
  6
CONTINUOUS
 10
0.41187090827646
 20
-0.9264923397184784
 30
0.0
 40
0.3151436055545369
 50
312.19222981924361
 51
0.0
  0
LINE
  5
4D71
  8
0
  6
CONTINUOUS
 10
0.727014513830997
 20
-0.872688293355061
 30
0.0
 11
0.8749999999999996
 21
-0.8649327026588228
 31
0.0
  0
ENDBLK
  5
4D72
  8
0
  0
BLOCK
  8
0
  2
A$C0A61123B
 70
     0
 10
0.0
 20
0.0
 30
0.0
  3
A$C0A61123B
  1

  0
LINE
  5
C0AD
  8
PROF
  6
CONTINUOUS
 10
4.9012016798694162
 20
13.325025853350891
 30
0.0000000000000002
 11
4.9012016798694162
 21
12.88585218805485
 31
0.0000000000000003
  0
INSERT
  5
C0AE
  8
0
  2
*U7
 10
0.0
 20
0.0
 30
0.0
  0
LINE
  5
C0AF
  8
PROF
 10
4.519857503186925
 20
12.72227734589444
 30
0.0000000000000001
 11
4.519857503186925
 21
12.88585218805485
 31
0.0000000000000001
  0
LINE
  5
C0B0
  8
PROF
  6
CONTINUOUS
 10
3.6306271195888362
 20
13.325025853350891
 30
0.0000000000000002
 11
4.9012016798694162
 21
13.325025853350891
 31
0.0000000000000002
  0
LINE
  5
C0B1
  8
PROF
 10
1.9750295148747341
 20
10.37671325491794
 30
0.0000000000000002
 11
1.9750295148747341
 21
10.11391186758919
 31
0.0000000000000002
  0
LINE
  5
C0B2
  8
PROF
 10
1.6079673357556299
 20
10.11391186758919
 30
0.0000000000000001
 11
1.9750295148747341
 21
10.11391186758919
 31
0.0000000000000001
  0
LINE
  5
C0B3
  8
PROF
 10
1.9750295148747341
 20
10.11391186758919
 30
0.0000000000000001
 11
1.944958486898144
 21
10.11391186758919
 31
0.0000000000000001
  0
LINE
  5
C0B4
  8
PROF
 10
1.9750295148747341
 20
10.11391186758919
 30
0.0000000000000001
 11
1.944958486898144
 21
10.11391186758919
 31
0.0000000000000001
  0
LINE
  5
C0B5
  8
PROF
 10
0.3222605517169654
 20
7.5247473351056451
 30
-0.0000000000000002
 11
-0.0000008570117416
 21
7.5247473351056451
 31
0.0
  0
LINE
  5
C0B6
  8
PROF
 10
-0.0000008570117416
 20
7.5247473351056451
 30
0.0
 11
-0.0000008570117416
 21
9.1943336957369848
 31
0.0
  0
POLYLINE
  5
C0B7
  8
PROF
 66
     1
 10
0.0
 20
0.0
 30
0.0000000000000001
 70
     4
 75
     6
  0
VERTEX
  5
C0B8
  8
PROF
 10
1.6079673357556299
 20
10.11391186758919
 30
0.0000000000000001
 70
    16
  0
VERTEX
  5
C0B9
  8
PROF
 10
1.6079673357556299
 20
10.11391186758919
 30
0.0000000000000001
 70
     8
  0
VERTEX
  5
C0BA
  8
PROF
 10
1.6468132326485809
 20
10.02198069336111
 30
0.0000000000000001
 70
     8
  0
VERTEX
  5
C0BB
  8
PROF
 10
1.67335966680929
 20
9.9344134163010231
 30
0.0000000000000001
 70
     8
  0
VERTEX
  5
C0BC
  8
PROF
 10
1.6890086400463229
 20
9.8512576644480951
 30
0.0000000000000001
 70
     8
  0
VERTEX
  5
C0BD
  8
PROF
 10
1.6951621541682571
 20
9.7725610658417281
 30
0.0000000000000001
 70
     8
  0
VERTEX
  5
C0BE
  8
PROF
 10
1.693222210983605
 20
9.6983712485214237
 30
0.0000000000000001
 70
     8
  0
VERTEX
  5
C0BF
  8
PROF
 10
1.6845908123009961
 20
9.6287358405263603
 30
0.0000000000000001
 70
     8
  0
VERTEX
  5
C0C0
  8
PROF
 10
1.670669959928885
 20
9.5637024698960431
 30
0.0000000000000001
 70
     8
  0
VERTEX
  5
C0C1
  8
PROF
 10
1.6528616556759621
 20
9.5033187646697552
 30
0.0000000000000001
 70
     8
  0
VERTEX
  5
C0C2
  8
PROF
 10
1.632356299273054
 20
9.4475843259650691
 30
0.0000000000000001
 70
     8
  0
VERTEX
  5
C0C3
  8
PROF
 10
1.609497882140658
 20
9.3963066472123273
 30
0.0000000000000001
 70
     8
  0
VERTEX
  5
C0C4
  8
PROF
 10
1.584418793621637
 20
9.3492451949202842
 30
0.0000000000000001
 70
     8
  0
VERTEX
  5
C0C5
  8
PROF
 10
1.5572514230587431
 20
9.3061594355972357
 30
0.0000000000000001
 70
     8
  0
VERTEX
  5
C0C6
  8
PROF
 10
1.5281281597949601
 20
9.2668088357519274
 30
0.0000000000000001
 70
     8
  0
VERTEX
  5
C0C7
  8
PROF
 10
1.497181393172978
 20
9.2309528618929981
 30
0.0000000000000001
 70
     8
  0
VERTEX
  5
C0C8
  8
PROF
 10
1.4645435125357249
 20
9.1983509805288541
 30
0.0000000000000001
 70
     8
  0
VERTEX
  5
C0C9
  8
PROF
 10
1.4303469072260091
 20
9.1687626581682462
 30
0.0000000000000001
 70
     8
  0
VERTEX
  5
C0CA
  8
PROF
 10
1.394736033257401
 20
9.1419547918675335
 30
0.0000000000000001
 70
     8
  0
VERTEX
  5
C0CB
  8
PROF
 10
1.3579036133264131
 20
9.1177240008747713
 30
0.0000000000000001
 70
     8
  0
VERTEX
  5
C0CC
  8
PROF
 10
1.3200544368004321
 20
9.0958743349860924
 30
0.0000000000000001
 70
     8
  0
VERTEX
  5
C0CD
  8
PROF
 10
1.281393293046676
 20
9.0762098439975034
 30
0.0000000000000001
 70
     8
  0
VERTEX
  5
C0CE
  8
PROF
 10
1.2421249714324161
 20
9.0585345777049042
 30
0.0000000000000001
 70
     8
  0
VERTEX
  5
C0CF
  8
PROF
 10
1.202454261324986
 20
9.0426525859044187
 30
0.0000000000000001
 70
     8
  0
VERTEX
  5
C0D0
  8
PROF
 10
1.162585952091659
 20
9.0283679183919503
 30
0.0000000000000001
 70
     8
  0
VERTEX
  5
C0D1
  8
PROF
 10
1.1227248330997091
 20
9.0154846249635021
 30
0.0000000000000001
 70
     8
  0
VERTEX
  5
C0D2
  8
PROF
 10
1.0829726247361
 20
9.0034643862466055
 30
0.0000000000000001
 70
     8
  0
VERTEX
  5
C0D3
  8
PROF
 10
1.043018771466222
 20
8.9903994061946833
 30
0.0000000000000001
 70
     8
  0
VERTEX
  5
C0D4
  8
PROF
 10
1.002449648775211
 20
8.9740395195925622
 30
0.0000000000000001
 70
     8
  0
VERTEX
  5
C0D5
  8
PROF
 10
0.9608516321480919
 20
8.9521345612251935
 30
0.0000000000000001
 70
     8
  0
VERTEX
  5
C0D6
  8
PROF
 10
0.9178110970699435
 20
8.9224343658775052
 30
0.0000000000000001
 70
     8
  0
VERTEX
  5
C0D7
  8
PROF
 10
0.8729144190259033
 20
8.8826887683343312
 30
0.0000000000000001
 70
     8
  0
VERTEX
  5
C0D8
  8
PROF
 10
0.8257479735009949
 20
8.8306476033806121
 30
0.0000000000000001
 70
     8
  0
VERTEX
  5
C0D9
  8
PROF
 10
0.7758981359802988
 20
8.764060705801171
 30
0.0000000000000001
 70
     8
  0
VERTEX
  5
C0DA
  8
PROF
 10
1.7292019016096549
 20
9.8629858761255491
 30
0.0000000000000001
 70
    16
  0
VERTEX
  5
C0DB
  8
PROF
 10
1.679373123114088
 20
9.4532143012734213
 30
0.0000000000000001
 70
    16
  0
VERTEX
  5
C0DC
  8
PROF
 10
1.4455611507419801
 20
9.1391837193732481
 30
0.0000000000000001
 70
    16
  0
VERTEX
  5
C0DD
  8
PROF
 10
1.1204637172738201
 20
9.0026267702428413
 30
0.0000000000000001
 70
    16
  0
VERTEX
  5
C0DE
  8
PROF
 10
0.9127765582653638
 20
8.9630202230383702
 30
0.0000000000000001
 70
    16
  0
VERTEX
  5
C0DF
  8
PROF
 10
0.7758981359802988
 20
8.764060705801171
 30
0.0000000000000001
 70
    16
  0
SEQEND
  5
C0E0
  8
PROF
  0
ARC
  5
C0E1
  8
PROF
 10
0.733429816733235
 20
8.4849506952165257
 30
0.0000000000000001
 40
0.2823224329524727
 50
269.73652020831901
 51
81.348449993176914
  0
LINE
  5
C0E2
  8
PROF
  6
CONTINUOUS
 10
-0.0000008570117416
 20
9.1943336957369848
 30
-0.0000000000000001
 11
3.6306271195888362
 21
13.325025853350891
 31
0.0000000000000002
  0
POLYLINE
  5
C0E3
  8
PROF
 66
     1
 10
0.0
 20
0.0
 30
0.0000000000000001
 70
     4
 75
     6
  0
VERTEX
  5
C0E4
  8
PROF
 10
4.519857503186925
 20
12.72227734589444
 30
0.0000000000000001
 70
    16
  0
VERTEX
  5
C0E5
  8
PROF
 10
4.519857503186925
 20
12.72227734589444
 30
0.0000000000000001
 70
     8
  0
VERTEX
  5
C0E6
  8
PROF
 10
4.4467035366886289
 20
12.741128108778071
 30
0.0000000000000001
 70
     8
  0
VERTEX
  5
C0E7
  8
PROF
 10
4.3786645761268801
 20
12.754675269913941
 30
0.0000000000000001
 70
     8
  0
VERTEX
  5
C0E8
  8
PROF
 10
4.3154364111440469
 20
12.76334314092332
 30
0.0000000000000001
 70
     8
  0
VERTEX
  5
C0E9
  8
PROF
 10
4.256714831382566
 20
12.76755603342724
 30
0.0000000000000001
 70
     8
  0
VERTEX
  5
C0EA
  8
PROF
 10
4.2021956264849791
 20
12.76773825904672
 30
0.0000000000000001
 70
     8
  0
VERTEX
  5
C0EB
  8
PROF
 10
4.1515745860935436
 20
12.764314129403139
 30
0.0000000000000001
 70
     8
  0
VERTEX
  5
C0EC
  8
PROF
 10
4.1045474998508649
 20
12.75770795611743
 30
0.0000000000000001
 70
     8
  0
VERTEX
  5
C0ED
  8
PROF
 10
4.0608101573993149
 20
12.748344050810831
 30
0.0000000000000001
 70
     8
  0
VERTEX
  5
C0EE
  8
PROF
 10
4.0200583483813261
 20
12.736646725104491
 30
0.0000000000000001
 70
     8
  0
VERTEX
  5
C0EF
  8
PROF
 10
3.981987862439381
 20
12.72304029061945
 30
0.0000000000000001
 70
     8
  0
VERTEX
  5
C0F0
  8
PROF
 10
3.946294489215858
 20
12.707949058976959
 30
0.0000000000000001
 70
     8
  0
VERTEX
  5
C0F1
  8
PROF
 10
3.912674018353242
 20
12.691797341798059
 30
0.0000000000000001
 70
     8
  0
VERTEX
  5
C0F2
  8
PROF
 10
3.8808638350742499
 20
12.67494295718654
 30
0.0000000000000001
 70
     8
  0
VERTEX
  5
C0F3
  8
PROF
 10
3.850767706922738
 20
12.65747774917668
 30
0.0000000000000001
 70
     8
  0
VERTEX
  5
C0F4
  8
PROF
 10
3.8223309970228438
 20
12.639427068285499
 30
0.0000000000000001
 70
     8
  0
VERTEX
  5
C0F5
  8
PROF
 10
3.795499068498712
 20
12.62081626503004
 30
0.0000000000000001
 70
     8
  0
VERTEX
  5
C0F6
  8
PROF
 10
3.7702172844744819
 20
12.601670689926999
 30
0.0000000000000001
 70
     8
  0
VERTEX
  5
C0F7
  8
PROF
 10
3.7464310080743521
 20
12.58201569349364
 30
0.0000000000000001
 70
     8
  0
VERTEX
  5
C0F8
  8
PROF
 10
3.7240856024224609
 20
12.56187662624666
 30
0.0000000000000001
 70
     8
  0
VERTEX
  5
C0F9
  8
PROF
 10
3.7031264306428961
 20
12.541278838703191
 30
0.0000000000000001
 70
     8
  0
VERTEX
  5
C0FA
  8
PROF
 10
3.683498855859908
 20
12.520247681380051
 30
0.0000000000000001
 70
     8
  0
VERTEX
  5
C0FB
  8
PROF
 10
3.665148241197528
 20
12.49880850479428
 30
0.0000000000000001
 70
     8
  0
VERTEX
  5
C0FC
  8
PROF
 10
3.648019949779949
 20
12.47698665946279
 30
0.0000000000000001
 70
     8
  0
VERTEX
  5
C0FD
  8
PROF
 10
3.6320593447313159
 20
12.45480749590263
 30
0.0000000000000001
 70
     8
  0
VERTEX
  5
C0FE
  8
PROF
 10
3.617189584886658
 20
12.43223790353807
 30
0.0000000000000001
 70
     8
  0
VERTEX
  5
C0FF
  8
PROF
 10
3.6032450119242849
 20
12.40901092742285
 30
0.0000000000000001
 70
     8
  0
VERTEX
  5
C100
  8
PROF
 10
3.590037763233453
 20
12.38480115151844
 30
0.0000000000000001
 70
     8
  0
VERTEX
  5
C101
  8
PROF
 10
3.5773799762033032
 20
12.35928315978594
 30
0.0000000000000001
 70
     8
  0
VERTEX
  5
C102
  8
PROF
 10
3.5650837882230899
 20
12.33213153618658
 30
0.0000000000000001
 70
     8
  0
VERTEX
  5
C103
  8
PROF
 10
3.552961336681959
 20
12.303020864681571
 30
0.0000000000000001
 70
     8
  0
VERTEX
  5
C104
  8
PROF
 10
3.540824758969165
 20
12.271625729232371
 30
0.0000000000000001
 70
     8
  0
VERTEX
  5
C105
  8
PROF
 10
3.528486192473848
 20
12.23762071379997
 30
0.0000000000000001
 70
     8
  0
VERTEX
  5
C106
  8
PROF
 10
3.5157577745852659
 20
12.200680402345711
 30
0.0000000000000001
 70
     8
  0
VERTEX
  5
C107
  8
PROF
 10
3.502451642692618
 20
12.16047937883093
 30
0.0000000000000001
 70
     8
  0
VERTEX
  5
C108
  8
PROF
 10
3.4883799341851041
 20
12.116692227216619
 30
0.0000000000000001
 70
     8
  0
VERTEX
  5
C109
  8
PROF
 10
3.4733547864519201
 20
12.06899353146423
 30
0.0000000000000001
 70
     8
  0
VERTEX
  5
C10A
  8
PROF
 10
3.45723654619428
 20
12.0172095445447
 30
0.0000000000000001
 70
     8
  0
VERTEX
  5
C10B
  8
PROF
 10
3.440078397361388
 20
11.961773195467799
 30
0.0000000000000001
 70
     8
  0
VERTEX
  5
C10C
  8
PROF
 10
3.4219817332145781
 20
11.90326908225302
 30
0.0000000000000001
 70
     8
  0
VERTEX
  5
C10D
  8
PROF
 10
3.4030479470150099
 20
11.842281802919951
 30
0.0000000000000001
 70
     8
  0
VERTEX
  5
C10E
  8
PROF
 10
3.383378432024017
 20
11.779395955487979
 30
0.0000000000000001
 70
     8
  0
VERTEX
  5
C10F
  8
PROF
 10
3.36307458150287
 20
11.7151961379768
 30
0.0000000000000001
 70
     8
  0
VERTEX
  5
C110
  8
PROF
 10
3.342237788712735
 20
11.650266948405831
 30
0.0000000000000001
 70
     8
  0
VERTEX
  5
C111
  8
PROF
 10
3.3209694469149991
 20
11.58519298479461
 30
0.0000000000000001
 70
     8
  0
VERTEX
  5
C112
  8
PROF
 10
3.299370949370767
 20
11.52055884516254
 30
0.0000000000000001
 70
     8
  0
VERTEX
  5
C113
  8
PROF
 10
3.277543689341428
 20
11.456949127529461
 30
0.0000000000000001
 70
     8
  0
VERTEX
  5
C114
  8
PROF
 10
3.2555890600881399
 20
11.3949484299145
 30
0.0000000000000001
 70
     8
  0
VERTEX
  5
C115
  8
PROF
 10
3.2336084548721811
 20
11.335141350337491
 30
0.0000000000000001
 70
     8
  0
VERTEX
  5
C116
  8
PROF
 10
3.2116715641212181
 20
11.277995447977769
 30
0.0000000000000001
 70
     8
  0
VERTEX
  5
C117
  8
PROF
 10
3.1897212669278461
 20
11.22351012665467
 30
0.0000000000000001
 70
     8
  0
VERTEX
  5
C118
  8
PROF
 10
3.1676687395512881
 20
11.17156775134765
 30
0.0000000000000001
 70
     8
  0
VERTEX
  5
C119
  8
PROF
 10
3.1454251582505321
 20
11.12205068703588
 30
0.0000000000000001
 70
     8
  0
VERTEX
  5
C11A
  8
PROF
 10
3.122901699284625
 20
11.07484129869874
 30
0.0000000000000001
 70
     8
  0
VERTEX
  5
C11B
  8
PROF
 10
3.1000095389127278
 20
11.02982195131551
 30
0.0000000000000001
 70
     8
  0
VERTEX
  5
C11C
  8
PROF
 10
3.07665985339389
 20
10.986875009865679
 30
0.0000000000000001
 70
     8
  0
VERTEX
  5
C11D
  8
PROF
 10
3.0527638189871591
 20
10.9458828393283
 30
0.0000000000000001
 70
     8
  0
VERTEX
  5
C11E
  8
PROF
 10
3.0282326119516361
 20
10.90672780468298
 30
0.0000000000000001
 70
     8
  0
VERTEX
  5
C11F
  8
PROF
 10
3.0029774085463701
 20
10.869292270908771
 30
0.0000000000000001
 70
     8
  0
VERTEX
  5
C120
  8
PROF
 10
2.9769093850304089
 20
10.833458602985161
 30
0.0000000000000001
 70
     8
  0
VERTEX
  5
C121
  8
PROF
 10
2.9499397176628559
 20
10.799109165891419
 30
0.0000000000000001
 70
     8
  0
VERTEX
  5
C122
  8
PROF
 10
2.922000609840437
 20
10.76614363969508
 30
0.0000000000000001
 70
     8
  0
VERTEX
  5
C123
  8
PROF
 10
2.8931083735102998
 20
10.7345309648158
 30
0.0000000000000001
 70
     8
  0
VERTEX
  5
C124
  8
PROF
 10
2.8633003477572729
 20
10.70425739676193
 30
0.0000000000000001
 70
     8
  0
VERTEX
  5
C125
  8
PROF
 10
2.8326138716660689
 20
10.67530919104115
 30
0.0000000000000001
 70
     8
  0
VERTEX
  5
C126
  8
PROF
 10
2.801086284321626
 20
10.647672603161711
 30
0.0000000000000001
 70
     8
  0
VERTEX
  5
C127
  8
PROF
 10
2.7687549248087162
 20
10.62133388863162
 30
0.0000000000000001
 70
     8
  0
VERTEX
  5
C128
  8
PROF
 10
2.7356571322120531
 20
10.5962793029588
 30
0.0000000000000001
 70
     8
  0
VERTEX
  5
C129
  8
PROF
 10
2.7018302456165202
 20
10.572495101651381
 30
0.0000000000000001
 70
     8
  0
VERTEX
  5
C12A
  8
PROF
 10
2.6673116041068838
 20
10.54996754021726
 30
0.0000000000000001
 70
     8
  0
VERTEX
  5
C12B
  8
PROF
 10
2.6321385467680321
 20
10.528682874164581
 30
0.0000000000000001
 70
     8
  0
VERTEX
  5
C12C
  8
PROF
 10
2.5963484126846179
 20
10.508627359001251
 30
0.0000000000000001
 70
     8
  0
VERTEX
  5
C12D
  8
PROF
 10
2.5599785409415841
 20
10.489787250235279
 30
0.0000000000000001
 70
     8
  0
VERTEX
  5
C12E
  8
PROF
 10
2.522998630314361
 20
10.472162234281081
 30
0.0000000000000001
 70
     8
  0
VERTEX
  5
C12F
  8
PROF
 10
2.4851078183409072
 20
10.455805721177621
 30
0.0000000000000001
 70
     8
  0
VERTEX
  5
C130
  8
PROF
 10
2.4459376022498982
 20
10.44078455187036
 30
0.0000000000000001
 70
     8
  0
VERTEX
  5
C131
  8
PROF
 10
2.4051194792701249
 20
10.42716556730465
 30
0.0000000000000001
 70
     8
  0
VERTEX
  5
C132
  8
PROF
 10
2.3622849466301541
 20
10.415015608425851
 30
0.0000000000000001
 70
     8
  0
VERTEX
  5
C133
  8
PROF
 10
2.317065501558714
 20
10.40440151617929
 30
0.0000000000000001
 70
     8
  0
VERTEX
  5
C134
  8
PROF
 10
2.2690926412844301
 20
10.395390131510339
 30
0.0000000000000001
 70
     8
  0
VERTEX
  5
C135
  8
PROF
 10
2.2179978630360879
 20
10.388048295364451
 30
0.0000000000000001
 70
     8
  0
VERTEX
  5
C136
  8
PROF
 10
2.1634126640422551
 20
10.38244284868688
 30
0.0000000000000001
 70
     8
  0
VERTEX
  5
C137
  8
PROF
 10
2.1049685415316031
 20
10.37864063242295
 30
0.0000000000000001
 70
     8
  0
VERTEX
  5
C138
  8
PROF
 10
2.0422969927328709
 20
10.37670848751816
 30
0.0000000000000001
 70
     8
  0
VERTEX
  5
C139
  8
PROF
 10
1.9750295148747341
 20
10.37671325491794
 30
0.0000000000000001
 70
     8
  0
VERTEX
  5
C13A
  8
PROF
 10
4.2166060115107484
 20
12.80885334975255
 30
0.0000000000000001
 70
    16
  0
VERTEX
  5
C13B
  8
PROF
 10
3.8702254102732909
 20
12.707065515763929
 30
0.0000000000000001
 70
    16
  0
VERTEX
  5
C13C
  8
PROF
 10
3.605346156896871
 20
12.46277472098552
 30
0.0000000000000001
 70
    16
  0
VERTEX
  5
C13D
  8
PROF
 10
3.500746030527238
 20
12.170680575709749
 30
0.0000000000000001
 70
    16
  0
VERTEX
  5
C13E
  8
PROF
 10
3.231798439705698
 20
11.26846416496107
 30
0.0000000000000001
 70
    16
  0
VERTEX
  5
C13F
  8
PROF
 10
2.9737109398832882
 20
10.76631086647069
 30
0.0000000000000001
 70
    16
  0
VERTEX
  5
C140
  8
PROF
 10
2.5729961067384002
 20
10.460947364504699
 30
0.0000000000000001
 70
    16
  0
VERTEX
  5
C141
  8
PROF
 10
2.2537826214546031
 20
10.372731239449759
 30
0.0000000000000001
 70
    16
  0
VERTEX
  5
C142
  8
PROF
 10
1.9750295148747341
 20
10.37671325491794
 30
0.0000000000000001
 70
    16
  0
SEQEND
  5
C143
  8
PROF
  0
LINE
  5
C144
  8
PROF
 10
4.9012016798694162
 20
12.88585218805485
 30
0.0000000000000003
 11
4.519857503186925
 21
12.88585218805485
 31
0.0000000000000003
  0
LINE
  5
C145
  8
PROF
 10
0.7321315362267457
 20
8.2026312473991556
 30
0.0000000000000006
 11
0.7321315362267457
 21
8.0511853963434952
 31
0.0000000000000006
  0
ARC
  5
C146
  8
PROF
 10
0.7977322214551919
 20
7.577333933202679
 30
0.0000000000000006
 40
0.4783708383912013
 50
97.882010168942557
 51
186.31119505698641
  0
LINE
  5
C147
  8
FRAME_050
 10
7.8016377197432121
 20
17.99371054969447
 30
0.0
 11
7.8016377197432121
 21
0.0000000000002274
 31
0.0
  0
ENDBLK
  5
C149
  8
0
  0
BLOCK
  8
0
  2
*U7
 70
     1
 10
0.0
 20
0.0
 30
0.0
  3
*U7
  1

  0
TEXT
  5
C8C3
  8
0
 10
3.5177832928899071
 20
10.38601584255777
 30
0.0
 40
0.125
  1
Crown Moulding
  0
TEXT
  5
C8C4
  8
0
 10
3.5223876585106431
 20
10.17717091304435
 30
0.0
 40
0.125
  1
TL-AB509
  0
TEXT
  5
C8C5
  8
0
 10
3.5074661032582561
 20
9.9667059289606801
 30
0.0
 40
0.125
  1
1-5/16" x 7-9/16"
  0
TEXT
  5
C8C6
  8
0
 10
3.519403347460166
 20
9.7562409448770051
 30
0.0
 40
0.125
  1
800.66.TAGUE
  0
ENDBLK
  5
C8C8
  8
0
  0
BLOCK
  8
0
  2
*U8
 70
     1
 10
0.0
 20
0.0
 30
0.0
  3
*U8
  1

  0
TEXT
  5
C8CA
  8
0
 10
5.3066868277875692
 20
1.767659498411035
 30
0.0
 40
0.125
  1
Back Band
  0
TEXT
  5
C8CB
  8
0
 10
5.3153839628489603
 20
1.55881456889762
 30
0.0
 40
0.125
  1
TL-1
  0
TEXT
  5
C8CC
  8
0
 10
5.3004624075965721
 20
1.3483495848139451
 30
0.0
 40
0.125
  1
1-3/8" x 1-9/16"
  0
TEXT
  5
C8CD
  8
0
 10
5.3123996517984811
 20
1.1378846007302701
 30
0.0
 40
0.125
  1
800.66.TAGUE
  0
ENDBLK
  5
C8CF
  8
0
  0
BLOCK
  8
0
  2
*U9
 70
     1
 10
0.0
 20
0.0
 30
0.0
  3
*U9
  1

  0
TEXT
  5
C8D1
  8
0
 10
-385.7580743253551
 20
838.2627455404056
 30
0.0
 40
0.125
  1
Back Band
  0
TEXT
  5
C8D2
  8
0
 10
-385.74937719029373
 20
838.05390061089247
 30
0.0
 40
0.125
  1
TL-1
  0
TEXT
  5
C8D3
  8
0
 10
-385.76429874554611
 20
837.84343562680851
 30
0.0
 40
0.125
  1
1-3/8" x 1-9/16"
  0
TEXT
  5
C8D4
  8
0
 10
-385.75236150134418
 20
837.63297064272513
 30
0.0
 40
0.125
  1
800.66.TAGUE
  0
ENDBLK
  5
C8D6
  8
0
  0
BLOCK
  8
0
  2
A$C34D373A9
 70
     0
 10
0.0
 20
0.0
 30
0.0
  3
A$C34D373A9
  1

  0
INSERT
  5
D39C
  8
0
  2
*U52
 10
0.0
 20
0.0
 30
0.0
  0
LINE
  5
D39D
  8
0
 10
1.4999991446591701
 20
7.1602295468413777
 30
0.0
 11
1.4999991446591701
 21
6.7227295468413777
 31
0.0
  0
LINE
  5
D39E
  8
0
 10
-0.0000008553408293
 20
6.8789795468413777
 30
0.0
 11
-0.0000008553408293
 21
7.7539795468413777
 31
0.0
  0
LINE
  5
D39F
  8
0
 10
1.4999991446591701
 20
6.7227295468413777
 30
0.0
 11
3.5885796249544342
 21
6.7227295468413777
 31
0.0
  0
LINE
  5
D3A0
  8
0
 10
-0.0000008553408293
 20
6.8789795468413777
 30
0.0
 11
1.4999991446591701
 21
7.1602295468413777
 31
0.0
  0
LINE
  5
D3A1
  8
0
 10
-0.0000008553408293
 20
7.7539795468413777
 30
0.0
 11
3.8746939987630631
 21
7.7539795468413777
 31
0.0
  0
POLYLINE
  8
0
  5
D488
  66
     1
 10
0.000000
 20
0.000000
 30
0.000000
  70
     8
  0
VERTEX
  8
0
  5
D489
 10
3.87469
 20
7.75398
 30
0.000000
  70
    32
  0
VERTEX
  8
0
  5
D48A
 10
3.87928
 20
7.75298
 30
0.000000
  70
    32
  0
VERTEX
  8
0
  5
D48B
 10
3.88385
 20
7.75188
 30
0.000000
  70
    32
  0
VERTEX
  8
0
  5
D48C
 10
3.88839
 20
7.75068
 30
0.000000
  70
    32
  0
VERTEX
  8
0
  5
D48D
 10
3.89289
 20
7.74938
 30
0.000000
  70
    32
  0
VERTEX
  8
0
  5
D48E
 10
3.89738
 20
7.74799
 30
0.000000
  70
    32
  0
VERTEX
  8
0
  5
D48F
 10
3.90183
 20
7.74650
 30
0.000000
  70
    32
  0
VERTEX
  8
0
  5
D490
 10
3.90626
 20
7.74492
 30
0.000000
  70
    32
  0
VERTEX
  8
0
  5
D491
 10
3.91065
 20
7.74325
 30
0.000000
  70
    32
  0
VERTEX
  8
0
  5
D492
 10
3.91502
 20
7.74148
 30
0.000000
  70
    32
  0
VERTEX
  8
0
  5
D493
 10
3.91935
 20
7.73963
 30
0.000000
  70
    32
  0
VERTEX
  8
0
  5
D494
 10
3.92366
 20
7.73770
 30
0.000000
  70
    32
  0
VERTEX
  8
0
  5
D495
 10
3.92793
 20
7.73568
 30
0.000000
  70
    32
  0
VERTEX
  8
0
  5
D496
 10
3.93217
 20
7.73358
 30
0.000000
  70
    32
  0
VERTEX
  8
0
  5
D497
 10
3.93638
 20
7.73140
 30
0.000000
  70
    32
  0
VERTEX
  8
0
  5
D498
 10
3.94055
 20
7.72913
 30
0.000000
  70
    32
  0
VERTEX
  8
0
  5
D499
 10
3.94470
 20
7.72680
 30
0.000000
  70
    32
  0
VERTEX
  8
0
  5
D49A
 10
3.94880
 20
7.72438
 30
0.000000
  70
    32
  0
VERTEX
  8
0
  5
D49B
 10
3.95288
 20
7.72190
 30
0.000000
  70
    32
  0
VERTEX
  8
0
  5
D49C
 10
3.95692
 20
7.71934
 30
0.000000
  70
    32
  0
VERTEX
  8
0
  5
D49D
 10
3.96092
 20
7.71671
 30
0.000000
  70
    32
  0
VERTEX
  8
0
  5
D49E
 10
3.96489
 20
7.71402
 30
0.000000
  70
    32
  0
VERTEX
  8
0
  5
D49F
 10
3.96882
 20
7.71125
 30
0.000000
  70
    32
  0
VERTEX
  8
0
  5
D4A0
 10
3.97271
 20
7.70843
 30
0.000000
  70
    32
  0
VERTEX
  8
0
  5
D4A1
 10
3.97657
 20
7.70554
 30
0.000000
  70
    32
  0
VERTEX
  8
0
  5
D4A2
 10
3.98038
 20
7.70259
 30
0.000000
  70
    32
  0
VERTEX
  8
0
  5
D4A3
 10
3.98416
 20
7.69958
 30
0.000000
  70
    32
  0
VERTEX
  8
0
  5
D4A4
 10
3.98790
 20
7.69651
 30
0.000000
  70
    32
  0
VERTEX
  8
0
  5
D4A5
 10
3.99161
 20
7.69339
 30
0.000000
  70
    32
  0
VERTEX
  8
0
  5
D4A6
 10
3.99527
 20
7.69021
 30
0.000000
  70
    32
  0
VERTEX
  8
0
  5
D4A7
 10
3.99889
 20
7.68698
 30
0.000000
  70
    32
  0
VERTEX
  8
0
  5
D4A8
 10
4.00247
 20
7.68370
 30
0.000000
  70
    32
  0
VERTEX
  8
0
  5
D4A9
 10
4.00600
 20
7.68038
 30
0.000000
  70
    32
  0
VERTEX
  8
0
  5
D4AA
 10
4.00950
 20
7.67700
 30
0.000000
  70
    32
  0
VERTEX
  8
0
  5
D4AB
 10
4.01295
 20
7.67358
 30
0.000000
  70
    32
  0
VERTEX
  8
0
  5
D4AC
 10
4.01636
 20
7.67012
 30
0.000000
  70
    32
  0
VERTEX
  8
0
  5
D4AD
 10
4.01973
 20
7.66661
 30
0.000000
  70
    32
  0
VERTEX
  8
0
  5
D4AE
 10
4.02305
 20
7.66307
 30
0.000000
  70
    32
  0
VERTEX
  8
0
  5
D4AF
 10
4.02633
 20
7.65949
 30
0.000000
  70
    32
  0
VERTEX
  8
0
  5
D4B0
 10
4.02956
 20
7.65587
 30
0.000000
  70
    32
  0
VERTEX
  8
0
  5
D4B1
 10
4.03274
 20
7.65222
 30
0.000000
  70
    32
  0
VERTEX
  8
0
  5
D4B2
 10
4.03588
 20
7.64853
 30
0.000000
  70
    32
  0
VERTEX
  8
0
  5
D4B3
 10
4.03898
 20
7.64481
 30
0.000000
  70
    32
  0
VERTEX
  8
0
  5
D4B4
 10
4.04202
 20
7.64106
 30
0.000000
  70
    32
  0
VERTEX
  8
0
  5
D4B5
 10
4.04502
 20
7.63728
 30
0.000000
  70
    32
  0
VERTEX
  8
0
  5
D4B6
 10
4.04797
 20
7.63347
 30
0.000000
  70
    32
  0
VERTEX
  8
0
  5
D4B7
 10
4.05087
 20
7.62963
 30
0.000000
  70
    32
  0
VERTEX
  8
0
  5
D4B8
 10
4.05373
 20
7.62575
 30
0.000000
  70
    32
  0
VERTEX
  8
0
  5
D4B9
 10
4.05653
 20
7.62185
 30
0.000000
  70
    32
  0
VERTEX
  8
0
  5
D4BA
 10
4.05928
 20
7.61792
 30
0.000000
  70
    32
  0
VERTEX
  8
0
  5
D4BB
 10
4.06199
 20
7.61396
 30
0.000000
  70
    32
  0
VERTEX
  8
0
  5
D4BC
 10
4.06464
 20
7.60997
 30
0.000000
  70
    32
  0
VERTEX
  8
0
  5
D4BD
 10
4.06724
 20
7.60595
 30
0.000000
  70
    32
  0
VERTEX
  8
0
  5
D4BE
 10
4.06979
 20
7.60190
 30
0.000000
  70
    32
  0
VERTEX
  8
0
  5
D4BF
 10
4.07228
 20
7.59783
 30
0.000000
  70
    32
  0
VERTEX
  8
0
  5
D4C0
 10
4.07473
 20
7.59373
 30
0.000000
  70
    32
  0
VERTEX
  8
0
  5
D4C1
 10
4.07712
 20
7.58960
 30
0.000000
  70
    32
  0
VERTEX
  8
0
  5
D4C2
 10
4.07946
 20
7.58545
 30
0.000000
  70
    32
  0
VERTEX
  8
0
  5
D4C3
 10
4.08174
 20
7.58128
 30
0.000000
  70
    32
  0
VERTEX
  8
0
  5
D4C4
 10
4.08397
 20
7.57707
 30
0.000000
  70
    32
  0
VERTEX
  8
0
  5
D4C5
 10
4.08614
 20
7.57285
 30
0.000000
  70
    32
  0
VERTEX
  8
0
  5
D4C6
 10
4.08826
 20
7.56859
 30
0.000000
  70
    32
  0
VERTEX
  8
0
  5
D4C7
 10
4.09032
 20
7.56432
 30
0.000000
  70
    32
  0
VERTEX
  8
0
  5
D4C8
 10
4.09233
 20
7.56002
 30
0.000000
  70
    32
  0
VERTEX
  8
0
  5
D4C9
 10
4.09428
 20
7.55570
 30
0.000000
  70
    32
  0
VERTEX
  8
0
  5
D4CA
 10
4.09617
 20
7.55135
 30
0.000000
  70
    32
  0
VERTEX
  8
0
  5
D4CB
 10
4.09800
 20
7.54699
 30
0.000000
  70
    32
  0
VERTEX
  8
0
  5
D4CC
 10
4.09978
 20
7.54260
 30
0.000000
  70
    32
  0
VERTEX
  8
0
  5
D4CD
 10
4.10149
 20
7.53819
 30
0.000000
  70
    32
  0
VERTEX
  8
0
  5
D4CE
 10
4.10315
 20
7.53376
 30
0.000000
  70
    32
  0
VERTEX
  8
0
  5
D4CF
 10
4.10475
 20
7.52931
 30
0.000000
  70
    32
  0
VERTEX
  8
0
  5
D4D0
 10
4.10628
 20
7.52484
 30
0.000000
  70
    32
  0
VERTEX
  8
0
  5
D4D1
 10
4.10776
 20
7.52035
 30
0.000000
  70
    32
  0
VERTEX
  8
0
  5
D4D2
 10
4.10918
 20
7.51584
 30
0.000000
  70
    32
  0
VERTEX
  8
0
  5
D4D3
 10
4.11053
 20
7.51131
 30
0.000000
  70
    32
  0
VERTEX
  8
0
  5
D4D4
 10
4.11182
 20
7.50676
 30
0.000000
  70
    32
  0
VERTEX
  8
0
  5
D4D5
 10
4.11305
 20
7.50220
 30
0.000000
  70
    32
  0
VERTEX
  8
0
  5
D4D6
 10
4.11422
 20
7.49761
 30
0.000000
  70
    32
  0
VERTEX
  8
0
  5
D4D7
 10
4.11532
 20
7.49301
 30
0.000000
  70
    32
  0
VERTEX
  8
0
  5
D4D8
 10
4.11636
 20
7.48840
 30
0.000000
  70
    32
  0
VERTEX
  8
0
  5
D4D9
 10
4.11734
 20
7.48377
 30
0.000000
  70
    32
  0
VERTEX
  8
0
  5
D4DA
 10
4.11825
 20
7.47912
 30
0.000000
  70
    32
  0
VERTEX
  8
0
  5
D4DB
 10
4.11909
 20
7.47445
 30
0.000000
  70
    32
  0
VERTEX
  8
0
  5
D4DC
 10
4.11987
 20
7.46977
 30
0.000000
  70
    32
  0
VERTEX
  8
0
  5
D4DD
 10
4.12059
 20
7.46508
 30
0.000000
  70
    32
  0
VERTEX
  8
0
  5
D4DE
 10
4.12123
 20
7.46037
 30
0.000000
  70
    32
  0
VERTEX
  8
0
  5
D4DF
 10
4.12181
 20
7.45565
 30
0.000000
  70
    32
  0
VERTEX
  8
0
  5
D4E0
 10
4.12233
 20
7.45092
 30
0.000000
  70
    32
  0
VERTEX
  8
0
  5
D4E1
 10
4.12278
 20
7.44618
 30
0.000000
  70
    32
  0
VERTEX
  8
0
  5
D4E2
 10
4.12316
 20
7.44142
 30
0.000000
  70
    32
  0
VERTEX
  8
0
  5
D4E3
 10
4.12348
 20
7.43666
 30
0.000000
  70
    32
  0
VERTEX
  8
0
  5
D4E4
 10
4.12374
 20
7.43189
 30
0.000000
  70
    32
  0
VERTEX
  8
0
  5
D4E5
 10
4.12393
 20
7.42711
 30
0.000000
  70
    32
  0
VERTEX
  8
0
  5
D4E6
 10
4.12406
 20
7.42232
 30
0.000000
  70
    32
  0
VERTEX
  8
0
  5
D4E7
 10
4.12412
 20
7.41753
 30
0.000000
  70
    32
  0
VERTEX
  8
0
  5
D4E8
 10
4.12412
 20
7.41273
 30
0.000000
  70
    32
  0
VERTEX
  8
0
  5
D4E9
 10
4.12406
 20
7.40793
 30
0.000000
  70
    32
  0
VERTEX
  8
0
  5
D4EA
 10
4.12394
 20
7.40313
 30
0.000000
  70
    32
  0
VERTEX
  8
0
  5
D4EB
 10
4.12375
 20
7.39832
 30
0.000000
  70
    32
  0
VERTEX
  8
0
  5
D4EC
 10
4.12350
 20
7.39352
 30
0.000000
  70
    32
  0
VERTEX
  8
0
  5
D4ED
 10
4.12319
 20
7.38871
 30
0.000000
  70
    32
  0
VERTEX
  8
0
  5
D4EE
 10
4.12282
 20
7.38390
 30
0.000000
  70
    32
  0
VERTEX
  8
0
  5
D4EF
 10
4.12238
 20
7.37910
 30
0.000000
  70
    32
  0
VERTEX
  8
0
  5
D4F0
 10
4.12189
 20
7.37430
 30
0.000000
  70
    32
  0
VERTEX
  8
0
  5
D4F1
 10
4.12134
 20
7.36950
 30
0.000000
  70
    32
  0
VERTEX
  8
0
  5
D4F2
 10
4.12072
 20
7.36470
 30
0.000000
  70
    32
  0
VERTEX
  8
0
  5
D4F3
 10
4.12005
 20
7.35991
 30
0.000000
  70
    32
  0
VERTEX
  8
0
  5
D4F4
 10
4.11932
 20
7.35513
 30
0.000000
  70
    32
  0
VERTEX
  8
0
  5
D4F5
 10
4.11853
 20
7.35035
 30
0.000000
  70
    32
  0
VERTEX
  8
0
  5
D4F6
 10
4.11767
 20
7.34559
 30
0.000000
  70
    32
  0
VERTEX
  8
0
  5
D4F7
 10
4.11677
 20
7.34083
 30
0.000000
  70
    32
  0
VERTEX
  8
0
  5
D4F8
 10
4.11580
 20
7.33608
 30
0.000000
  70
    32
  0
VERTEX
  8
0
  5
D4F9
 10
4.11477
 20
7.33134
 30
0.000000
  70
    32
  0
VERTEX
  8
0
  5
D4FA
 10
4.11369
 20
7.32661
 30
0.000000
  70
    32
  0
VERTEX
  8
0
  5
D4FB
 10
4.11255
 20
7.32189
 30
0.000000
  70
    32
  0
VERTEX
  8
0
  5
D4FC
 10
4.11136
 20
7.31719
 30
0.000000
  70
    32
  0
VERTEX
  8
0
  5
D4FD
 10
4.11010
 20
7.31251
 30
0.000000
  70
    32
  0
VERTEX
  8
0
  5
D4FE
 10
4.10879
 20
7.30783
 30
0.000000
  70
    32
  0
VERTEX
  8
0
  5
D4FF
 10
4.10743
 20
7.30318
 30
0.000000
  70
    32
  0
VERTEX
  8
0
  5
D500
 10
4.10601
 20
7.29854
 30
0.000000
  70
    32
  0
VERTEX
  8
0
  5
D501
 10
4.10453
 20
7.29392
 30
0.000000
  70
    32
  0
VERTEX
  8
0
  5
D502
 10
4.10300
 20
7.28932
 30
0.000000
  70
    32
  0
VERTEX
  8
0
  5
D503
 10
4.10142
 20
7.28474
 30
0.000000
  70
    32
  0
VERTEX
  8
0
  5
D504
 10
4.09978
 20
7.28017
 30
0.000000
  70
    32
  0
VERTEX
  8
0
  5
D505
 10
4.09808
 20
7.27563
 30
0.000000
  70
    32
  0
VERTEX
  8
0
  5
D506
 10
4.09634
 20
7.27112
 30
0.000000
  70
    32
  0
VERTEX
  8
0
  5
D507
 10
4.09454
 20
7.26662
 30
0.000000
  70
    32
  0
VERTEX
  8
0
  5
D508
 10
4.09268
 20
7.26216
 30
0.000000
  70
    32
  0
VERTEX
  8
0
  5
D509
 10
4.09078
 20
7.25771
 30
0.000000
  70
    32
  0
VERTEX
  8
0
  5
D50A
 10
4.08882
 20
7.25329
 30
0.000000
  70
    32
  0
VERTEX
  8
0
  5
D50B
 10
4.08681
 20
7.24890
 30
0.000000
  70
    32
  0
VERTEX
  8
0
  5
D50C
 10
4.08474
 20
7.24454
 30
0.000000
  70
    32
  0
VERTEX
  8
0
  5
D50D
 10
4.08263
 20
7.24021
 30
0.000000
  70
    32
  0
VERTEX
  8
0
  5
D50E
 10
4.08047
 20
7.23591
 30
0.000000
  70
    32
  0
VERTEX
  8
0
  5
D50F
 10
4.07825
 20
7.23163
 30
0.000000
  70
    32
  0
VERTEX
  8
0
  5
D510
 10
4.07598
 20
7.22739
 30
0.000000
  70
    32
  0
VERTEX
  8
0
  5
D511
 10
4.07367
 20
7.22318
 30
0.000000
  70
    32
  0
VERTEX
  8
0
  5
D512
 10
4.07130
 20
7.21901
 30
0.000000
  70
    32
  0
VERTEX
  8
0
  5
D513
 10
4.06889
 20
7.21487
 30
0.000000
  70
    32
  0
VERTEX
  8
0
  5
D514
 10
4.06642
 20
7.21076
 30
0.000000
  70
    32
  0
VERTEX
  8
0
  5
D515
 10
4.06391
 20
7.20670
 30
0.000000
  70
    32
  0
VERTEX
  8
0
  5
D516
 10
4.06135
 20
7.20266
 30
0.000000
  70
    32
  0
VERTEX
  8
0
  5
D517
 10
4.05874
 20
7.19867
 30
0.000000
  70
    32
  0
VERTEX
  8
0
  5
D518
 10
4.05608
 20
7.19472
 30
0.000000
  70
    32
  0
VERTEX
  8
0
  5
D519
 10
4.05337
 20
7.19080
 30
0.000000
  70
    32
  0
VERTEX
  8
0
  5
D51A
 10
4.05062
 20
7.18693
 30
0.000000
  70
    32
  0
VERTEX
  8
0
  5
D51B
 10
4.04782
 20
7.18310
 30
0.000000
  70
    32
  0
VERTEX
  8
0
  5
D51C
 10
4.04497
 20
7.17931
 30
0.000000
  70
    32
  0
VERTEX
  8
0
  5
D51D
 10
4.04208
 20
7.17556
 30
0.000000
  70
    32
  0
VERTEX
  8
0
  5
D51E
 10
4.03914
 20
7.17185
 30
0.000000
  70
    32
  0
VERTEX
  8
0
  5
D51F
 10
4.03616
 20
7.16818
 30
0.000000
  70
    32
  0
VERTEX
  8
0
  5
D520
 10
4.03314
 20
7.16455
 30
0.000000
  70
    32
  0
VERTEX
  8
0
  5
D521
 10
4.03008
 20
7.16096
 30
0.000000
  70
    32
  0
VERTEX
  8
0
  5
D522
 10
4.02697
 20
7.15741
 30
0.000000
  70
    32
  0
VERTEX
  8
0
  5
D523
 10
4.02382
 20
7.15390
 30
0.000000
  70
    32
  0
VERTEX
  8
0
  5
D524
 10
4.02063
 20
7.15043
 30
0.000000
  70
    32
  0
VERTEX
  8
0
  5
D525
 10
4.01741
 20
7.14699
 30
0.000000
  70
    32
  0
VERTEX
  8
0
  5
D526
 10
4.01414
 20
7.14359
 30
0.000000
  70
    32
  0
VERTEX
  8
0
  5
D527
 10
4.01084
 20
7.14022
 30
0.000000
  70
    32
  0
VERTEX
  8
0
  5
D528
 10
4.00750
 20
7.13690
 30
0.000000
  70
    32
  0
VERTEX
  8
0
  5
D529
 10
4.00413
 20
7.13360
 30
0.000000
  70
    32
  0
VERTEX
  8
0
  5
D52A
 10
4.00072
 20
7.13035
 30
0.000000
  70
    32
  0
VERTEX
  8
0
  5
D52B
 10
3.99728
 20
7.12712
 30
0.000000
  70
    32
  0
VERTEX
  8
0
  5
D52C
 10
3.99380
 20
7.12394
 30
0.000000
  70
    32
  0
VERTEX
  8
0
  5
D52D
 10
3.99029
 20
7.12078
 30
0.000000
  70
    32
  0
VERTEX
  8
0
  5
D52E
 10
3.98675
 20
7.11766
 30
0.000000
  70
    32
  0
VERTEX
  8
0
  5
D52F
 10
3.98318
 20
7.11457
 30
0.000000
  70
    32
  0
VERTEX
  8
0
  5
D530
 10
3.97957
 20
7.11152
 30
0.000000
  70
    32
  0
VERTEX
  8
0
  5
D531
 10
3.97594
 20
7.10849
 30
0.000000
  70
    32
  0
VERTEX
  8
0
  5
D532
 10
3.97228
 20
7.10550
 30
0.000000
  70
    32
  0
VERTEX
  8
0
  5
D533
 10
3.96859
 20
7.10254
 30
0.000000
  70
    32
  0
VERTEX
  8
0
  5
D534
 10
3.96488
 20
7.09961
 30
0.000000
  70
    32
  0
VERTEX
  8
0
  5
D535
 10
3.96114
 20
7.09670
 30
0.000000
  70
    32
  0
VERTEX
  8
0
  5
D536
 10
3.95737
 20
7.09383
 30
0.000000
  70
    32
  0
VERTEX
  8
0
  5
D537
 10
3.95358
 20
7.09099
 30
0.000000
  70
    32
  0
VERTEX
  8
0
  5
D538
 10
3.94976
 20
7.08818
 30
0.000000
  70
    32
  0
VERTEX
  8
0
  5
D539
 10
3.94592
 20
7.08539
 30
0.000000
  70
    32
  0
VERTEX
  8
0
  5
D53A
 10
3.94206
 20
7.08263
 30
0.000000
  70
    32
  0
VERTEX
  8
0
  5
D53B
 10
3.93818
 20
7.07990
 30
0.000000
  70
    32
  0
VERTEX
  8
0
  5
D53C
 10
3.93428
 20
7.07720
 30
0.000000
  70
    32
  0
VERTEX
  8
0
  5
D53D
 10
3.93036
 20
7.07452
 30
0.000000
  70
    32
  0
VERTEX
  8
0
  5
D53E
 10
3.92641
 20
7.07187
 30
0.000000
  70
    32
  0
VERTEX
  8
0
  5
D53F
 10
3.92245
 20
7.06924
 30
0.000000
  70
    32
  0
VERTEX
  8
0
  5
D540
 10
3.91848
 20
7.06664
 30
0.000000
  70
    32
  0
VERTEX
  8
0
  5
D541
 10
3.91448
 20
7.06406
 30
0.000000
  70
    32
  0
VERTEX
  8
0
  5
D542
 10
3.91047
 20
7.06151
 30
0.000000
  70
    32
  0
VERTEX
  8
0
  5
D543
 10
3.90645
 20
7.05898
 30
0.000000
  70
    32
  0
VERTEX
  8
0
  5
D544
 10
3.90241
 20
7.05647
 30
0.000000
  70
    32
  0
VERTEX
  8
0
  5
D545
 10
3.89836
 20
7.05399
 30
0.000000
  70
    32
  0
VERTEX
  8
0
  5
D546
 10
3.89430
 20
7.05153
 30
0.000000
  70
    32
  0
VERTEX
  8
0
  5
D547
 10
3.89022
 20
7.04909
 30
0.000000
  70
    32
  0
VERTEX
  8
0
  5
D548
 10
3.88613
 20
7.04667
 30
0.000000
  70
    32
  0
VERTEX
  8
0
  5
D549
 10
3.88203
 20
7.04427
 30
0.000000
  70
    32
  0
VERTEX
  8
0
  5
D54A
 10
3.87793
 20
7.04190
 30
0.000000
  70
    32
  0
VERTEX
  8
0
  5
D54B
 10
3.87381
 20
7.03954
 30
0.000000
  70
    32
  0
VERTEX
  8
0
  5
D54C
 10
3.86969
 20
7.03719
 30
0.000000
  70
    32
  0
VERTEX
  8
0
  5
D54D
 10
3.86557
 20
7.03486
 30
0.000000
  70
    32
  0
VERTEX
  8
0
  5
D54E
 10
3.86143
 20
7.03254
 30
0.000000
  70
    32
  0
VERTEX
  8
0
  5
D54F
 10
3.85730
 20
7.03023
 30
0.000000
  70
    32
  0
VERTEX
  8
0
  5
D550
 10
3.85316
 20
7.02793
 30
0.000000
  70
    32
  0
VERTEX
  8
0
  5
D551
 10
3.84903
 20
7.02563
 30
0.000000
  70
    32
  0
VERTEX
  8
0
  5
D552
 10
3.84489
 20
7.02334
 30
0.000000
  70
    32
  0
VERTEX
  8
0
  5
D553
 10
3.84075
 20
7.02105
 30
0.000000
  70
    32
  0
VERTEX
  8
0
  5
D554
 10
3.83662
 20
7.01876
 30
0.000000
  70
    32
  0
VERTEX
  8
0
  5
D555
 10
3.83249
 20
7.01647
 30
0.000000
  70
    32
  0
VERTEX
  8
0
  5
D556
 10
3.82837
 20
7.01418
 30
0.000000
  70
    32
  0
VERTEX
  8
0
  5
D557
 10
3.82425
 20
7.01188
 30
0.000000
  70
    32
  0
VERTEX
  8
0
  5
D558
 10
3.82014
 20
7.00957
 30
0.000000
  70
    32
  0
VERTEX
  8
0
  5
D559
 10
3.81604
 20
7.00726
 30
0.000000
  70
    32
  0
VERTEX
  8
0
  5
D55A
 10
3.81194
 20
7.00493
 30
0.000000
  70
    32
  0
VERTEX
  8
0
  5
D55B
 10
3.80786
 20
7.00260
 30
0.000000
  70
    32
  0
VERTEX
  8
0
  5
D55C
 10
3.80379
 20
7.00024
 30
0.000000
  70
    32
  0
VERTEX
  8
0
  5
D55D
 10
3.79973
 20
6.99788
 30
0.000000
  70
    32
  0
VERTEX
  8
0
  5
D55E
 10
3.79569
 20
6.99549
 30
0.000000
  70
    32
  0
VERTEX
  8
0
  5
D55F
 10
3.79166
 20
6.99308
 30
0.000000
  70
    32
  0
VERTEX
  8
0
  5
D560
 10
3.78765
 20
6.99065
 30
0.000000
  70
    32
  0
VERTEX
  8
0
  5
D561
 10
3.78366
 20
6.98820
 30
0.000000
  70
    32
  0
VERTEX
  8
0
  5
D562
 10
3.77968
 20
6.98572
 30
0.000000
  70
    32
  0
VERTEX
  8
0
  5
D563
 10
3.77573
 20
6.98321
 30
0.000000
  70
    32
  0
VERTEX
  8
0
  5
D564
 10
3.77180
 20
6.98068
 30
0.000000
  70
    32
  0
VERTEX
  8
0
  5
D565
 10
3.76789
 20
6.97811
 30
0.000000
  70
    32
  0
VERTEX
  8
0
  5
D566
 10
3.76400
 20
6.97551
 30
0.000000
  70
    32
  0
VERTEX
  8
0
  5
D567
 10
3.76014
 20
6.97287
 30
0.000000
  70
    32
  0
VERTEX
  8
0
  5
D568
 10
3.75630
 20
6.97020
 30
0.000000
  70
    32
  0
VERTEX
  8
0
  5
D569
 10
3.75249
 20
6.96749
 30
0.000000
  70
    32
  0
VERTEX
  8
0
  5
D56A
 10
3.74871
 20
6.96473
 30
0.000000
  70
    32
  0
VERTEX
  8
0
  5
D56B
 10
3.74496
 20
6.96194
 30
0.000000
  70
    32
  0
VERTEX
  8
0
  5
D56C
 10
3.74124
 20
6.95910
 30
0.000000
  70
    32
  0
VERTEX
  8
0
  5
D56D
 10
3.73756
 20
6.95621
 30
0.000000
  70
    32
  0
VERTEX
  8
0
  5
D56E
 10
3.73390
 20
6.95327
 30
0.000000
  70
    32
  0
VERTEX
  8
0
  5
D56F
 10
3.73028
 20
6.95029
 30
0.000000
  70
    32
  0
VERTEX
  8
0
  5
D570
 10
3.72669
 20
6.94725
 30
0.000000
  70
    32
  0
VERTEX
  8
0
  5
D571
 10
3.72314
 20
6.94417
 30
0.000000
  70
    32
  0
VERTEX
  8
0
  5
D572
 10
3.71962
 20
6.94104
 30
0.000000
  70
    32
  0
VERTEX
  8
0
  5
D573
 10
3.71614
 20
6.93786
 30
0.000000
  70
    32
  0
VERTEX
  8
0
  5
D574
 10
3.71269
 20
6.93463
 30
0.000000
  70
    32
  0
VERTEX
  8
0
  5
D575
 10
3.70928
 20
6.93136
 30
0.000000
  70
    32
  0
VERTEX
  8
0
  5
D576
 10
3.70591
 20
6.92804
 30
0.000000
  70
    32
  0
VERTEX
  8
0
  5
D577
 10
3.70257
 20
6.92468
 30
0.000000
  70
    32
  0
VERTEX
  8
0
  5
D578
 10
3.69927
 20
6.92128
 30
0.000000
  70
    32
  0
VERTEX
  8
0
  5
D579
 10
3.69601
 20
6.91783
 30
0.000000
  70
    32
  0
VERTEX
  8
0
  5
D57A
 10
3.69278
 20
6.91434
 30
0.000000
  70
    32
  0
VERTEX
  8
0
  5
D57B
 10
3.68959
 20
6.91081
 30
0.000000
  70
    32
  0
VERTEX
  8
0
  5
D57C
 10
3.68644
 20
6.90724
 30
0.000000
  70
    32
  0
VERTEX
  8
0
  5
D57D
 10
3.68332
 20
6.90363
 30
0.000000
  70
    32
  0
VERTEX
  8
0
  5
D57E
 10
3.68024
 20
6.89998
 30
0.000000
  70
    32
  0
VERTEX
  8
0
  5
D57F
 10
3.67720
 20
6.89629
 30
0.000000
  70
    32
  0
VERTEX
  8
0
  5
D580
 10
3.67420
 20
6.89257
 30
0.000000
  70
    32
  0
VERTEX
  8
0
  5
D581
 10
3.67124
 20
6.88881
 30
0.000000
  70
    32
  0
VERTEX
  8
0
  5
D582
 10
3.66832
 20
6.88502
 30
0.000000
  70
    32
  0
VERTEX
  8
0
  5
D583
 10
3.66544
 20
6.88119
 30
0.000000
  70
    32
  0
VERTEX
  8
0
  5
D584
 10
3.66259
 20
6.87733
 30
0.000000
  70
    32
  0
VERTEX
  8
0
  5
D585
 10
3.65979
 20
6.87343
 30
0.000000
  70
    32
  0
VERTEX
  8
0
  5
D586
 10
3.65702
 20
6.86950
 30
0.000000
  70
    32
  0
VERTEX
  8
0
  5
D587
 10
3.65430
 20
6.86555
 30
0.000000
  70
    32
  0
VERTEX
  8
0
  5
D588
 10
3.65162
 20
6.86156
 30
0.000000
  70
    32
  0
VERTEX
  8
0
  5
D589
 10
3.64897
 20
6.85754
 30
0.000000
  70
    32
  0
VERTEX
  8
0
  5
D58A
 10
3.64637
 20
6.85349
 30
0.000000
  70
    32
  0
VERTEX
  8
0
  5
D58B
 10
3.64381
 20
6.84942
 30
0.000000
  70
    32
  0
VERTEX
  8
0
  5
D58C
 10
3.64129
 20
6.84531
 30
0.000000
  70
    32
  0
VERTEX
  8
0
  5
D58D
 10
3.63881
 20
6.84119
 30
0.000000
  70
    32
  0
VERTEX
  8
0
  5
D58E
 10
3.63638
 20
6.83703
 30
0.000000
  70
    32
  0
VERTEX
  8
0
  5
D58F
 10
3.63399
 20
6.83285
 30
0.000000
  70
    32
  0
VERTEX
  8
0
  5
D590
 10
3.63163
 20
6.82865
 30
0.000000
  70
    32
  0
VERTEX
  8
0
  5
D591
 10
3.62933
 20
6.82442
 30
0.000000
  70
    32
  0
VERTEX
  8
0
  5
D592
 10
3.62706
 20
6.82018
 30
0.000000
  70
    32
  0
VERTEX
  8
0
  5
D593
 10
3.62484
 20
6.81591
 30
0.000000
  70
    32
  0
VERTEX
  8
0
  5
D594
 10
3.62266
 20
6.81162
 30
0.000000
  70
    32
  0
VERTEX
  8
0
  5
D595
 10
3.62052
 20
6.80731
 30
0.000000
  70
    32
  0
VERTEX
  8
0
  5
D596
 10
3.61843
 20
6.80298
 30
0.000000
  70
    32
  0
VERTEX
  8
0
  5
D597
 10
3.61639
 20
6.79863
 30
0.000000
  70
    32
  0
VERTEX
  8
0
  5
D598
 10
3.61438
 20
6.79427
 30
0.000000
  70
    32
  0
VERTEX
  8
0
  5
D599
 10
3.61243
 20
6.78989
 30
0.000000
  70
    32
  0
VERTEX
  8
0
  5
D59A
 10
3.61051
 20
6.78549
 30
0.000000
  70
    32
  0
VERTEX
  8
0
  5
D59B
 10
3.60864
 20
6.78108
 30
0.000000
  70
    32
  0
VERTEX
  8
0
  5
D59C
 10
3.60682
 20
6.77665
 30
0.000000
  70
    32
  0
VERTEX
  8
0
  5
D59D
 10
3.60504
 20
6.77221
 30
0.000000
  70
    32
  0
VERTEX
  8
0
  5
D59E
 10
3.60331
 20
6.76776
 30
0.000000
  70
    32
  0
VERTEX
  8
0
  5
D59F
 10
3.60163
 20
6.76330
 30
0.000000
  70
    32
  0
VERTEX
  8
0
  5
D5A0
 10
3.59999
 20
6.75882
 30
0.000000
  70
    32
  0
VERTEX
  8
0
  5
D5A1
 10
3.59840
 20
6.75434
 30
0.000000
  70
    32
  0
VERTEX
  8
0
  5
D5A2
 10
3.59685
 20
6.74984
 30
0.000000
  70
    32
  0
VERTEX
  8
0
  5
D5A3
 10
3.59535
 20
6.74534
 30
0.000000
  70
    32
  0
VERTEX
  8
0
  5
D5A4
 10
3.59390
 20
6.74083
 30
0.000000
  70
    32
  0
VERTEX
  8
0
  5
D5A5
 10
3.59250
 20
6.73631
 30
0.000000
  70
    32
  0
VERTEX
  8
0
  5
D5A6
 10
3.59115
 20
6.73179
 30
0.000000
  70
    32
  0
VERTEX
  8
0
  5
D5A7
 10
3.58984
 20
6.72726
 30
0.000000
  70
    32
  0
VERTEX
  8
0
  5
D5A8
 10
3.58858
 20
6.72273
 30
0.000000
  70
    32
  0
SEQEND
  8
0
  5
D5A9
  0
LINE
  5
D3A3
  8
FRAME_0500
 10
7.0314568728199438
 20
12.260003544241041
 30
0.0
 11
7.0314568728199438
 21
0.000000749505034
 31
0.0
  0
ENDBLK
  5
D3A5
  8
0
  0
BLOCK
  8
0
  2
*U27
 70
     1
 10
0.0
 20
0.0
 30
0.0
  3
*U27
  1

  0
TEXT
  5
D3C8
  8
0
 10
1.801309719190612
 20
0.7422271098238867
 30
0.0
 40
0.125
  1
Solid Crown
  0
TEXT
  5
D3C9
  8
0
 10
1.801309719190612
 20
0.5338937764905534
 30
0.0
 40
0.125
  1
TL-2182
  0
TEXT
  5
D3CA
  8
0
 10
1.801309719190612
 20
0.32556044315722
 30
0.0
 40
0.125
  1
1-1/32" x 1-5/16"
  0
TEXT
  5
D3CB
  8
0
 10
1.801309719190612
 20
0.1172271098238866
 30
0.0
 40
0.125
  1
800.66.TAGUE
  0
ENDBLK
  5
D3CD
  8
0
  0
BLOCK
  8
0
  2
*U28
 70
     1
 10
0.0
 20
0.0
 30
0.0
  3
*U28
  1

  0
TEXT
  5
D3CF
  8
0
 10
1.625113436446326
 20
0.9370028111704301
 30
0.0
 40
0.125
  1
Solid Crown
  0
TEXT
  5
D3D0
  8
0
 10
1.625113436446326
 20
0.7286694778370969
 30
0.0
 40
0.125
  1
TL-2157
  0
TEXT
  5
D3D1
  8
0
 10
1.625113436446326
 20
0.5203361445037635
 30
0.0
 40
0.125
  1
1-9/32" x 2"
  0
TEXT
  5
D3D2
  8
0
 10
1.625113436446326
 20
0.31200281117043
 30
0.0
 40
0.125
  1
800.66.TAGUE
  0
ENDBLK
  5
D3D4
  8
0
  0
BLOCK
  8
0
  2
*U29
 70
     1
 10
0.0
 20
0.0
 30
0.0
  3
*U29
  1

  0
TEXT
  5
D3D6
  8
0
 10
1.920486779030625
 20
0.9014428381942138
 30
0.0
 40
0.125
  1
Solid Crown
  0
TEXT
  5
D3D7
  8
0
 10
1.920486779030625
 20
0.6931095048608807
 30
0.0
 40
0.125
  1
TL-2188
  0
TEXT
  5
D3D8
  8
0
 10
1.920486779030625
 20
0.4847761715275473
 30
0.0
 40
0.125
  1
1-5/8" x 2"
  0
TEXT
  5
D3D9
  8
0
 10
1.920486779030625
 20
0.2764428381942139
 30
0.0
 40
0.125
  1
800.66.TAGUE
  0
ENDBLK
  5
D3DB
  8
0
  0
BLOCK
  8
0
  2
*U30
 70
     1
 10
0.0
 20
0.0
 30
0.0
  3
*U30
  1

  0
TEXT
  5
D3DD
  8
0
 10
1.746815334566576
 20
0.7356822575717957
 30
0.0
 40
0.125
  1
Solid Crown
  0
TEXT
  5
D3DE
  8
0
 10
1.746815334566576
 20
0.5273489242384624
 30
0.0
 40
0.125
  1
TL-2235
  0
TEXT
  5
D3DF
  8
0
 10
1.746815334566576
 20
0.319015590905129
 30
0.0
 40
0.125
  1
11/16" x 15/16"
  0
TEXT
  5
D3E0
  8
0
 10
1.746815334566576
 20
0.1106822575717956
 30
0.0
 40
0.125
  1
800.66.TAGUE
  0
ENDBLK
  5
D3E2
  8
0
  0
BLOCK
  8
0
  2
*U31
 70
     1
 10
0.0
 20
0.0
 30
0.0
  3
*U31
  1

  0
TEXT
  5
D3E4
  8
0
 10
2.0509945988744671
 20
1.365453408895575
 30
0.0
 40
0.125
  1
Solid Crown
  0
TEXT
  5
D3E5
  8
0
 10
2.0509945988744671
 20
1.1571200755622419
 30
0.0
 40
0.125
  1
TL-339
  0
TEXT
  5
D3E6
  8
0
 10
2.0509945988744671
 20
0.948786742228909
 30
0.0
 40
0.125
  1
1-5/8" x 2-5/8"
  0
TEXT
  5
D3E7
  8
0
 10
2.0509945988744671
 20
0.7404534088955757
 30
0.0
 40
0.125
  1
800.66.TAGUE
  0
ENDBLK
  5
D3E9
  8
0
  0
BLOCK
  8
0
  2
*U32
 70
     1
 10
0.0
 20
0.0
 30
0.0
  3
*U32
  1

  0
TEXT
  5
D3EB
  8
0
 10
2.0562685683860868
 20
1.1925432374321749
 30
0.0
 40
0.125
  1
Solid Crown
  0
TEXT
  5
D3EC
  8
0
 10
2.0562685683860868
 20
0.9842099040988426
 30
0.0
 40
0.125
  1
TL-2249
  0
TEXT
  5
D3ED
  8
0
 10
2.0562685683860868
 20
0.7758765707655093
 30
0.0
 40
0.125
  1
1-1/8" x 1-7/8"
  0
TEXT
  5
D3EE
  8
0
 10
2.0562685683860868
 20
0.5675432374321759
 30
0.0
 40
0.125
  1
800.66.TAGUE
  0
ENDBLK
  5
D3F0
  8
0
  0
BLOCK
  8
0
  2
*U33
 70
     1
 10
0.0
 20
0.0
 30
0.0
  3
*U33
  1

  0
TEXT
  5
D3F2
  8
0
 10
1.34401033534931
 20
0.6780822238238784
 30
0.0
 40
0.125
  1
Solid Crown
  0
TEXT
  5
D3F3
  8
0
 10
1.34401033534931
 20
0.4697488904905451
 30
0.0
 40
0.125
  1
TL-2258
  0
TEXT
  5
D3F4
  8
0
 10
1.34401033534931
 20
0.2614155571572118
 30
0.0
 40
0.125
  1
5/8" x 3/4"
  0
TEXT
  5
D3F5
  8
0
 10
1.34401033534931
 20
0.0530822238238784
 30
0.0
 40
0.125
  1
800.66.TAGUE
  0
ENDBLK
  5
D3F7
  8
0
  0
BLOCK
  8
0
  2
*U34
 70
     1
 10
0.0
 20
0.0
 30
0.0
  3
*U34
  1

  0
TEXT
  5
D3F9
  8
0
 10
2.0597898518844882
 20
1.5819740602258321
 30
0.0
 40
0.125
  1
Solid Crown 
  0
TEXT
  5
D3FA
  8
0
 10
2.0597898518844882
 20
1.3736407268924979
 30
0.0
 40
0.125
  1
TL-2279
  0
TEXT
  5
D3FB
  8
0
 10
2.0597898518844882
 20
1.1653073935591649
 30
0.0
 40
0.125
  1
1-3/4"  x 2-3/4"
  0
TEXT
  5
D3FC
  8
0
 10
2.0597898518844882
 20
0.956974060225832
 30
0.0
 40
0.125
  1
800.66.TAGUE
  0
ENDBLK
  5
D3FE
  8
0
  0
BLOCK
  8
0
  2
*U35
 70
     1
 10
0.0
 20
0.0
 30
0.0
  3
*U35
  1

  0
TEXT
  5
D400
  8
0
 10
0.5926592555372281
 20
0.6780822487964429
 30
0.0
 40
0.125
  1
Solid Crown
  0
TEXT
  5
D401
  8
0
 10
0.5926592555372281
 20
0.4697489154631096
 30
0.0
 40
0.125
  1
TL-2321
  0
TEXT
  5
D402
  8
0
 10
0.5926592555372281
 20
0.2614155821297762
 30
0.0
 40
0.125
  1
1-7/8" x 2-1/4"
  0
TEXT
  5
D403
  8
0
 10
0.5926592555372281
 20
0.0530822487964429
 30
0.0
 40
0.125
  1
800.66.TAGUE
  0
ENDBLK
  5
D405
  8
0
  0
BLOCK
  8
0
  2
*U36
 70
     1
 10
0.0
 20
0.0
 30
0.0
  3
*U36
  1

  0
TEXT
  5
D407
  8
0
 10
0.054571907909974
 20
0.6780827931436875
 30
0.0
 40
0.125
  1
Solid Crown
  0
TEXT
  5
D408
  8
0
 10
0.054571907909974
 20
0.4697494598103542
 30
0.0
 40
0.125
  1
TL-2322
  0
TEXT
  5
D409
  8
0
 10
0.054571907909974
 20
0.2614161264770209
 30
0.0
 40
0.125
  1
1-1/4" x 2"
  0
TEXT
  5
D40A
  8
0
 10
0.054571907909974
 20
0.0530827931436875
 30
0.0
 40
0.125
  1
800.66.TAGUE
  0
ENDBLK
  5
D40C
  8
0
  0
BLOCK
  8
0
  2
*U37
 70
     1
 10
0.0
 20
0.0
 30
0.0
  3
*U37
  1

  0
TEXT
  5
D40E
  8
0
 10
2.812997521113572
 20
1.5103095468846841
 30
0.0
 40
0.125
  1
Solid Crown
  0
TEXT
  5
D40F
  8
0
 10
2.812997521113572
 20
1.3019762135513511
 30
0.0
 40
0.125
  1
TL-2325
  0
TEXT
  5
D410
  8
0
 10
2.812997521113572
 20
1.093642880218018
 30
0.0
 40
0.125
  1
1-3/4" x 2-7/8"
  0
TEXT
  5
D411
  8
0
 10
2.812997521113572
 20
0.8853095468846846
 30
0.0
 40
0.125
  1
800.66.TAGUE
  0
ENDBLK
  5
D413
  8
0
  0
BLOCK
  8
0
  2
*U38
 70
     1
 10
0.0
 20
0.0
 30
0.0
  3
*U38
  1

  0
INSERT
  5
D415
  8
0
  6
CONTINUOUS
  2
_OPEN30
 10
4.25007583112773
 20
4.0458778811966161
 30
0.0
 41
0.046875
 42
0.046875
 43
0.046875
 50
206.86004097467
  0
POLYLINE
  5
D416
  8
0
  6
CONTINUOUS
 66
     1
 10
0.0
 20
0.0
 30
0.0
  0
VERTEX
  5
D417
  8
0
  6
CONTINUOUS
 10
4.2918936208850731
 20
4.0670565989295362
 30
0.0
  0
VERTEX
  5
D418
  8
0
  6
CONTINUOUS
 10
4.7925223938993318
 20
4.3206012155668807
 30
0.0
  0
VERTEX
  5
D419
  8
0
  6
CONTINUOUS
 10
4.8767298800405001
 20
4.3228722330817666
 30
0.0
  0
SEQEND
  5
D41A
  8
0
  6
CONTINUOUS
  0
ENDBLK
  5
D41C
  8
0
  0
BLOCK
  8
0
  2
*U39
 70
     1
 10
0.0
 20
0.0
 30
0.0
  3
*U39
  1

  0
TEXT
  5
D41E
  8
0
 10
4.9392298800405001
 20
4.2603722330817666
 30
0.0
 40
0.125
  1
TL-1169
  0
ENDBLK
  5
D420
  8
0
  0
BLOCK
  8
0
  2
*U40
 70
     1
 10
0.0
 20
0.0
 30
0.0
  3
*U40
  1

  0
INSERT
  5
D422
  8
0
  6
CONTINUOUS
  2
_OPEN30
 10
3.015727299021818
 20
3.1861523687388451
 30
0.0
 41
0.046875
 42
0.046875
 43
0.046875
 50
136.65142556006271
  0
POLYLINE
  5
D423
  8
0
  6
CONTINUOUS
 66
     1
 10
0.0
 20
0.0
 30
0.0
  0
VERTEX
  5
D424
  8
0
  6
CONTINUOUS
 10
3.0498143804479341
 20
3.1539757234064099
 30
0.0
  0
VERTEX
  5
D425
  8
0
  6
CONTINUOUS
 10
3.5070580539338598
 20
2.722358615202352
 30
0.0
  0
VERTEX
  5
D426
  8
0
  6
CONTINUOUS
 10
3.6019889170380561
 20
2.722358615202352
 30
0.0
  0
SEQEND
  5
D427
  8
0
  6
CONTINUOUS
  0
ENDBLK
  5
D429
  8
0
  0
BLOCK
  8
0
  2
*U41
 70
     1
 10
0.0
 20
0.0
 30
0.0
  3
*U41
  1

  0
TEXT
  5
D42B
  8
0
 10
3.6644889170380561
 20
2.659858615202352
 30
0.0
 40
0.125
  1
TL-100
  0
ENDBLK
  5
D42D
  8
0
  0
BLOCK
  8
0
  2
*U42
 70
     1
 10
0.0
 20
0.0
 30
0.0
  3
*U42
  1

  0
INSERT
  5
D42F
  8
0
  6
CONTINUOUS
  2
_OPEN30
 10
2.6870017865641098
 20
1.8450005331302739
 30
0.0
 41
0.046875
 42
0.046875
 43
0.046875
 50
136.3900499074297
  0
POLYLINE
  5
D430
  8
0
  6
CONTINUOUS
 66
     1
 10
0.0
 20
0.0
 30
0.0
  0
VERTEX
  5
D431
  8
0
  6
CONTINUOUS
 10
2.720941728277904
 20
1.812668722456199
 30
0.0
  0
VERTEX
  5
D432
  8
0
  6
CONTINUOUS
 10
3.1314267320642548
 20
1.4216331827111901
 30
0.0
  0
VERTEX
  5
D433
  8
0
  6
CONTINUOUS
 10
3.2316706730279061
 20
1.4132916418840571
 30
0.0
  0
SEQEND
  5
D434
  8
0
  6
CONTINUOUS
  0
ENDBLK
  5
D436
  8
0
  0
BLOCK
  8
0
  2
*U43
 70
     1
 10
0.0
 20
0.0
 30
0.0
  3
*U43
  1

  0
TEXT
  5
D438
  8
0
 10
3.2941706730279061
 20
1.3507916418840571
 30
0.0
 40
0.125
  1
TL-412
  0
ENDBLK
  5
D43A
  8
0
  0
BLOCK
  8
0
  2
*U44
 70
     1
 10
0.0
 20
0.0
 30
0.0
  3
*U44
  1

  0
TEXT
  5
D43C
  8
0
 10
0.1283225761480367
 20
1.8963519740894119
 30
0.0
 40
0.125
  1
Stool Assembly
  0
TEXT
  5
D43D
  8
0
 10
0.1283225761480367
 20
1.6880186407560791
 30
0.0
 40
0.125
  1
TL-640
  0
TEXT
  5
D43E
  8
0
 10
0.1283225761480367
 20
1.4796853074227461
 30
0.0
 40
0.125
  1
4-1/4" x 4-9/16"
  0
TEXT
  5
D43F
  8
0
 10
0.1283225761480367
 20
1.2713519740894119
 30
0.0
 40
0.125
  1
800.66.TAGUE
  0
ENDBLK
  5
D441
  8
0
  0
BLOCK
  8
0
  2
*U45
 70
     1
 10
0.0
 20
0.0
 30
0.0
  3
*U45
  1

  0
TEXT
  5
D443
  8
0
 10
0.3052749355636024
 20
1.3133121278941919
 30
0.0
 40
0.125
  1
Stool Assembly
  0
TEXT
  5
D444
  8
0
 10
0.3052749355636024
 20
1.1049787945608589
 30
0.0
 40
0.125
  1
TL-642
  0
TEXT
  5
D445
  8
0
 10
0.3052749355636024
 20
0.8966454612275262
 30
0.0
 40
0.125
  1
3-9/16" x 4-1/4"
  0
TEXT
  5
D446
  8
0
 10
0.3052749355636024
 20
0.6883121278941929
 30
0.0
 40
0.125
  1
800.66.TAGUE
  0
ENDBLK
  5
D448
  8
0
  0
BLOCK
  8
0
  2
*U46
 70
     1
 10
0.0
 20
0.0
 30
0.0
  3
*U46
  1

  0
INSERT
  5
D44A
  8
0
  6
CONTINUOUS
  2
_OPEN30
 10
4.2500004173678567
 20
3.125000325262504
 30
0.0
 41
0.046875
 42
0.046875
 43
0.046875
 50
220.9039207528615
  0
POLYLINE
  5
D44B
  8
0
  6
CONTINUOUS
 66
     1
 10
0.0
 20
0.0
 30
0.0
  0
VERTEX
  5
D44C
  8
0
  6
CONTINUOUS
 10
4.285428948467243
 20
3.1556937253533999
 30
0.0
  0
VERTEX
  5
D44D
  8
0
  6
CONTINUOUS
 10
4.8218309318424408
 20
3.620403951106169
 30
0.0
  0
VERTEX
  5
D44E
  8
0
  6
CONTINUOUS
 10
4.8826737540601917
 20
3.620403951106169
 30
0.0
  0
SEQEND
  5
D44F
  8
0
  6
CONTINUOUS
  0
ENDBLK
  5
D451
  8
0
  0
BLOCK
  8
0
  2
*U47
 70
     1
 10
0.0
 20
0.0
 30
0.0
  3
*U47
  1

  0
TEXT
  5
D453
  8
0
 10
4.9451737540601917
 20
3.557903951106169
 30
0.0
 40
0.125
  1
1-1/16" x 1-3/4" w/
  0
TEXT
  5
D454
  8
0
 10
4.9451737540601917
 20
3.349570617772835
 30
0.0
 40
0.125
  1
1/4" Bead
  0
ENDBLK
  5
D456
  8
0
  0
BLOCK
  8
0
  2
*U48
 70
     1
 10
0.0
 20
0.0
 30
0.0
  3
*U48
  1

  0
INSERT
  5
D458
  8
0
  6
CONTINUOUS
  2
_OPEN30
 10
3.2579528869749188
 20
1.406250325262504
 30
0.0
 41
0.046875
 42
0.046875
 43
0.046875
 50
156.86838037646939
  0
POLYLINE
  5
D459
  8
0
  6
CONTINUOUS
 66
     1
 10
0.0
 20
0.0
 30
0.0
  0
VERTEX
  5
D45A
  8
0
  6
CONTINUOUS
 10
3.3010593638282271
 20
1.387835731096593
 30
0.0
  0
VERTEX
  5
D45B
  8
0
  6
CONTINUOUS
 10
4.0288058775305444
 20
1.0769507392405151
 30
0.0
  0
VERTEX
  5
D45C
  8
0
  6
CONTINUOUS
 10
4.1146926397061634
 20
1.0769507392405151
 30
0.0
  0
SEQEND
  5
D45D
  8
0
  6
CONTINUOUS
  0
ENDBLK
  5
D45F
  8
0
  0
BLOCK
  8
0
  2
*U49
 70
     1
 10
0.0
 20
0.0
 30
0.0
  3
*U49
  1

  0
TEXT
  5
D461
  8
0
 10
4.1771926397061634
 20
1.0144507392405151
 30
0.0
 40
0.125
  1
3/4" x 2-1/2" w/
  0
TEXT
  5
D462
  8
0
 10
4.1771926397061634
 20
0.8061174059071825
 30
0.0
 40
0.125
  1
1/4" Bead
  0
ENDBLK
  5
D464
  8
0
  0
BLOCK
  8
0
  2
*U50
 70
     1
 10
0.0
 20
0.0
 30
0.0
  3
*U50
  1

  0
TEXT
  5
D466
  8
0
 10
2.2482544924862391
 20
2.450263826582272
 30
0.0
 40
0.125
  1
Stool
  0
TEXT
  5
D467
  8
0
 10
2.2482544924862391
 20
2.241930493248939
 30
0.0
 40
0.125
  1
TL-1159
  0
TEXT
  5
D468
  8
0
 10
2.2482544924862391
 20
2.0335971599156051
 30
0.0
 40
0.125
  1
1-1/16" x 5-1/2"
  0
TEXT
  5
D469
  8
0
 10
2.2482544924862391
 20
1.825263826582272
 30
0.0
 40
0.125
  1
800.66.TAGUE
  0
ENDBLK
  5
D46B
  8
0
  0
BLOCK
  8
0
  2
*U51
 70
     1
 10
0.0
 20
0.0
 30
0.0
  3
*U51
  1

  0
TEXT
  5
D46D
  8
0
 10
0.8191625160812918
 20
2.6766317664879571
 30
0.0
 40
0.125
  1
Stool
  0
TEXT
  5
D46E
  8
0
 10
0.8191625160812918
 20
2.468298433154624
 30
0.0
 40
0.125
  1
TL-1163
  0
TEXT
  5
D46F
  8
0
 10
0.8191625160812918
 20
2.259965099821291
 30
0.0
 40
0.125
  1
1-1/16" x 3-1/4"
  0
TEXT
  5
D470
  8
0
 10
0.8191625160812918
 20
2.0516317664879571
 30
0.0
 40
0.125
  1
800.66.TAGUE
  0
ENDBLK
  5
D472
  8
0
  0
BLOCK
  8
0
  2
*U52
 70
     1
 10
0.0
 20
0.0
 30
0.0
  3
*U52
  1

  0
TEXT
  5
D474
  8
0
 10
1.349062628679462
 20
9.5573777296123126
 30
0.0
 40
0.125
  1
Stool
  0
TEXT
  5
D475
  8
0
 10
1.349062628679462
 20
9.3490443962789787
 30
0.0
 40
0.125
  1
TL-1165
  0
TEXT
  5
D476
  8
0
 10
1.349062628679462
 20
9.1407110629456465
 30
0.0
 40
0.125
  1
1-1/16" x 4-3/16"
  0
TEXT
  5
D477
  8
0
 10
1.349062628679462
 20
8.9323777296123126
 30
0.0
 40
0.125
  1
800.66.TAGUE
  0
ENDBLK
  5
D479
  8
0
  0
BLOCK
  8
0
  2
*U53
 70
     1
 10
0.0
 20
0.0
 30
0.0
  3
*U53
  1

  0
TEXT
  5
D47B
  8
0
 10
1.349062628679462
 20
2.8346475372353548
 30
0.0
 40
0.125
  1
Stool
  0
TEXT
  5
D47C
  8
0
 10
1.349062628679462
 20
2.6263142039020209
 30
0.0
 40
0.125
  1
TL-1165
  0
TEXT
  5
D47D
  8
0
 10
1.349062628679462
 20
2.4179808705686878
 30
0.0
 40
0.125
  1
1-1/16" x 4-3/16"
  0
TEXT
  5
D47E
  8
0
 10
1.349062628679462
 20
2.2096475372353548
 30
0.0
 40
0.125
  1
800.66.TAGUE
  0
ENDBLK
  5
D480
  8
0
  0
BLOCK
  8
0
  2
*U54
 70
     1
 10
0.0
 20
0.0
 30
0.0
  3
*U54
  1

  0
TEXT
  5
D482
  8
0
 10
-387.86283226610573
 20
839.92160452059511
 30
0.0
 40
0.125
  1
Stool
  0
TEXT
  5
D483
  8
0
 10
-387.86283226610573
 20
839.71327118726185
 30
0.0
 40
0.125
  1
TL-1165
  0
TEXT
  5
D484
  8
0
 10
-387.86283226610573
 20
839.50493785392848
 30
0.0
 40
0.125
  1
1-1/16" x 4-3/16"
  0
TEXT
  5
D485
  8
0
 10
-387.86283226610573
 20
839.29660452059522
 30
0.0
 40
0.125
  1
800.66.TAGUE
  0
ENDBLK
  5
D487
  8
0
  0
ENDSEC
  0
SECTION
  2
ENTITIES
  0
INSERT
  5
D3B1
  8
0
  2
*U54
 10
0.0
 20
0.0
 30
0.0
  0
LINE
  5
D3B2
  8
0
 10
-387.71189575012602
 20
837.52445633782418
 30
0.0
 11
-387.71189575012602
 21
837.08695633782418
 31
0.0
  0
LINE
  5
D3B3
  8
0
 10
-389.21189575012602
 20
837.24320633782418
 30
0.0
 11
-389.21189575012602
 21
838.11820633782429
 31
0.0
  0
LINE
  5
D3B4
  8
0
 10
-387.71189575012602
 20
837.08695633782418
 30
0.0
 11
-385.62331526983081
 21
837.08695633782418
 31
0.0
  0
LINE
  5
D3B5
  8
0
 10
-389.21189575012602
 20
837.24320633782418
 30
0.0
 11
-387.71189575012602
 21
837.52445633782418
 31
0.0
  0
LINE
  5
D3B6
  8
0
 10
-389.21189575012602
 20
838.11820633782429
 30
0.0
 11
-385.33720089602213
 21
838.11820633782429
 31
0.0
  0
POLYLINE
  8
0
  5
D5AA
  66
     1
 10
0.000000
 20
0.000000
 30
0.000000
  70
     8
  0
VERTEX
  8
0
  5
D5AB
 10
-385.337
 20
838.118
 30
0.000000
  70
    32
  0
VERTEX
  8
0
  5
D5AC
 10
-385.333
 20
838.117
 30
0.000000
  70
    32
  0
VERTEX
  8
0
  5
D5AD
 10
-385.328
 20
838.116
 30
0.000000
  70
    32
  0
VERTEX
  8
0
  5
D5AE
 10
-385.324
 20
838.115
 30
0.000000
  70
    32
  0
VERTEX
  8
0
  5
D5AF
 10
-385.319
 20
838.114
 30
0.000000
  70
    32
  0
VERTEX
  8
0
  5
D5B0
 10
-385.315
 20
838.112
 30
0.000000
  70
    32
  0
VERTEX
  8
0
  5
D5B1
 10
-385.310
 20
838.111
 30
0.000000
  70
    32
  0
VERTEX
  8
0
  5
D5B2
 10
-385.306
 20
838.109
 30
0.000000
  70
    32
  0
VERTEX
  8
0
  5
D5B3
 10
-385.301
 20
838.107
 30
0.000000
  70
    32
  0
VERTEX
  8
0
  5
D5B4
 10
-385.297
 20
838.106
 30
0.000000
  70
    32
  0
VERTEX
  8
0
  5
D5B5
 10
-385.293
 20
838.104
 30
0.000000
  70
    32
  0
VERTEX
  8
0
  5
D5B6
 10
-385.288
 20
838.102
 30
0.000000
  70
    32
  0
VERTEX
  8
0
  5
D5B7
 10
-385.284
 20
838.100
 30
0.000000
  70
    32
  0
VERTEX
  8
0
  5
D5B8
 10
-385.280
 20
838.098
 30
0.000000
  70
    32
  0
VERTEX
  8
0
  5
D5B9
 10
-385.276
 20
838.096
 30
0.000000
  70
    32
  0
VERTEX
  8
0
  5
D5BA
 10
-385.271
 20
838.093
 30
0.000000
  70
    32
  0
VERTEX
  8
0
  5
D5BB
 10
-385.267
 20
838.091
 30
0.000000
  70
    32
  0
VERTEX
  8
0
  5
D5BC
 10
-385.263
 20
838.089
 30
0.000000
  70
    32
  0
VERTEX
  8
0
  5
D5BD
 10
-385.259
 20
838.086
 30
0.000000
  70
    32
  0
VERTEX
  8
0
  5
D5BE
 10
-385.255
 20
838.084
 30
0.000000
  70
    32
  0
VERTEX
  8
0
  5
D5BF
 10
-385.251
 20
838.081
 30
0.000000
  70
    32
  0
VERTEX
  8
0
  5
D5C0
 10
-385.247
 20
838.078
 30
0.000000
  70
    32
  0
VERTEX
  8
0
  5
D5C1
 10
-385.243
 20
838.075
 30
0.000000
  70
    32
  0
VERTEX
  8
0
  5
D5C2
 10
-385.239
 20
838.073
 30
0.000000
  70
    32
  0
VERTEX
  8
0
  5
D5C3
 10
-385.235
 20
838.070
 30
0.000000
  70
    32
  0
VERTEX
  8
0
  5
D5C4
 10
-385.232
 20
838.067
 30
0.000000
  70
    32
  0
VERTEX
  8
0
  5
D5C5
 10
-385.228
 20
838.064
 30
0.000000
  70
    32
  0
VERTEX
  8
0
  5
D5C6
 10
-385.224
 20
838.061
 30
0.000000
  70
    32
  0
VERTEX
  8
0
  5
D5C7
 10
-385.220
 20
838.058
 30
0.000000
  70
    32
  0
VERTEX
  8
0
  5
D5C8
 10
-385.217
 20
838.054
 30
0.000000
  70
    32
  0
VERTEX
  8
0
  5
D5C9
 10
-385.213
 20
838.051
 30
0.000000
  70
    32
  0
VERTEX
  8
0
  5
D5CA
 10
-385.209
 20
838.048
 30
0.000000
  70
    32
  0
VERTEX
  8
0
  5
D5CB
 10
-385.206
 20
838.045
 30
0.000000
  70
    32
  0
VERTEX
  8
0
  5
D5CC
 10
-385.202
 20
838.041
 30
0.000000
  70
    32
  0
VERTEX
  8
0
  5
D5CD
 10
-385.199
 20
838.038
 30
0.000000
  70
    32
  0
VERTEX
  8
0
  5
D5CE
 10
-385.196
 20
838.034
 30
0.000000
  70
    32
  0
VERTEX
  8
0
  5
D5CF
 10
-385.192
 20
838.031
 30
0.000000
  70
    32
  0
VERTEX
  8
0
  5
D5D0
 10
-385.189
 20
838.027
 30
0.000000
  70
    32
  0
VERTEX
  8
0
  5
D5D1
 10
-385.186
 20
838.024
 30
0.000000
  70
    32
  0
VERTEX
  8
0
  5
D5D2
 10
-385.182
 20
838.020
 30
0.000000
  70
    32
  0
VERTEX
  8
0
  5
D5D3
 10
-385.179
 20
838.016
 30
0.000000
  70
    32
  0
VERTEX
  8
0
  5
D5D4
 10
-385.176
 20
838.013
 30
0.000000
  70
    32
  0
VERTEX
  8
0
  5
D5D5
 10
-385.173
 20
838.009
 30
0.000000
  70
    32
  0
VERTEX
  8
0
  5
D5D6
 10
-385.170
 20
838.005
 30
0.000000
  70
    32
  0
VERTEX
  8
0
  5
D5D7
 10
-385.167
 20
838.002
 30
0.000000
  70
    32
  0
VERTEX
  8
0
  5
D5D8
 10
-385.164
 20
837.998
 30
0.000000
  70
    32
  0
VERTEX
  8
0
  5
D5D9
 10
-385.161
 20
837.994
 30
0.000000
  70
    32
  0
VERTEX
  8
0
  5
D5DA
 10
-385.158
 20
837.990
 30
0.000000
  70
    32
  0
VERTEX
  8
0
  5
D5DB
 10
-385.155
 20
837.986
 30
0.000000
  70
    32
  0
VERTEX
  8
0
  5
D5DC
 10
-385.153
 20
837.982
 30
0.000000
  70
    32
  0
VERTEX
  8
0
  5
D5DD
 10
-385.150
 20
837.978
 30
0.000000
  70
    32
  0
VERTEX
  8
0
  5
D5DE
 10
-385.147
 20
837.974
 30
0.000000
  70
    32
  0
VERTEX
  8
0
  5
D5DF
 10
-385.145
 20
837.970
 30
0.000000
  70
    32
  0
VERTEX
  8
0
  5
D5E0
 10
-385.142
 20
837.966
 30
0.000000
  70
    32
  0
VERTEX
  8
0
  5
D5E1
 10
-385.140
 20
837.962
 30
0.000000
  70
    32
  0
VERTEX
  8
0
  5
D5E2
 10
-385.137
 20
837.958
 30
0.000000
  70
    32
  0
VERTEX
  8
0
  5
D5E3
 10
-385.135
 20
837.954
 30
0.000000
  70
    32
  0
VERTEX
  8
0
  5
D5E4
 10
-385.132
 20
837.950
 30
0.000000
  70
    32
  0
VERTEX
  8
0
  5
D5E5
 10
-385.130
 20
837.946
 30
0.000000
  70
    32
  0
VERTEX
  8
0
  5
D5E6
 10
-385.128
 20
837.941
 30
0.000000
  70
    32
  0
VERTEX
  8
0
  5
D5E7
 10
-385.126
 20
837.937
 30
0.000000
  70
    32
  0
VERTEX
  8
0
  5
D5E8
 10
-385.124
 20
837.933
 30
0.000000
  70
    32
  0
VERTEX
  8
0
  5
D5E9
 10
-385.122
 20
837.929
 30
0.000000
  70
    32
  0
VERTEX
  8
0
  5
D5EA
 10
-385.120
 20
837.924
 30
0.000000
  70
    32
  0
VERTEX
  8
0
  5
D5EB
 10
-385.118
 20
837.920
 30
0.000000
  70
    32
  0
VERTEX
  8
0
  5
D5EC
 10
-385.116
 20
837.916
 30
0.000000
  70
    32
  0
VERTEX
  8
0
  5
D5ED
 10
-385.114
 20
837.911
 30
0.000000
  70
    32
  0
VERTEX
  8
0
  5
D5EE
 10
-385.112
 20
837.907
 30
0.000000
  70
    32
  0
VERTEX
  8
0
  5
D5EF
 10
-385.110
 20
837.902
 30
0.000000
  70
    32
  0
VERTEX
  8
0
  5
D5F0
 10
-385.109
 20
837.898
 30
0.000000
  70
    32
  0
VERTEX
  8
0
  5
D5F1
 10
-385.107
 20
837.894
 30
0.000000
  70
    32
  0
VERTEX
  8
0
  5
D5F2
 10
-385.106
 20
837.889
 30
0.000000
  70
    32
  0
VERTEX
  8
0
  5
D5F3
 10
-385.104
 20
837.885
 30
0.000000
  70
    32
  0
VERTEX
  8
0
  5
D5F4
 10
-385.103
 20
837.880
 30
0.000000
  70
    32
  0
VERTEX
  8
0
  5
D5F5
 10
-385.101
 20
837.876
 30
0.000000
  70
    32
  0
VERTEX
  8
0
  5
D5F6
 10
-385.100
 20
837.871
 30
0.000000
  70
    32
  0
VERTEX
  8
0
  5
D5F7
 10
-385.099
 20
837.866
 30
0.000000
  70
    32
  0
VERTEX
  8
0
  5
D5F8
 10
-385.098
 20
837.862
 30
0.000000
  70
    32
  0
VERTEX
  8
0
  5
D5F9
 10
-385.097
 20
837.857
 30
0.000000
  70
    32
  0
VERTEX
  8
0
  5
D5FA
 10
-385.096
 20
837.853
 30
0.000000
  70
    32
  0
VERTEX
  8
0
  5
D5FB
 10
-385.095
 20
837.848
 30
0.000000
  70
    32
  0
VERTEX
  8
0
  5
D5FC
 10
-385.094
 20
837.843
 30
0.000000
  70
    32
  0
VERTEX
  8
0
  5
D5FD
 10
-385.093
 20
837.839
 30
0.000000
  70
    32
  0
VERTEX
  8
0
  5
D5FE
 10
-385.092
 20
837.834
 30
0.000000
  70
    32
  0
VERTEX
  8
0
  5
D5FF
 10
-385.091
 20
837.829
 30
0.000000
  70
    32
  0
VERTEX
  8
0
  5
D600
 10
-385.091
 20
837.825
 30
0.000000
  70
    32
  0
VERTEX
  8
0
  5
D601
 10
-385.090
 20
837.820
 30
0.000000
  70
    32
  0
VERTEX
  8
0
  5
D602
 10
-385.090
 20
837.815
 30
0.000000
  70
    32
  0
VERTEX
  8
0
  5
D603
 10
-385.089
 20
837.810
 30
0.000000
  70
    32
  0
VERTEX
  8
0
  5
D604
 10
-385.089
 20
837.806
 30
0.000000
  70
    32
  0
VERTEX
  8
0
  5
D605
 10
-385.088
 20
837.801
 30
0.000000
  70
    32
  0
VERTEX
  8
0
  5
D606
 10
-385.088
 20
837.796
 30
0.000000
  70
    32
  0
VERTEX
  8
0
  5
D607
 10
-385.088
 20
837.791
 30
0.000000
  70
    32
  0
VERTEX
  8
0
  5
D608
 10
-385.088
 20
837.787
 30
0.000000
  70
    32
  0
VERTEX
  8
0
  5
D609
 10
-385.088
 20
837.782
 30
0.000000
  70
    32
  0
VERTEX
  8
0
  5
D60A
 10
-385.088
 20
837.777
 30
0.000000
  70
    32
  0
VERTEX
  8
0
  5
D60B
 10
-385.088
 20
837.772
 30
0.000000
  70
    32
  0
VERTEX
  8
0
  5
D60C
 10
-385.088
 20
837.767
 30
0.000000
  70
    32
  0
VERTEX
  8
0
  5
D60D
 10
-385.088
 20
837.763
 30
0.000000
  70
    32
  0
VERTEX
  8
0
  5
D60E
 10
-385.088
 20
837.758
 30
0.000000
  70
    32
  0
VERTEX
  8
0
  5
D60F
 10
-385.089
 20
837.753
 30
0.000000
  70
    32
  0
VERTEX
  8
0
  5
D610
 10
-385.089
 20
837.748
 30
0.000000
  70
    32
  0
VERTEX
  8
0
  5
D611
 10
-385.090
 20
837.743
 30
0.000000
  70
    32
  0
VERTEX
  8
0
  5
D612
 10
-385.090
 20
837.739
 30
0.000000
  70
    32
  0
VERTEX
  8
0
  5
D613
 10
-385.091
 20
837.734
 30
0.000000
  70
    32
  0
VERTEX
  8
0
  5
D614
 10
-385.091
 20
837.729
 30
0.000000
  70
    32
  0
VERTEX
  8
0
  5
D615
 10
-385.092
 20
837.724
 30
0.000000
  70
    32
  0
VERTEX
  8
0
  5
D616
 10
-385.093
 20
837.719
 30
0.000000
  70
    32
  0
VERTEX
  8
0
  5
D617
 10
-385.093
 20
837.715
 30
0.000000
  70
    32
  0
VERTEX
  8
0
  5
D618
 10
-385.094
 20
837.710
 30
0.000000
  70
    32
  0
VERTEX
  8
0
  5
D619
 10
-385.095
 20
837.705
 30
0.000000
  70
    32
  0
VERTEX
  8
0
  5
D61A
 10
-385.096
 20
837.700
 30
0.000000
  70
    32
  0
VERTEX
  8
0
  5
D61B
 10
-385.097
 20
837.696
 30
0.000000
  70
    32
  0
VERTEX
  8
0
  5
D61C
 10
-385.098
 20
837.691
 30
0.000000
  70
    32
  0
VERTEX
  8
0
  5
D61D
 10
-385.099
 20
837.686
 30
0.000000
  70
    32
  0
VERTEX
  8
0
  5
D61E
 10
-385.101
 20
837.681
 30
0.000000
  70
    32
  0
VERTEX
  8
0
  5
D61F
 10
-385.102
 20
837.677
 30
0.000000
  70
    32
  0
VERTEX
  8
0
  5
D620
 10
-385.103
 20
837.672
 30
0.000000
  70
    32
  0
VERTEX
  8
0
  5
D621
 10
-385.104
 20
837.667
 30
0.000000
  70
    32
  0
VERTEX
  8
0
  5
D622
 10
-385.106
 20
837.663
 30
0.000000
  70
    32
  0
VERTEX
  8
0
  5
D623
 10
-385.107
 20
837.658
 30
0.000000
  70
    32
  0
VERTEX
  8
0
  5
D624
 10
-385.109
 20
837.654
 30
0.000000
  70
    32
  0
VERTEX
  8
0
  5
D625
 10
-385.110
 20
837.649
 30
0.000000
  70
    32
  0
VERTEX
  8
0
  5
D626
 10
-385.112
 20
837.644
 30
0.000000
  70
    32
  0
VERTEX
  8
0
  5
D627
 10
-385.114
 20
837.640
 30
0.000000
  70
    32
  0
VERTEX
  8
0
  5
D628
 10
-385.116
 20
837.635
 30
0.000000
  70
    32
  0
VERTEX
  8
0
  5
D629
 10
-385.117
 20
837.631
 30
0.000000
  70
    32
  0
VERTEX
  8
0
  5
D62A
 10
-385.119
 20
837.626
 30
0.000000
  70
    32
  0
VERTEX
  8
0
  5
D62B
 10
-385.121
 20
837.622
 30
0.000000
  70
    32
  0
VERTEX
  8
0
  5
D62C
 10
-385.123
 20
837.618
 30
0.000000
  70
    32
  0
VERTEX
  8
0
  5
D62D
 10
-385.125
 20
837.613
 30
0.000000
  70
    32
  0
VERTEX
  8
0
  5
D62E
 10
-385.127
 20
837.609
 30
0.000000
  70
    32
  0
VERTEX
  8
0
  5
D62F
 10
-385.129
 20
837.604
 30
0.000000
  70
    32
  0
VERTEX
  8
0
  5
D630
 10
-385.131
 20
837.600
 30
0.000000
  70
    32
  0
VERTEX
  8
0
  5
D631
 10
-385.134
 20
837.596
 30
0.000000
  70
    32
  0
VERTEX
  8
0
  5
D632
 10
-385.136
 20
837.592
 30
0.000000
  70
    32
  0
VERTEX
  8
0
  5
D633
 10
-385.138
 20
837.587
 30
0.000000
  70
    32
  0
VERTEX
  8
0
  5
D634
 10
-385.141
 20
837.583
 30
0.000000
  70
    32
  0
VERTEX
  8
0
  5
D635
 10
-385.143
 20
837.579
 30
0.000000
  70
    32
  0
VERTEX
  8
0
  5
D636
 10
-385.145
 20
837.575
 30
0.000000
  70
    32
  0
VERTEX
  8
0
  5
D637
 10
-385.148
 20
837.571
 30
0.000000
  70
    32
  0
VERTEX
  8
0
  5
D638
 10
-385.151
 20
837.567
 30
0.000000
  70
    32
  0
VERTEX
  8
0
  5
D639
 10
-385.153
 20
837.563
 30
0.000000
  70
    32
  0
VERTEX
  8
0
  5
D63A
 10
-385.156
 20
837.559
 30
0.000000
  70
    32
  0
VERTEX
  8
0
  5
D63B
 10
-385.159
 20
837.555
 30
0.000000
  70
    32
  0
VERTEX
  8
0
  5
D63C
 10
-385.161
 20
837.551
 30
0.000000
  70
    32
  0
VERTEX
  8
0
  5
D63D
 10
-385.164
 20
837.547
 30
0.000000
  70
    32
  0
VERTEX
  8
0
  5
D63E
 10
-385.167
 20
837.544
 30
0.000000
  70
    32
  0
VERTEX
  8
0
  5
D63F
 10
-385.170
 20
837.540
 30
0.000000
  70
    32
  0
VERTEX
  8
0
  5
D640
 10
-385.173
 20
837.536
 30
0.000000
  70
    32
  0
VERTEX
  8
0
  5
D641
 10
-385.176
 20
837.532
 30
0.000000
  70
    32
  0
VERTEX
  8
0
  5
D642
 10
-385.179
 20
837.529
 30
0.000000
  70
    32
  0
VERTEX
  8
0
  5
D643
 10
-385.182
 20
837.525
 30
0.000000
  70
    32
  0
VERTEX
  8
0
  5
D644
 10
-385.185
 20
837.522
 30
0.000000
  70
    32
  0
VERTEX
  8
0
  5
D645
 10
-385.188
 20
837.518
 30
0.000000
  70
    32
  0
VERTEX
  8
0
  5
D646
 10
-385.191
 20
837.515
 30
0.000000
  70
    32
  0
VERTEX
  8
0
  5
D647
 10
-385.194
 20
837.511
 30
0.000000
  70
    32
  0
VERTEX
  8
0
  5
D648
 10
-385.198
 20
837.508
 30
0.000000
  70
    32
  0
VERTEX
  8
0
  5
D649
 10
-385.201
 20
837.504
 30
0.000000
  70
    32
  0
VERTEX
  8
0
  5
D64A
 10
-385.204
 20
837.501
 30
0.000000
  70
    32
  0
VERTEX
  8
0
  5
D64B
 10
-385.208
 20
837.498
 30
0.000000
  70
    32
  0
VERTEX
  8
0
  5
D64C
 10
-385.211
 20
837.495
 30
0.000000
  70
    32
  0
VERTEX
  8
0
  5
D64D
 10
-385.215
 20
837.491
 30
0.000000
  70
    32
  0
VERTEX
  8
0
  5
D64E
 10
-385.218
 20
837.488
 30
0.000000
  70
    32
  0
VERTEX
  8
0
  5
D64F
 10
-385.222
 20
837.485
 30
0.000000
  70
    32
  0
VERTEX
  8
0
  5
D650
 10
-385.225
 20
837.482
 30
0.000000
  70
    32
  0
VERTEX
  8
0
  5
D651
 10
-385.229
 20
837.479
 30
0.000000
  70
    32
  0
VERTEX
  8
0
  5
D652
 10
-385.232
 20
837.476
 30
0.000000
  70
    32
  0
VERTEX
  8
0
  5
D653
 10
-385.236
 20
837.473
 30
0.000000
  70
    32
  0
VERTEX
  8
0
  5
D654
 10
-385.240
 20
837.470
 30
0.000000
  70
    32
  0
VERTEX
  8
0
  5
D655
 10
-385.243
 20
837.467
 30
0.000000
  70
    32
  0
VERTEX
  8
0
  5
D656
 10
-385.247
 20
837.464
 30
0.000000
  70
    32
  0
VERTEX
  8
0
  5
D657
 10
-385.251
 20
837.461
 30
0.000000
  70
    32
  0
VERTEX
  8
0
  5
D658
 10
-385.255
 20
837.458
 30
0.000000
  70
    32
  0
VERTEX
  8
0
  5
D659
 10
-385.258
 20
837.455
 30
0.000000
  70
    32
  0
VERTEX
  8
0
  5
D65A
 10
-385.262
 20
837.452
 30
0.000000
  70
    32
  0
VERTEX
  8
0
  5
D65B
 10
-385.266
 20
837.450
 30
0.000000
  70
    32
  0
VERTEX
  8
0
  5
D65C
 10
-385.270
 20
837.447
 30
0.000000
  70
    32
  0
VERTEX
  8
0
  5
D65D
 10
-385.274
 20
837.444
 30
0.000000
  70
    32
  0
VERTEX
  8
0
  5
D65E
 10
-385.278
 20
837.441
 30
0.000000
  70
    32
  0
VERTEX
  8
0
  5
D65F
 10
-385.282
 20
837.439
 30
0.000000
  70
    32
  0
VERTEX
  8
0
  5
D660
 10
-385.285
 20
837.436
 30
0.000000
  70
    32
  0
VERTEX
  8
0
  5
D661
 10
-385.289
 20
837.433
 30
0.000000
  70
    32
  0
VERTEX
  8
0
  5
D662
 10
-385.293
 20
837.431
 30
0.000000
  70
    32
  0
VERTEX
  8
0
  5
D663
 10
-385.297
 20
837.428
 30
0.000000
  70
    32
  0
VERTEX
  8
0
  5
D664
 10
-385.301
 20
837.426
 30
0.000000
  70
    32
  0
VERTEX
  8
0
  5
D665
 10
-385.305
 20
837.423
 30
0.000000
  70
    32
  0
VERTEX
  8
0
  5
D666
 10
-385.309
 20
837.421
 30
0.000000
  70
    32
  0
VERTEX
  8
0
  5
D667
 10
-385.314
 20
837.418
 30
0.000000
  70
    32
  0
VERTEX
  8
0
  5
D668
 10
-385.318
 20
837.416
 30
0.000000
  70
    32
  0
VERTEX
  8
0
  5
D669
 10
-385.322
 20
837.413
 30
0.000000
  70
    32
  0
VERTEX
  8
0
  5
D66A
 10
-385.326
 20
837.411
 30
0.000000
  70
    32
  0
VERTEX
  8
0
  5
D66B
 10
-385.330
 20
837.409
 30
0.000000
  70
    32
  0
VERTEX
  8
0
  5
D66C
 10
-385.334
 20
837.406
 30
0.000000
  70
    32
  0
VERTEX
  8
0
  5
D66D
 10
-385.338
 20
837.404
 30
0.000000
  70
    32
  0
VERTEX
  8
0
  5
D66E
 10
-385.342
 20
837.401
 30
0.000000
  70
    32
  0
VERTEX
  8
0
  5
D66F
 10
-385.346
 20
837.399
 30
0.000000
  70
    32
  0
VERTEX
  8
0
  5
D670
 10
-385.350
 20
837.397
 30
0.000000
  70
    32
  0
VERTEX
  8
0
  5
D671
 10
-385.355
 20
837.394
 30
0.000000
  70
    32
  0
VERTEX
  8
0
  5
D672
 10
-385.359
 20
837.392
 30
0.000000
  70
    32
  0
VERTEX
  8
0
  5
D673
 10
-385.363
 20
837.390
 30
0.000000
  70
    32
  0
VERTEX
  8
0
  5
D674
 10
-385.367
 20
837.388
 30
0.000000
  70
    32
  0
VERTEX
  8
0
  5
D675
 10
-385.371
 20
837.385
 30
0.000000
  70
    32
  0
VERTEX
  8
0
  5
D676
 10
-385.375
 20
837.383
 30
0.000000
  70
    32
  0
VERTEX
  8
0
  5
D677
 10
-385.379
 20
837.381
 30
0.000000
  70
    32
  0
VERTEX
  8
0
  5
D678
 10
-385.384
 20
837.378
 30
0.000000
  70
    32
  0
VERTEX
  8
0
  5
D679
 10
-385.388
 20
837.376
 30
0.000000
  70
    32
  0
VERTEX
  8
0
  5
D67A
 10
-385.392
 20
837.374
 30
0.000000
  70
    32
  0
VERTEX
  8
0
  5
D67B
 10
-385.396
 20
837.371
 30
0.000000
  70
    32
  0
VERTEX
  8
0
  5
D67C
 10
-385.400
 20
837.369
 30
0.000000
  70
    32
  0
VERTEX
  8
0
  5
D67D
 10
-385.404
 20
837.367
 30
0.000000
  70
    32
  0
VERTEX
  8
0
  5
D67E
 10
-385.408
 20
837.364
 30
0.000000
  70
    32
  0
VERTEX
  8
0
  5
D67F
 10
-385.412
 20
837.362
 30
0.000000
  70
    32
  0
VERTEX
  8
0
  5
D680
 10
-385.416
 20
837.360
 30
0.000000
  70
    32
  0
VERTEX
  8
0
  5
D681
 10
-385.420
 20
837.357
 30
0.000000
  70
    32
  0
VERTEX
  8
0
  5
D682
 10
-385.424
 20
837.355
 30
0.000000
  70
    32
  0
VERTEX
  8
0
  5
D683
 10
-385.428
 20
837.352
 30
0.000000
  70
    32
  0
VERTEX
  8
0
  5
D684
 10
-385.432
 20
837.350
 30
0.000000
  70
    32
  0
VERTEX
  8
0
  5
D685
 10
-385.436
 20
837.347
 30
0.000000
  70
    32
  0
VERTEX
  8
0
  5
D686
 10
-385.440
 20
837.345
 30
0.000000
  70
    32
  0
VERTEX
  8
0
  5
D687
 10
-385.444
 20
837.342
 30
0.000000
  70
    32
  0
VERTEX
  8
0
  5
D688
 10
-385.448
 20
837.340
 30
0.000000
  70
    32
  0
VERTEX
  8
0
  5
D689
 10
-385.452
 20
837.337
 30
0.000000
  70
    32
  0
VERTEX
  8
0
  5
D68A
 10
-385.456
 20
837.334
 30
0.000000
  70
    32
  0
VERTEX
  8
0
  5
D68B
 10
-385.459
 20
837.332
 30
0.000000
  70
    32
  0
VERTEX
  8
0
  5
D68C
 10
-385.463
 20
837.329
 30
0.000000
  70
    32
  0
VERTEX
  8
0
  5
D68D
 10
-385.467
 20
837.326
 30
0.000000
  70
    32
  0
VERTEX
  8
0
  5
D68E
 10
-385.471
 20
837.323
 30
0.000000
  70
    32
  0
VERTEX
  8
0
  5
D68F
 10
-385.474
 20
837.320
 30
0.000000
  70
    32
  0
VERTEX
  8
0
  5
D690
 10
-385.478
 20
837.318
 30
0.000000
  70
    32
  0
VERTEX
  8
0
  5
D691
 10
-385.482
 20
837.315
 30
0.000000
  70
    32
  0
VERTEX
  8
0
  5
D692
 10
-385.485
 20
837.311
 30
0.000000
  70
    32
  0
VERTEX
  8
0
  5
D693
 10
-385.489
 20
837.308
 30
0.000000
  70
    32
  0
VERTEX
  8
0
  5
D694
 10
-385.492
 20
837.305
 30
0.000000
  70
    32
  0
VERTEX
  8
0
  5
D695
 10
-385.496
 20
837.302
 30
0.000000
  70
    32
  0
VERTEX
  8
0
  5
D696
 10
-385.499
 20
837.299
 30
0.000000
  70
    32
  0
VERTEX
  8
0
  5
D697
 10
-385.503
 20
837.296
 30
0.000000
  70
    32
  0
VERTEX
  8
0
  5
D698
 10
-385.506
 20
837.292
 30
0.000000
  70
    32
  0
VERTEX
  8
0
  5
D699
 10
-385.509
 20
837.289
 30
0.000000
  70
    32
  0
VERTEX
  8
0
  5
D69A
 10
-385.513
 20
837.286
 30
0.000000
  70
    32
  0
VERTEX
  8
0
  5
D69B
 10
-385.516
 20
837.282
 30
0.000000
  70
    32
  0
VERTEX
  8
0
  5
D69C
 10
-385.519
 20
837.279
 30
0.000000
  70
    32
  0
VERTEX
  8
0
  5
D69D
 10
-385.522
 20
837.275
 30
0.000000
  70
    32
  0
VERTEX
  8
0
  5
D69E
 10
-385.525
 20
837.271
 30
0.000000
  70
    32
  0
VERTEX
  8
0
  5
D69F
 10
-385.529
 20
837.268
 30
0.000000
  70
    32
  0
VERTEX
  8
0
  5
D6A0
 10
-385.532
 20
837.264
 30
0.000000
  70
    32
  0
VERTEX
  8
0
  5
D6A1
 10
-385.535
 20
837.261
 30
0.000000
  70
    32
  0
VERTEX
  8
0
  5
D6A2
 10
-385.538
 20
837.257
 30
0.000000
  70
    32
  0
VERTEX
  8
0
  5
D6A3
 10
-385.541
 20
837.253
 30
0.000000
  70
    32
  0
VERTEX
  8
0
  5
D6A4
 10
-385.544
 20
837.249
 30
0.000000
  70
    32
  0
VERTEX
  8
0
  5
D6A5
 10
-385.546
 20
837.245
 30
0.000000
  70
    32
  0
VERTEX
  8
0
  5
D6A6
 10
-385.549
 20
837.242
 30
0.000000
  70
    32
  0
VERTEX
  8
0
  5
D6A7
 10
-385.552
 20
837.238
 30
0.000000
  70
    32
  0
VERTEX
  8
0
  5
D6A8
 10
-385.555
 20
837.234
 30
0.000000
  70
    32
  0
VERTEX
  8
0
  5
D6A9
 10
-385.558
 20
837.230
 30
0.000000
  70
    32
  0
VERTEX
  8
0
  5
D6AA
 10
-385.560
 20
837.226
 30
0.000000
  70
    32
  0
VERTEX
  8
0
  5
D6AB
 10
-385.563
 20
837.222
 30
0.000000
  70
    32
  0
VERTEX
  8
0
  5
D6AC
 10
-385.566
 20
837.218
 30
0.000000
  70
    32
  0
VERTEX
  8
0
  5
D6AD
 10
-385.568
 20
837.214
 30
0.000000
  70
    32
  0
VERTEX
  8
0
  5
D6AE
 10
-385.571
 20
837.210
 30
0.000000
  70
    32
  0
VERTEX
  8
0
  5
D6AF
 10
-385.573
 20
837.205
 30
0.000000
  70
    32
  0
VERTEX
  8
0
  5
D6B0
 10
-385.576
 20
837.201
 30
0.000000
  70
    32
  0
VERTEX
  8
0
  5
D6B1
 10
-385.578
 20
837.197
 30
0.000000
  70
    32
  0
VERTEX
  8
0
  5
D6B2
 10
-385.580
 20
837.193
 30
0.000000
  70
    32
  0
VERTEX
  8
0
  5
D6B3
 10
-385.583
 20
837.189
 30
0.000000
  70
    32
  0
VERTEX
  8
0
  5
D6B4
 10
-385.585
 20
837.184
 30
0.000000
  70
    32
  0
VERTEX
  8
0
  5
D6B5
 10
-385.587
 20
837.180
 30
0.000000
  70
    32
  0
VERTEX
  8
0
  5
D6B6
 10
-385.589
 20
837.176
 30
0.000000
  70
    32
  0
VERTEX
  8
0
  5
D6B7
 10
-385.591
 20
837.172
 30
0.000000
  70
    32
  0
VERTEX
  8
0
  5
D6B8
 10
-385.593
 20
837.167
 30
0.000000
  70
    32
  0
VERTEX
  8
0
  5
D6B9
 10
-385.596
 20
837.163
 30
0.000000
  70
    32
  0
VERTEX
  8
0
  5
D6BA
 10
-385.598
 20
837.158
 30
0.000000
  70
    32
  0
VERTEX
  8
0
  5
D6BB
 10
-385.599
 20
837.154
 30
0.000000
  70
    32
  0
VERTEX
  8
0
  5
D6BC
 10
-385.601
 20
837.150
 30
0.000000
  70
    32
  0
VERTEX
  8
0
  5
D6BD
 10
-385.603
 20
837.145
 30
0.000000
  70
    32
  0
VERTEX
  8
0
  5
D6BE
 10
-385.605
 20
837.141
 30
0.000000
  70
    32
  0
VERTEX
  8
0
  5
D6BF
 10
-385.607
 20
837.136
 30
0.000000
  70
    32
  0
VERTEX
  8
0
  5
D6C0
 10
-385.609
 20
837.132
 30
0.000000
  70
    32
  0
VERTEX
  8
0
  5
D6C1
 10
-385.610
 20
837.128
 30
0.000000
  70
    32
  0
VERTEX
  8
0
  5
D6C2
 10
-385.612
 20
837.123
 30
0.000000
  70
    32
  0
VERTEX
  8
0
  5
D6C3
 10
-385.613
 20
837.119
 30
0.000000
  70
    32
  0
VERTEX
  8
0
  5
D6C4
 10
-385.615
 20
837.114
 30
0.000000
  70
    32
  0
VERTEX
  8
0
  5
D6C5
 10
-385.617
 20
837.110
 30
0.000000
  70
    32
  0
VERTEX
  8
0
  5
D6C6
 10
-385.618
 20
837.105
 30
0.000000
  70
    32
  0
VERTEX
  8
0
  5
D6C7
 10
-385.619
 20
837.101
 30
0.000000
  70
    32
  0
VERTEX
  8
0
  5
D6C8
 10
-385.621
 20
837.096
 30
0.000000
  70
    32
  0
VERTEX
  8
0
  5
D6C9
 10
-385.622
 20
837.091
 30
0.000000
  70
    32
  0
VERTEX
  8
0
  5
D6CA
 10
-385.623
 20
837.087
 30
0.000000
  70
    32
  0
SEQEND
  8
0
  5
D6CB
  0
VIEWPORT
  5
BADA
 67
     1
  8
0
 10
5.249999665167528
 20
4.016860864854312
 30
0.0
 40
16.259362384438411
 41
8.0158201110956853
 68
     2
 69
     1
1001
ACAD
1000
MVIEW
1002
{
1070
    16
1010
0.0
1020
0.0
1030
0.0
1010
0.0
1020
0.0
1030
1.0
1040
0.0
1040
8.0158201110956853
1040
5.249999665167528
1040
4.016860864854312
1040
50.0
1040
0.0
1040
0.0
1070
     0
1070
   100
1070
     1
1070
     1
1070
     0
1070
     0
1070
     0
1070
     0
1040
0.0
1040
0.0
1040
0.0
1040
0.5
1040
0.5
1040
0.5
1040
0.5
1070
     0
1002
{
1002
}
1002
}
  0
VIEWPORT
  5
BADD
 67
     1
  8
0
 10
5.249999629487192
 20
4.0166741807634683
 30
0.0
 40
10.44245679893058
 41
7.8813805131999892
 68
     1
 69
     2
1001
ACAD
1000
MVIEW
1002
{
1070
    16
1010
0.0
1020
0.0
1030
0.0
1010
0.0
1020
0.0
1030
1.0
1040
0.0
1040
7.8813805131999892
1040
-387.20985136692838
1040
838.2226040800208
1040
50.0
1040
0.0
1040
0.0
1070
     0
1070
   100
1070
     1
1070
     2
1070
     0
1070
     0
1070
     0
1070
     0
1040
0.0
1040
0.0
1040
0.0
1040
0.5
1040
0.5
1040
0.5
1040
0.5
1070
     0
1002
{
1002
}
1002
}
  0
ENDSEC
  0
EOF
