  0
SECTION
  2
HEADER
  9
$ACADVER
  1
AC1009
  9
$INSBASE
 10
0.0
 20
0.0
 30
0.0
  9
$EXTMIN
 10
-389.93991239393989
 20
835.97402333860146
 30
0.0
  9
$EXTMAX
 10
-382.63839773167001
 20
840.55090068666777
 30
0.0
  9
$LIMMIN
 10
0.0
 20
0.0
  9
$LIMMAX
 10
1500.0
 20
1500.0
  9
$ORTHOMODE
 70
     0
  9
$REGENMODE
 70
     1
  9
$FILLMODE
 70
     1
  9
$QTEXTMODE
 70
     0
  9
$MIRRTEXT
 70
     1
  9
$DRAGMODE
 70
     2
  9
$LTSCALE
 40
1.0
  9
$OSMODE
 70
    37
  9
$ATTMODE
 70
     1
  9
$TEXTSIZE
 40
1.5
  9
$TRACEWID
 40
0.05
  9
$TEXTSTYLE
  7
STANDARD
  9
$CLAYER
  8
0
  9
$CELTYPE
  6
BYLAYER
  9
$CECOLOR
 62
   256
  9
$DIMSCALE
 40
1.0
  9
$DIMASZ
 40
0.75
  9
$DIMEXO
 40
1.5
  9
$DIMDLI
 40
2.0
  9
$DIMRND
 40
0.0
  9
$DIMDLE
 40
0.0
  9
$DIMEXE
 40
1.0
  9
$DIMTP
 40
0.0
  9
$DIMTM
 40
0.0
  9
$DIMTXT
 40
1.5
  9
$DIMCEN
 40
2.0
  9
$DIMTSZ
 40
0.0
  9
$DIMTOL
 70
     0
  9
$DIMLIM
 70
     0
  9
$DIMTIH
 70
     0
  9
$DIMTOH
 70
     0
  9
$DIMSE1
 70
     0
  9
$DIMSE2
 70
     0
  9
$DIMTAD
 70
     1
  9
$DIMZIN
 70
     0
  9
$DIMBLK
  1
ARCHTICK
  9
$DIMASO
 70
     1
  9
$DIMSHO
 70
     1
  9
$DIMPOST
  1
"
  9
$DIMAPOST
  1

  9
$DIMALT
 70
     0
  9
$DIMALTD
 70
     2
  9
$DIMALTF
 40
25.399999999999999
  9
$DIMLFAC
 40
1.0
  9
$DIMTOFL
 70
     0
  9
$DIMTVP
 40
0.0
  9
$DIMTIX
 70
     1
  9
$DIMSOXD
 70
     0
  9
$DIMSAH
 70
     0
  9
$DIMBLK1
  1

  9
$DIMBLK2
  1

  9
$DIMSTYLE
  2
THREE_QUARTER_INCH_SCALE
  9
$DIMCLRD
 70
     0
  9
$DIMCLRE
 70
     0
  9
$DIMCLRT
 70
     0
  9
$DIMTFAC
 40
1.0
  9
$DIMGAP
 40
1.0
  9
$LUNITS
 70
     2
  9
$LUPREC
 70
     4
  9
$SKETCHINC
 40
0.1
  9
$FILLETRAD
 40
0.0
  9
$AUNITS
 70
     0
  9
$AUPREC
 70
     0
  9
$MENU
  1
.
  9
$ELEVATION
 40
0.0
  9
$PELEVATION
 40
0.0
  9
$THICKNESS
 40
0.0
  9
$LIMCHECK
 70
     0
  9
$BLIPMODE
 70
     0
  9
$CHAMFERA
 40
0.5
  9
$CHAMFERB
 40
0.5
  9
$SKPOLY
 70
     0
  9
$TDCREATE
 40
2452089.395738773
  9
$TDUPDATE
 40
2453613.3211977319
  9
$TDINDWG
 40
0.9950821759
  9
$TDUSRTIMER
 40
0.9950820023
  9
$USRTIMER
 70
     1
  9
$ANGBASE
 50
0.0
  9
$ANGDIR
 70
     0
  9
$PDMODE
 70
     0
  9
$PDSIZE
 40
10.0
  9
$PLINEWID
 40
0.0
  9
$COORDS
 70
     1
  9
$SPLFRAME
 70
     0
  9
$SPLINETYPE
 70
     6
  9
$SPLINESEGS
 70
     8
  9
$ATTDIA
 70
     0
  9
$ATTREQ
 70
     1
  9
$HANDLING
 70
     1
  9
$HANDSEED
  5
D4BC
  9
$SURFTAB1
 70
     6
  9
$SURFTAB2
 70
     6
  9
$SURFTYPE
 70
     6
  9
$SURFU
 70
     6
  9
$SURFV
 70
     6
  9
$UCSNAME
  2

  9
$UCSORG
 10
0.0
 20
0.0
 30
0.0
  9
$UCSXDIR
 10
1.0
 20
0.0
 30
0.0
  9
$UCSYDIR
 10
0.0
 20
1.0
 30
0.0
  9
$PUCSNAME
  2

  9
$PUCSORG
 10
0.0
 20
0.0
 30
0.0
  9
$PUCSXDIR
 10
1.0
 20
0.0
 30
0.0
  9
$PUCSYDIR
 10
0.0
 20
1.0
 30
0.0
  9
$USERI1
 70
     0
  9
$USERI2
 70
     0
  9
$USERI3
 70
     0
  9
$USERI4
 70
     0
  9
$USERI5
 70
     0
  9
$USERR1
 40
0.0
  9
$USERR2
 40
0.0
  9
$USERR3
 40
0.0
  9
$USERR4
 40
0.0
  9
$USERR5
 40
0.0
  9
$WORLDVIEW
 70
     1
  9
$SHADEDGE
 70
     3
  9
$SHADEDIF
 70
    70
  9
$TILEMODE
 70
     0
  9
$MAXACTVP
 70
    64
  9
$PLIMCHECK
 70
     0
  9
$PEXTMIN
 10
0.0282895744820628
 20
0.0759353784799721
 30
-0.0015258207003583
  9
$PEXTMAX
 10
10.47170975585299
 20
7.9577863512286546
 30
0.0000000349246037
  9
$PLIMMIN
 10
-0.1682389550263349
 20
-0.2033427855578579
  9
$PLIMMAX
 10
10.754640548407011
 20
8.2370640492290015
  9
$UNITMODE
 70
     0
  9
$VISRETAIN
 70
     1
  9
$PLINEGEN
 70
     0
  9
$PSLTSCALE
 70
     1
  0
ENDSEC
  0
SECTION
  2
TABLES
  0
TABLE
  2
VPORT
 70
     1
  0
VPORT
  2
*ACTIVE
 70
     0
 10
0.0
 20
0.0
 11
1.0
 21
1.0
 12
-386.52380251144001
 22
838.09204166179234
 13
0.0
 23
0.0
 14
0.5
 24
0.5
 15
0.5
 25
0.5
 16
0.0
 26
0.0
 36
1.0
 17
0.0
 27
0.0
 37
0.0
 40
3.930952126162941
 41
2.0226628895184122
 42
50.0
 43
0.0
 44
0.0
 50
0.0
 51
0.0
 71
     0
 72
   100
 73
     1
 74
     2
 75
     0
 76
     0
 77
     0
 78
     0
  0
ENDTAB
  0
TABLE
  2
LTYPE
 70
     1
  0
LTYPE
  2
CONTINUOUS
 70
     0
  3
Solid line
 72
    65
 73
     0
 40
0.0
  0
ENDTAB
  0
TABLE
  2
LAYER
 70
    10
  0
LAYER
  2
0
 70
     0
 62
     7
  6
CONTINUOUS
  0
LAYER
  2
DEFPOINTS
 70
     0
 62
     7
  6
CONTINUOUS
  0
LAYER
  2
FRAME_200
 70
     0
 62
     8
  6
CONTINUOUS
  0
LAYER
  2
FRAME_070
 70
     0
 62
     5
  6
CONTINUOUS
  0
LAYER
  2
FRAME_050
 70
     0
 62
     6
  6
CONTINUOUS
  0
LAYER
  2
TITLE_BLOCK
 70
     0
 62
     7
  6
CONTINUOUS
  0
LAYER
  2
FRAME_025
 70
     0
 62
     7
  6
CONTINUOUS
  0
LAYER
  2
VIEWPORT
 70
     0
 62
     7
  6
CONTINUOUS
  0
LAYER
  2
PROF
 70
     0
 62
     7
  6
CONTINUOUS
  0
LAYER
  2
PROFILE
 70
     0
 62
     7
  6
CONTINUOUS
  0
ENDTAB
  0
TABLE
  2
STYLE
 70
     2
  0
STYLE
  2
STANDARD
 70
     0
 40
0.0
 41
1.0
 50
0.0
 71
     0
 42
1.5
  3
txt
  4

  0
STYLE
  2
ISO_PROPORTIONAL
 70
     0
 40
0.0
 41
1.0
 50
0.0
 71
     0
 42
2.5
  3
isocp.shx
  4

  0
ENDTAB
  0
TABLE
  2
VIEW
 70
     0
  0
ENDTAB
  0
TABLE
  2
UCS
 70
     0
  0
ENDTAB
  0
TABLE
  2
APPID
 70
     6
  0
APPID
  2
ACAD
 70
     0
  0
APPID
  2
DCO15
 70
     0
  0
APPID
  2
ACAD_EXEMPT_FROM_CAD_STANDARDS
 70
     0
  0
APPID
  2
ACAD_PSEXT
 70
     0
  0
APPID
  2
CONTENTBLOCKDESCRIPTION
 70
     0
  0
APPID
  2
CONTENTBLOCKICON
 70
     0
  0
ENDTAB
  0
TABLE
  2
DIMSTYLE
 70
    10
  0
DIMSTYLE
  2
FULL_SCALE
 70
     0
  3
"
  4

  5

  6

  7

 40
1.0
 41
0.046875
 42
0.09375
 43
0.125
 44
0.0625
 45
0.0
 46
0.0
 47
0.0
 48
0.0
140
0.125
141
0.125
142
0.0
143
25.399999999999999
144
1.0
145
0.0
146
1.0
147
0.0625
 71
     0
 72
     0
 73
     0
 74
     0
 75
     0
 76
     0
 77
     1
 78
     0
170
     0
171
     2
172
     0
173
     0
174
     1
175
     0
176
     0
177
     0
178
     0
  0
DIMSTYLE
  2
HALF_SCALE
 70
     0
  3
"
  4

  5

  6

  7

 40
1.0
 41
0.09375
 42
0.1875
 43
0.25
 44
0.125
 45
0.0
 46
0.0
 47
0.0
 48
0.0
140
0.25
141
0.25
142
0.0
143
25.399999999999999
144
1.0
145
0.0
146
1.0
147
0.125
 71
     0
 72
     0
 73
     0
 74
     0
 75
     0
 76
     0
 77
     1
 78
     0
170
     0
171
     2
172
     0
173
     0
174
     1
175
     0
176
     0
177
     0
178
     0
  0
DIMSTYLE
  2
INCH_SCALE
 70
     0
  3
"
  4

  5

  6

  7

 40
1.0
 41
0.5625
 42
1.125
 43
1.5
 44
0.75
 45
0.0
 46
0.0
 47
0.0
 48
0.0
140
1.125
141
1.5
142
0.0
143
25.399999999999999
144
1.0
145
0.0
146
1.0
147
0.75
 71
     0
 72
     0
 73
     0
 74
     0
 75
     0
 76
     0
 77
     1
 78
     0
170
     0
171
     2
172
     0
173
     0
174
     1
175
     0
176
     0
177
     0
178
     0
  0
DIMSTYLE
  2
THREE_QUARTER_INCH_SCALE
 70
     0
  3
"
  4

  5

  6

  7

 40
1.0
 41
0.75
 42
1.5
 43
2.0
 44
1.0
 45
0.0
 46
0.0
 47
0.0
 48
0.0
140
1.5
141
2.0
142
0.0
143
25.399999999999999
144
1.0
145
0.0
146
1.0
147
1.0
 71
     0
 72
     0
 73
     0
 74
     0
 75
     0
 76
     0
 77
     1
 78
     0
170
     0
171
     2
172
     0
173
     0
174
     1
175
     0
176
     0
177
     0
178
     0
  0
DIMSTYLE
  2
ZHALF_INCH_SCALE
 70
     0
  3
"
  4

  5

  6

  7

 40
1.0
 41
1.125
 42
2.25
 43
3.0
 44
1.5
 45
0.0
 46
0.0
 47
0.0
 48
0.0
140
2.25
141
3.0
142
0.0
143
25.399999999999999
144
1.0
145
0.0
146
1.0
147
1.5
 71
     0
 72
     0
 73
     0
 74
     0
 75
     0
 76
     0
 77
     1
 78
     0
170
     0
171
     2
172
     0
173
     0
174
     1
175
     0
176
     0
177
     0
178
     0
  0
DIMSTYLE
  2
FULL_SCALE0
 70
     0
  3
"
  4

  5
ARCHTICK
  6

  7

 40
1.0
 41
0.046875
 42
0.09375
 43
0.125
 44
0.0625
 45
0.0
 46
0.0
 47
0.0
 48
0.0
140
0.125
141
0.125
142
0.0
143
25.399999999999999
144
1.0
145
0.0
146
1.0
147
0.0625
 71
     0
 72
     0
 73
     0
 74
     0
 75
     0
 76
     0
 77
     1
 78
     0
170
     0
171
     2
172
     0
173
     0
174
     1
175
     0
176
     0
177
     0
178
     0
  0
DIMSTYLE
  2
HALF_SCALE0
 70
     0
  3
"
  4

  5
ARCHTICK
  6

  7

 40
1.0
 41
0.09375
 42
0.1875
 43
0.25
 44
0.125
 45
0.0
 46
0.0
 47
0.0
 48
0.0
140
0.25
141
0.25
142
0.0
143
25.399999999999999
144
1.0
145
0.0
146
1.0
147
0.125
 71
     0
 72
     0
 73
     0
 74
     0
 75
     0
 76
     0
 77
     1
 78
     0
170
     0
171
     2
172
     0
173
     0
174
     1
175
     0
176
     0
177
     0
178
     0
  0
DIMSTYLE
  2
INCH_SCALE0
 70
     0
  3
"
  4

  5
ARCHTICK
  6

  7

 40
1.0
 41
0.5625
 42
1.125
 43
1.5
 44
0.75
 45
0.0
 46
0.0
 47
0.0
 48
0.0
140
1.125
141
1.5
142
0.0
143
25.399999999999999
144
1.0
145
0.0
146
1.0
147
0.75
 71
     0
 72
     0
 73
     0
 74
     0
 75
     0
 76
     0
 77
     1
 78
     0
170
     0
171
     2
172
     0
173
     0
174
     1
175
     0
176
     0
177
     0
178
     0
  0
DIMSTYLE
  2
THREE_QUARTER_INCH_SCALE0
 70
     0
  3
"
  4

  5
ARCHTICK
  6

  7

 40
1.0
 41
0.75
 42
1.5
 43
2.0
 44
1.0
 45
0.0
 46
0.0
 47
0.0
 48
0.0
140
1.5
141
2.0
142
0.0
143
25.399999999999999
144
1.0
145
0.0
146
1.0
147
1.0
 71
     0
 72
     0
 73
     0
 74
     0
 75
     0
 76
     0
 77
     1
 78
     0
170
     0
171
     2
172
     0
173
     0
174
     1
175
     0
176
     0
177
     0
178
     0
  0
DIMSTYLE
  2
ZHALF_INCH_SCALE0
 70
     0
  3
"
  4

  5
ARCHTICK
  6

  7

 40
1.0
 41
1.125
 42
2.25
 43
3.0
 44
1.5
 45
0.0
 46
0.0
 47
0.0
 48
0.0
140
2.25
141
3.0
142
0.0
143
25.399999999999999
144
1.0
145
0.0
146
1.0
147
1.5
 71
     0
 72
     0
 73
     0
 74
     0
 75
     0
 76
     0
 77
     1
 78
     0
170
     0
171
     2
172
     0
173
     0
174
     1
175
     0
176
     0
177
     0
178
     0
  0
ENDTAB
  0
ENDSEC
  0
SECTION
  2
BLOCKS
  0
BLOCK
  8
0
  2
$MODEL_SPACE
 70
     0
 10
0.0
 20
0.0
 30
0.0
  3
$MODEL_SPACE
  1

  0
ENDBLK
  5
C9DC
  8
0
  0
BLOCK
 67
     1
  8
0
  2
$PAPER_SPACE
 70
     0
 10
0.0
 20
0.0
 30
0.0
  3
$PAPER_SPACE
  1

  0
ENDBLK
  5
C9D8
 67
     1
  8
0
  0
BLOCK
  8
0
  2
_ARCHTICK
 70
     0
 10
0.0
 20
0.0
 30
0.0
  3
_ARCHTICK
  1

  0
POLYLINE
  5
158
  8
0
  6
BYBLOCK
 62
     0
 66
     1
 10
0.0
 20
0.0
 30
0.0
 40
0.15
 41
0.15
  0
VERTEX
  5
D2D8
  8
0
  6
BYBLOCK
 62
     0
 10
-0.5
 20
-0.5
 30
0.0
  0
VERTEX
  5
D2D9
  8
0
  6
BYBLOCK
 62
     0
 10
0.5
 20
0.5
 30
0.0
  0
SEQEND
  5
D2DA
  8
0
  6
BYBLOCK
 62
     0
  0
ENDBLK
  5
15A
  8
0
  0
BLOCK
  8
0
  2
_OPEN30
 70
     0
 10
0.0
 20
0.0
 30
0.0
  3
_OPEN30
  1

  0
LINE
  5
15C
  8
0
  6
BYBLOCK
 62
     0
 10
-1.0
 20
0.26794919
 30
0.0
 11
0.0
 21
0.0
 31
0.0
  0
LINE
  5
15D
  8
0
  6
BYBLOCK
 62
     0
 10
0.0
 20
0.0
 30
0.0
 11
-1.0
 21
-0.26794919
 31
0.0
  0
LINE
  5
15E
  8
0
  6
BYBLOCK
 62
     0
 10
0.0
 20
0.0
 30
0.0
 11
-1.0
 21
0.0
 31
0.0
  0
ENDBLK
  5
160
  8
0
  0
BLOCK
  8
0
  2
ISO_A2_TITLE_BLOCK
 70
     2
 10
0.0
 20
0.0
 30
0.0
  3
ISO_A2_TITLE_BLOCK
  1

  0
LINE
  5
BDD
  8
FRAME_050
 10
299.5
 20
12.5
 30
0.0
 11
297.0
 21
7.5
 31
0.0
  0
LINE
  5
BDE
  8
FRAME_050
 10
294.5
 20
12.5
 30
0.0
 11
299.5
 21
12.5
 31
0.0
  0
LINE
  5
BDF
  8
FRAME_050
 10
247.0
 20
5.0
 30
0.0
 11
347.0
 21
5.0
 31
0.0
  0
LINE
  5
BE0
  8
FRAME_070
 10
584.0
 20
410.0
 30
0.0
 11
10.0
 21
410.0
 31
0.0
  0
LINE
  5
BE1
  8
FRAME_070
 10
10.0
 20
10.0
 30
0.0
 11
584.0
 21
10.0
 31
0.0
  0
LINE
  5
BE2
  8
FRAME_050
 10
12.5
 20
207.5
 30
0.0
 11
7.5
 21
210.0
 31
0.0
  0
LINE
  5
BE3
  8
FRAME_050
 10
12.5
 20
212.5
 30
0.0
 11
12.5
 21
207.5
 31
0.0
  0
LINE
  5
BE4
  8
FRAME_070
 10
10.0
 20
410.0
 30
0.0
 11
10.0
 21
10.0
 31
0.0
  0
LINE
  5
BE5
  8
FRAME_200
 10
0.0
 20
0.0
 30
0.0
 11
0.0
 21
10.0
 31
0.0
  0
LINE
  5
BE6
  8
FRAME_200
 10
0.0
 20
0.0
 30
0.0
 11
10.0
 21
0.0
 31
0.0
  0
TEXT
  5
BE7
  8
FRAME_050
 10
5.9000000000000004
 20
35.0
 30
0.0
 40
4.0
  1
H
  7
ISO_PROPORTIONAL
 72
     4
 11
7.5
 21
37.0
 31
0.0
  0
LINE
  5
BE8
  8
FRAME_050
 10
10.0
 20
60.0
 30
0.0
 11
5.0
 21
60.0
 31
0.0
  0
LINE
  5
BE9
  8
FRAME_050
 10
81.75
 20
5.0
 30
0.0
 11
81.75
 21
10.0
 31
0.0
  0
TEXT
  5
BEA
  8
FRAME_050
 10
44.874999999999993
 20
5.5
 30
0.0
 40
4.0
  1
1
  7
ISO_PROPORTIONAL
 72
     4
 11
45.875
 21
7.5
 31
0.0
  0
TEXT
  5
BEB
  8
FRAME_050
 10
6.0035533905932743
 20
85.0
 30
0.0
 40
4.0
  1
G
  7
ISO_PROPORTIONAL
 72
     4
 11
7.5
 21
87.0
 31
0.0
  0
LINE
  5
BEC
  8
FRAME_050
 10
10.0
 20
110.0
 30
0.0
 11
5.0
 21
110.0
 31
0.0
  0
TEXT
  5
BED
  8
FRAME_050
 10
6.0999999999999988
 20
135.0
 30
0.0
 40
4.0
  1
F
  7
ISO_PROPORTIONAL
 72
     4
 11
7.5
 21
137.0
 31
0.0
  0
LINE
  5
BEE
  8
FRAME_050
 10
10.0
 20
160.0
 30
0.0
 11
5.0
 21
160.0
 31
0.0
  0
TEXT
  5
BEF
  8
FRAME_050
 10
6.0999999999999988
 20
185.0
 30
0.0
 40
4.0
  1
E
  7
ISO_PROPORTIONAL
 72
     4
 11
7.5
 21
187.0
 31
0.0
  0
LINE
  5
BF0
  8
FRAME_050
 10
153.5
 20
5.0
 30
0.0
 11
153.5
 21
10.0
 31
0.0
  0
TEXT
  5
BF1
  8
FRAME_050
 10
116.1556692913386
 20
5.3996062992125982
 30
0.0
 40
4.0
  1
2
  7
ISO_PROPORTIONAL
 72
     4
 11
117.625
 21
7.5
 31
0.0
  0
TEXT
  5
BF2
  8
FRAME_050
 10
187.89215728752529
 20
5.5828427124746138
 30
0.0
 40
4.0
  1
3
  7
ISO_PROPORTIONAL
 72
     4
 11
189.375
 21
7.5
 31
0.0
  0
LINE
  5
BF3
  8
FRAME_050
 10
225.25
 20
5.0
 30
0.0
 11
225.25
 21
10.0
 31
0.0
  0
LINE
  5
BF4
  8
FRAME_050
 10
297.0
 20
7.5
 30
0.0
 11
294.5
 21
12.5
 31
0.0
  0
LINE
  5
BF5
  8
FRAME_050
 10
287.0
 20
5.0
 30
0.0
 11
287.0
 21
10.0
 31
0.0
  0
LINE
  5
BF6
  8
FRAME_050
 10
277.0
 20
5.0
 30
0.0
 11
277.0
 21
10.0
 31
0.0
  0
LINE
  5
BF7
  8
FRAME_050
 10
267.0
 20
5.0
 30
0.0
 11
267.0
 21
10.0
 31
0.0
  0
LINE
  5
BF8
  8
FRAME_050
 10
257.0
 20
5.0
 30
0.0
 11
257.0
 21
10.0
 31
0.0
  0
LINE
  5
BF9
  8
FRAME_050
 10
247.0
 20
5.0
 30
0.0
 11
247.0
 21
10.0
 31
0.0
  0
LINE
  5
BFA
  8
FRAME_050
 10
297.0
 20
10.0
 30
0.0
 11
297.0
 21
5.0
 31
0.0
  0
LINE
  5
BFB
  8
FRAME_050
 10
297.0
 20
10.0
 30
0.0
 11
297.0
 21
15.0
 31
0.0
  0
LINE
  5
BFC
  8
FRAME_050
 10
5.0
 20
210.0
 30
0.0
 11
15.0
 21
210.0
 31
0.0
  0
LINE
  5
BFD
  8
FRAME_050
 10
7.5
 20
210.0
 30
0.0
 11
12.5
 21
212.5
 31
0.0
  0
TEXT
  5
BFE
  8
FRAME_050
 10
5.7860912703473977
 20
235.0
 30
0.0
 40
4.0
  1
D
  7
ISO_PROPORTIONAL
 72
     4
 11
7.5
 21
237.0
 31
0.0
  0
LINE
  5
BFF
  8
FRAME_050
 10
10.0
 20
260.0
 30
0.0
 11
5.0
 21
260.0
 31
0.0
  0
TEXT
  5
C00
  8
FRAME_050
 10
6.1931980515339466
 20
285.0
 30
0.0
 40
4.0
  1
C
  7
ISO_PROPORTIONAL
 72
     4
 11
7.5
 21
287.0
 31
0.0
  0
LINE
  5
C01
  8
FRAME_050
 10
10.0
 20
310.0
 30
0.0
 11
5.0
 21
310.0
 31
0.0
  0
TEXT
  5
C02
  8
FRAME_050
 10
5.8999999999999959
 20
335.0
 30
0.0
 40
4.0
  1
B
  7
ISO_PROPORTIONAL
 72
     4
 11
7.5
 21
337.0
 31
0.0
  0
LINE
  5
C03
  8
FRAME_050
 10
10.0
 20
360.0
 30
0.0
 11
5.0
 21
360.0
 31
0.0
  0
TEXT
  5
C04
  8
FRAME_050
 10
5.6999999999999993
 20
385.0
 30
0.0
 40
4.0
  1
A
  7
ISO_PROPORTIONAL
 72
     4
 11
7.5
 21
387.0
 31
0.0
  0
LINE
  5
C05
  8
FRAME_200
 10
10.0
 20
420.0
 30
0.0
 11
0.0
 21
420.0
 31
0.0
  0
LINE
  5
C06
  8
FRAME_200
 10
0.0
 20
420.0
 30
0.0
 11
0.0
 21
410.0
 31
0.0
  0
TEXT
  5
C07
  8
FRAME_050
 10
44.874999999999993
 20
410.5
 30
0.0
 40
4.0
  1
1
  7
ISO_PROPORTIONAL
 72
     4
 11
45.875
 21
412.5
 31
0.0
  0
LINE
  5
C08
  8
FRAME_050
 10
81.75
 20
410.0
 30
0.0
 11
81.75
 21
415.0
 31
0.0
  0
TEXT
  5
C09
  8
FRAME_050
 10
116.1556692913386
 20
410.39960629921262
 30
0.0
 40
4.0
  1
2
  7
ISO_PROPORTIONAL
 72
     4
 11
117.625
 21
412.5
 31
0.0
  0
LINE
  5
C0A
  8
FRAME_050
 10
153.5
 20
410.0
 30
0.0
 11
153.5
 21
415.0
 31
0.0
  0
TEXT
  5
C0B
  8
FRAME_050
 10
187.89215728752529
 20
410.58284271247459
 30
0.0
 40
4.0
  1
3
  7
ISO_PROPORTIONAL
 72
     4
 11
189.375
 21
412.5
 31
0.0
  0
LINE
  5
C0C
  8
FRAME_050
 10
297.0
 20
405.0
 30
0.0
 11
297.0
 21
415.0
 31
0.0
  0
LINE
  5
C0D
  8
FRAME_050
 10
225.25
 20
410.0
 30
0.0
 11
225.25
 21
415.0
 31
0.0
  0
TEXT
  5
C0E
  8
FRAME_050
 10
259.52499999999998
 20
410.5
 30
0.0
 40
4.0
  1
4
  7
ISO_PROPORTIONAL
 72
     4
 11
261.125
 21
412.5
 31
0.0
  0
LINE
  5
C0F
  8
FRAME_070
 10
584.0
 20
10.0
 30
0.0
 11
584.0
 21
410.0
 31
0.0
  0
ATTDEF
  5
C10
  8
FRAME_025
 10
473.0
 20
31.75
 30
0.0
 40
2.5
  1
XXX - 00/00/00
  7
ISO_PROPORTIONAL
 11
473.0
 21
33.0
 31
0.0
  3
Approved by - Date
  2
APPROVED_BY_DATE
 70
     8
 74
     2
  0
TEXT
  5
C11
  8
FRAME_025
 10
448.0
 20
41.749999999999993
 30
0.0
 40
2.5
  1
Title/Name, designation, material, dimension etc
  7
ISO_PROPORTIONAL
 11
448.0
 21
43.0
 31
0.0
 73
     2
  0
TEXT
  5
C12
  8
FRAME_025
 10
473.0
 20
35.75
 30
0.0
 40
2.5
  1
Approved by - date
  7
ISO_PROPORTIONAL
 11
473.0
 21
37.0
 31
0.0
 73
     2
  0
LINE
  5
C13
  8
FRAME_070
 10
414.0
 20
46.0
 30
0.0
 11
584.0
 21
46.0
 31
0.0
  0
LINE
  5
C14
  8
FRAME_070
 10
414.0
 20
40.0
 30
0.0
 11
584.0
 21
40.0
 31
0.0
  0
LINE
  5
C15
  8
FRAME_070
 10
414.0
 20
30.0
 30
0.0
 11
584.0
 21
30.0
 31
0.0
  0
LINE
  5
C16
  8
FRAME_050
 10
368.75
 20
5.0
 30
0.0
 11
368.75
 21
10.0
 31
0.0
  0
LINE
  5
C17
  8
FRAME_050
 10
337.0
 20
5.0
 30
0.0
 11
337.0
 21
10.0
 31
0.0
  0
LINE
  5
C18
  8
FRAME_050
 10
327.0
 20
5.0
 30
0.0
 11
327.0
 21
10.0
 31
0.0
  0
LINE
  5
C19
  8
FRAME_050
 10
317.0
 20
5.0
 30
0.0
 11
317.0
 21
10.0
 31
0.0
  0
LINE
  5
C1A
  8
FRAME_050
 10
307.0
 20
5.0
 30
0.0
 11
307.0
 21
10.0
 31
0.0
  0
LINE
  5
C1B
  8
FRAME_050
 10
347.0
 20
5.0
 30
0.0
 11
347.0
 21
10.0
 31
0.0
  0
LINE
  5
C1C
  8
FRAME_050
 10
440.5
 20
5.0
 30
0.0
 11
440.5
 21
10.0
 31
0.0
  0
TEXT
  5
C1D
  8
FRAME_050
 10
403.24547244094481
 20
5.4102362204724406
 30
0.0
 40
4.0
  1
6
  7
ISO_PROPORTIONAL
 72
     4
 11
404.62499999999989
 21
7.5
 31
0.0
  0
TEXT
  5
C1E
  8
FRAME_050
 10
474.97499999999991
 20
5.5
 30
0.0
 40
4.0
  1
7
  7
ISO_PROPORTIONAL
 72
     4
 11
476.37499999999989
 21
7.5
 31
0.0
  0
TEXT
  5
C1F
  8
FRAME_025
 10
431.0
 20
41.749999999999993
 30
0.0
 40
2.5
  1
Quantity
  7
ISO_PROPORTIONAL
 11
431.0
 21
43.0
 31
0.0
 73
     2
  0
TEXT
  5
C20
  8
FRAME_025
 10
416.0
 20
41.749999999999993
 30
0.0
 40
2.5
  1
Itemref
  7
ISO_PROPORTIONAL
 11
416.0
 21
43.0
 31
0.0
 73
     2
  0
LINE
  5
C21
  8
FRAME_070
 10
414.0
 20
40.0
 30
0.0
 11
414.0
 21
46.0
 31
0.0
  0
LINE
  5
C22
  8
FRAME_070
 10
429.0
 20
40.0
 30
0.0
 11
429.0
 21
46.0
 31
0.0
  0
LINE
  5
C23
  8
FRAME_070
 10
414.0
 20
10.0
 30
0.0
 11
414.0
 21
40.0
 31
0.0
  0
ATTDEF
  5
C24
  8
FRAME_025
 10
416.0
 20
31.75
 30
0.0
 40
2.5
  1
XXX
  7
ISO_PROPORTIONAL
 11
416.0
 21
33.0
 31
0.0
  3
Designed by
  2
DESIGNED_BY
 70
     8
 74
     2
  0
TEXT
  5
C25
  8
FRAME_025
 10
416.0
 20
35.75
 30
0.0
 40
2.5
  1
Designed by
  7
ISO_PROPORTIONAL
 11
416.0
 21
37.0
 31
0.0
 73
     2
  0
LINE
  5
C26
  8
FRAME_070
 10
446.0
 20
40.0
 30
0.0
 11
446.0
 21
46.0
 31
0.0
  0
ATTDEF
  5
C27
  8
FRAME_025
 10
448.0
 20
31.75
 30
0.0
 40
2.5
  1
XXX
  7
ISO_PROPORTIONAL
 11
448.0
 21
33.0
 31
0.0
  3
Checked by
  2
CHECKED_BY
 70
     8
 74
     2
  0
TEXT
  5
C28
  8
FRAME_025
 10
448.0
 20
35.75
 30
0.0
 40
2.5
  1
Checked by
  7
ISO_PROPORTIONAL
 11
448.0
 21
37.0
 31
0.0
 73
     2
  0
ATTDEF
  5
C29
  8
FRAME_050
 10
444.74999999999989
 20
17.5
 30
0.0
 40
5.0
  1
XXX
  7
ISO_PROPORTIONAL
 72
     4
 11
451.49999999999989
 21
20.0
 31
0.0
  3
Owner
  2
OWNER
 70
     8
  0
LINE
  5
C2A
  8
FRAME_070
 10
446.0
 20
30.0
 30
0.0
 11
446.0
 21
40.0
 31
0.0
  0
LINE
  5
C2B
  8
FRAME_070
 10
471.0
 20
30.0
 30
0.0
 11
471.0
 21
40.0
 31
0.0
  0
LINE
  5
C2C
  8
FRAME_070
 10
489.0
 20
20.0
 30
0.0
 11
584.0
 21
20.0
 31
0.0
  0
LINE
  5
C2D
  8
FRAME_050
 10
512.25
 20
5.0
 30
0.0
 11
512.25
 21
10.0
 31
0.0
  0
TEXT
  5
C2E
  8
FRAME_050
 10
546.72499999999991
 20
5.5
 30
0.0
 40
4.0
  1
8
  7
ISO_PROPORTIONAL
 72
     4
 11
548.125
 21
7.5
 31
0.0
  0
ATTDEF
  5
C2F
  8
FRAME_050
 10
517.64999999999986
 20
13.5
 30
0.0
 40
3.0
  1
X
  7
ISO_PROPORTIONAL
 72
     4
 11
519.0
 21
15.0
 31
0.0
  3
Drawing number
  2
DRAWING_NUMBER
 70
     8
  0
ATTDEF
  5
C30
  8
FRAME_050
 10
529.75
 20
22.5
 30
0.0
 40
5.0
  1
XXX
  7
ISO_PROPORTIONAL
 72
     4
 11
536.5
 21
25.0
 31
0.0
  3
Title / Name
  2
TITLE
 70
     8
  0
LINE
  5
C31
  8
FRAME_070
 10
489.0
 20
10.0
 30
0.0
 11
489.0
 21
30.0
 31
0.0
  0
ATTDEF
  5
C32
  8
FRAME_025
 10
511.0
 20
31.75
 30
0.0
 40
2.5
  1
XXX
  7
ISO_PROPORTIONAL
 11
511.0
 21
33.0
 31
0.0
  3
Filename
  2
FILENAME
 70
     8
 74
     2
  0
TEXT
  5
C33
  8
FRAME_025
 10
511.0
 20
35.75
 30
0.0
 40
2.5
  1
Filename
  7
ISO_PROPORTIONAL
 11
511.0
 21
37.0
 31
0.0
 73
     2
  0
LINE
  5
C34
  8
FRAME_070
 10
509.0
 20
30.0
 30
0.0
 11
509.0
 21
40.0
 31
0.0
  0
TEXT
  5
C35
  8
FRAME_025
 10
536.0
 20
41.749999999999993
 30
0.0
 40
2.5
  1
Article No./Reference
  7
ISO_PROPORTIONAL
 11
536.0
 21
43.0
 31
0.0
 73
     2
  0
LINE
  5
C36
  8
FRAME_070
 10
534.0
 20
40.0
 30
0.0
 11
534.0
 21
46.0
 31
0.0
  0
ATTDEF
  5
C37
  8
FRAME_025
 10
551.0
 20
11.75
 30
0.0
 40
2.5
  1
0
  7
ISO_PROPORTIONAL
 11
551.0
 21
13.0
 31
0.0
  3
Edition
  2
EDITION
 70
     8
 74
     2
  0
TEXT
  5
C38
  8
FRAME_025
 10
551.0
 20
15.75
 30
0.0
 40
2.5
  1
Edition
  7
ISO_PROPORTIONAL
 11
551.0
 21
17.0
 31
0.0
 73
     2
  0
LINE
  5
C39
  8
FRAME_070
 10
549.0
 20
10.0
 30
0.0
 11
549.0
 21
20.0
 31
0.0
  0
ATTDEF
  5
C3A
  8
FRAME_025
 10
536.0
 20
31.75
 30
0.0
 40
2.5
  1
00/00/00
  7
ISO_PROPORTIONAL
 11
536.0
 21
33.0
 31
0.0
  3
Date
  2
DATE
 70
     8
 74
     2
  0
TEXT
  5
C3B
  8
FRAME_025
 10
536.0
 20
35.75
 30
0.0
 40
2.5
  1
Date
  7
ISO_PROPORTIONAL
 11
536.0
 21
37.0
 31
0.0
 73
     2
  0
LINE
  5
C3C
  8
FRAME_070
 10
534.0
 20
30.0
 30
0.0
 11
534.0
 21
40.0
 31
0.0
  0
ATTDEF
  5
C3D
  8
FRAME_025
 10
566.0
 20
11.75
 30
0.0
 40
2.5
  1
1/1
  7
ISO_PROPORTIONAL
 11
566.0
 21
13.0
 31
0.0
  3
Sheet
  2
SHEET
 70
     8
 74
     2
  0
TEXT
  5
C3E
  8
FRAME_025
 10
566.0
 20
15.75
 30
0.0
 40
2.5
  1
Sheet
  7
ISO_PROPORTIONAL
 11
566.0
 21
17.0
 31
0.0
 73
     2
  0
LINE
  5
C3F
  8
FRAME_070
 10
564.0
 20
10.0
 30
0.0
 11
564.0
 21
20.0
 31
0.0
  0
ATTDEF
  5
C40
  8
FRAME_025
 10
566.0
 20
31.75
 30
0.0
 40
2.5
  1
1:1
  7
ISO_PROPORTIONAL
 11
566.0
 21
33.0
 31
0.0
  3
Scale
  2
SCALE
 70
     8
 74
     2
  0
TEXT
  5
C41
  8
FRAME_025
 10
566.0
 20
35.75
 30
0.0
 40
2.5
  1
Scale
  7
ISO_PROPORTIONAL
 11
566.0
 21
37.0
 31
0.0
 73
     2
  0
LINE
  5
C42
  8
FRAME_070
 10
564.0
 20
30.0
 30
0.0
 11
564.0
 21
40.0
 31
0.0
  0
LINE
  5
C43
  8
FRAME_200
 10
594.0
 20
0.0
 30
0.0
 11
594.0
 21
10.0
 31
0.0
  0
LINE
  5
C44
  8
FRAME_200
 10
594.0
 20
0.0
 30
0.0
 11
584.0
 21
0.0
 31
0.0
  0
TEXT
  5
C45
  8
FRAME_050
 10
584.89999999999998
 20
35.0
 30
0.0
 40
4.0
  1
H
  7
ISO_PROPORTIONAL
 72
     4
 11
586.5
 21
37.0
 31
0.0
  0
LINE
  5
C46
  8
FRAME_050
 10
589.0
 20
60.0
 30
0.0
 11
584.0
 21
60.0
 31
0.0
  0
TEXT
  5
C47
  8
FRAME_050
 10
585.0035533905932
 20
85.0
 30
0.0
 40
4.0
  1
G
  7
ISO_PROPORTIONAL
 72
     4
 11
586.5
 21
87.0
 31
0.0
  0
LINE
  5
C48
  8
FRAME_050
 10
589.0
 20
110.0
 30
0.0
 11
584.0
 21
110.0
 31
0.0
  0
TEXT
  5
C49
  8
FRAME_050
 10
585.09999999999991
 20
135.0
 30
0.0
 40
4.0
  1
F
  7
ISO_PROPORTIONAL
 72
     4
 11
586.5
 21
137.0
 31
0.0
  0
LINE
  5
C4A
  8
FRAME_050
 10
589.0
 20
160.0
 30
0.0
 11
584.0
 21
160.0
 31
0.0
  0
TEXT
  5
C4B
  8
FRAME_050
 10
585.09999999999991
 20
185.0
 30
0.0
 40
4.0
  1
E
  7
ISO_PROPORTIONAL
 72
     4
 11
586.5
 21
187.0
 31
0.0
  0
LINE
  5
C4C
  8
FRAME_070
 10
414.0
 20
404.0
 30
0.0
 11
584.0
 21
404.0
 31
0.0
  0
TEXT
  5
C4D
  8
FRAME_050
 10
331.39215728752538
 20
410.58284271247459
 30
0.0
 40
4.0
  1
5
  7
ISO_PROPORTIONAL
 72
     4
 11
332.875
 21
412.5
 31
0.0
  0
LINE
  5
C4E
  8
FRAME_050
 10
368.75
 20
410.0
 30
0.0
 11
368.75
 21
415.0
 31
0.0
  0
TEXT
  5
C4F
  8
FRAME_025
 10
428.0
 20
405.75
 30
0.0
 40
2.5
  1
Revision note
  7
ISO_PROPORTIONAL
 11
428.0
 21
407.0
 31
0.0
 73
     2
  0
TEXT
  5
C50
  8
FRAME_025
 10
416.0
 20
405.75
 30
0.0
 40
2.5
  1
RevNo
  7
ISO_PROPORTIONAL
 11
416.0
 21
407.0
 31
0.0
 73
     2
  0
LINE
  5
C51
  8
FRAME_070
 10
426.0
 20
404.0
 30
0.0
 11
426.0
 21
410.0
 31
0.0
  0
LINE
  5
C52
  8
FRAME_070
 10
414.0
 20
404.0
 30
0.0
 11
414.0
 21
410.0
 31
0.0
  0
TEXT
  5
C53
  8
FRAME_050
 10
403.24547244094481
 20
410.41023622047243
 30
0.0
 40
4.0
  1
6
  7
ISO_PROPORTIONAL
 72
     4
 11
404.62499999999989
 21
412.5
 31
0.0
  0
LINE
  5
C54
  8
FRAME_050
 10
440.5
 20
410.0
 30
0.0
 11
440.5
 21
415.0
 31
0.0
  0
TEXT
  5
C55
  8
FRAME_050
 10
474.97499999999991
 20
410.5
 30
0.0
 40
4.0
  1
7
  7
ISO_PROPORTIONAL
 72
     4
 11
476.37499999999989
 21
412.5
 31
0.0
  0
LINE
  5
C56
  8
FRAME_050
 10
579.0
 20
210.0
 30
0.0
 11
589.0
 21
210.0
 31
0.0
  0
TEXT
  5
C57
  8
FRAME_050
 10
584.78609127034736
 20
235.0
 30
0.0
 40
4.0
  1
D
  7
ISO_PROPORTIONAL
 72
     4
 11
586.5
 21
237.0
 31
0.0
  0
LINE
  5
C58
  8
FRAME_050
 10
589.0
 20
260.0
 30
0.0
 11
584.0
 21
260.0
 31
0.0
  0
TEXT
  5
C59
  8
FRAME_050
 10
585.19319805153395
 20
285.0
 30
0.0
 40
4.0
  1
C
  7
ISO_PROPORTIONAL
 72
     4
 11
586.5
 21
287.0
 31
0.0
  0
LINE
  5
C5A
  8
FRAME_050
 10
589.0
 20
310.0
 30
0.0
 11
584.0
 21
310.0
 31
0.0
  0
TEXT
  5
C5B
  8
FRAME_050
 10
584.89999999999998
 20
335.0
 30
0.0
 40
4.0
  1
B
  7
ISO_PROPORTIONAL
 72
     4
 11
586.5
 21
337.0
 31
0.0
  0
TEXT
  5
C5C
  8
FRAME_025
 10
571.08299391850551
 20
405.75
 30
0.0
 40
2.5
  1
Checked
  7
ISO_PROPORTIONAL
 11
571.08299391850551
 21
407.0
 31
0.0
 73
     2
  0
TEXT
  5
C5D
  8
FRAME_025
 10
555.36099797283521
 20
405.75
 30
0.0
 40
2.5
  1
Signature
  7
ISO_PROPORTIONAL
 11
555.36099797283521
 21
407.0
 31
0.0
 73
     2
  0
TEXT
  5
C5E
  8
FRAME_025
 10
537.0
 20
405.75
 30
0.0
 40
2.5
  1
Date
  7
ISO_PROPORTIONAL
 11
537.0
 21
407.0
 31
0.0
 73
     2
  0
LINE
  5
C5F
  8
FRAME_070
 10
570.0
 20
404.0
 30
0.0
 11
570.0
 21
410.0
 31
0.0
  0
LINE
  5
C60
  8
FRAME_070
 10
555.0
 20
404.0
 30
0.0
 11
555.0
 21
410.0
 31
0.0
  0
LINE
  5
C61
  8
FRAME_070
 10
535.0
 20
404.0
 30
0.0
 11
535.0
 21
410.0
 31
0.0
  0
LINE
  5
C62
  8
FRAME_050
 10
512.25
 20
410.0
 30
0.0
 11
512.25
 21
415.0
 31
0.0
  0
TEXT
  5
C63
  8
FRAME_050
 10
546.72499999999991
 20
410.5
 30
0.0
 40
4.0
  1
8
  7
ISO_PROPORTIONAL
 72
     4
 11
548.125
 21
412.5
 31
0.0
  0
LINE
  5
C64
  8
FRAME_050
 10
589.0
 20
360.0
 30
0.0
 11
584.0
 21
360.0
 31
0.0
  0
TEXT
  5
C65
  8
FRAME_050
 10
584.70000000000005
 20
385.0
 30
0.0
 40
4.0
  1
A
  7
ISO_PROPORTIONAL
 72
     4
 11
586.5
 21
387.0
 31
0.0
  0
LINE
  5
C66
  8
FRAME_200
 10
594.0
 20
420.0
 30
0.0
 11
584.0
 21
420.0
 31
0.0
  0
LINE
  5
C67
  8
FRAME_200
 10
594.0
 20
410.0
 30
0.0
 11
594.0
 21
420.0
 31
0.0
  0
ENDBLK
  5
C69
  8
0
  0
BLOCK
  8
0
  2
WOBB001END
 70
     0
 10
0.0
 20
0.0
 30
0.0
  3
WOBB001END
  1

  0
LINE
  5
4D66
  8
0
  6
CONTINUOUS
 10
0.0
 20
0.0
 30
0.0
 11
0.8749999999999998
 21
0.0
 31
0.0
  0
ARC
  5
4D67
  8
0
  6
CONTINUOUS
 10
0.0331648379439287
 20
-0.5087238935900234
 30
0.0
 40
0.8790130605592325
 50
284.06490243660443
 51
312.19222981924361
  0
ARC
  5
4D68
  8
0
  6
CONTINUOUS
 10
0.2841534338796767
 20
-1.510548310625538
 30
0.0
 40
0.1537731892806598
 50
104.0649024366044
 51
179.4721730735024
  0
LINE
  5
4D69
  8
0
  6
CONTINUOUS
 10
0.0
 20
0.0
 30
0.0
 11
-0.0000000000000003
 21
-1.7501564476661911
 31
0.0
  0
ARC
  5
4D6A
  8
0
  6
CONTINUOUS
 10
0.1404622019506122
 20
-1.630313718354619
 30
0.0
 40
0.1198427293115722
 50
275.0
 51
85.000000000000057
  0
LINE
  5
4D6B
  8
0
  6
CONTINUOUS
 10
-0.0000000000000003
 20
-1.7501564476661911
 30
0.0
 11
0.1456946485130855
 21
-1.7501564476661911
 31
0.0
  0
LINE
  5
4D6C
  8
0
  6
CONTINUOUS
 10
0.1377603739254348
 20
-1.7508506067459131
 30
0.0
 11
0.150907184036669
 21
-1.7497004098996509
 31
0.0
  0
LINE
  5
4D6D
  8
0
  6
CONTINUOUS
 10
0.1303867696719884
 20
-1.5091317231818231
 30
0.0
 11
0.1509071840366689
 21
-1.510927026809586
 31
0.0
  0
LINE
  5
4D6E
  8
0
  6
CONTINUOUS
 10
0.8749999999999998
 20
0.0
 30
0.0
 11
0.8749999999999996
 21
-0.8649327026588228
 31
0.0
  0
LINE
  5
4D6F
  8
0
  6
CONTINUOUS
 10
0.727014513830997
 20
-0.872688293355061
 30
0.0
 11
0.727014513830997
 21
-0.9264923397184784
 31
0.0
  0
ARC
  5
4D70
  8
0
  6
CONTINUOUS
 10
0.41187090827646
 20
-0.9264923397184784
 30
0.0
 40
0.3151436055545369
 50
312.19222981924361
 51
0.0
  0
LINE
  5
4D71
  8
0
  6
CONTINUOUS
 10
0.727014513830997
 20
-0.872688293355061
 30
0.0
 11
0.8749999999999996
 21
-0.8649327026588228
 31
0.0
  0
ENDBLK
  5
4D72
  8
0
  0
BLOCK
  8
0
  2
A$C0A61123B
 70
     0
 10
0.0
 20
0.0
 30
0.0
  3
A$C0A61123B
  1

  0
LINE
  5
C0AD
  8
PROF
  6
CONTINUOUS
 10
4.9012016798694162
 20
13.325025853350891
 30
0.0000000000000002
 11
4.9012016798694162
 21
12.88585218805485
 31
0.0000000000000003
  0
INSERT
  5
C0AE
  8
0
  2
*U7
 10
0.0
 20
0.0
 30
0.0
  0
LINE
  5
C0AF
  8
PROF
 10
4.519857503186925
 20
12.72227734589444
 30
0.0000000000000001
 11
4.519857503186925
 21
12.88585218805485
 31
0.0000000000000001
  0
LINE
  5
C0B0
  8
PROF
  6
CONTINUOUS
 10
3.6306271195888362
 20
13.325025853350891
 30
0.0000000000000002
 11
4.9012016798694162
 21
13.325025853350891
 31
0.0000000000000002
  0
LINE
  5
C0B1
  8
PROF
 10
1.9750295148747341
 20
10.37671325491794
 30
0.0000000000000002
 11
1.9750295148747341
 21
10.11391186758919
 31
0.0000000000000002
  0
LINE
  5
C0B2
  8
PROF
 10
1.6079673357556299
 20
10.11391186758919
 30
0.0000000000000001
 11
1.9750295148747341
 21
10.11391186758919
 31
0.0000000000000001
  0
LINE
  5
C0B3
  8
PROF
 10
1.9750295148747341
 20
10.11391186758919
 30
0.0000000000000001
 11
1.944958486898144
 21
10.11391186758919
 31
0.0000000000000001
  0
LINE
  5
C0B4
  8
PROF
 10
1.9750295148747341
 20
10.11391186758919
 30
0.0000000000000001
 11
1.944958486898144
 21
10.11391186758919
 31
0.0000000000000001
  0
LINE
  5
C0B5
  8
PROF
 10
0.3222605517169654
 20
7.5247473351056451
 30
-0.0000000000000002
 11
-0.0000008570117416
 21
7.5247473351056451
 31
0.0
  0
LINE
  5
C0B6
  8
PROF
 10
-0.0000008570117416
 20
7.5247473351056451
 30
0.0
 11
-0.0000008570117416
 21
9.1943336957369848
 31
0.0
  0
POLYLINE
  5
C0B7
  8
PROF
 66
     1
 10
0.0
 20
0.0
 30
0.0000000000000001
 70
     4
 75
     6
  0
VERTEX
  5
C0B8
  8
PROF
 10
1.6079673357556299
 20
10.11391186758919
 30
0.0000000000000001
 70
    16
  0
VERTEX
  5
C0B9
  8
PROF
 10
1.6079673357556299
 20
10.11391186758919
 30
0.0000000000000001
 70
     8
  0
VERTEX
  5
C0BA
  8
PROF
 10
1.6468132326485809
 20
10.02198069336111
 30
0.0000000000000001
 70
     8
  0
VERTEX
  5
C0BB
  8
PROF
 10
1.67335966680929
 20
9.9344134163010231
 30
0.0000000000000001
 70
     8
  0
VERTEX
  5
C0BC
  8
PROF
 10
1.6890086400463229
 20
9.8512576644480951
 30
0.0000000000000001
 70
     8
  0
VERTEX
  5
C0BD
  8
PROF
 10
1.6951621541682571
 20
9.7725610658417281
 30
0.0000000000000001
 70
     8
  0
VERTEX
  5
C0BE
  8
PROF
 10
1.693222210983605
 20
9.6983712485214237
 30
0.0000000000000001
 70
     8
  0
VERTEX
  5
C0BF
  8
PROF
 10
1.6845908123009961
 20
9.6287358405263603
 30
0.0000000000000001
 70
     8
  0
VERTEX
  5
C0C0
  8
PROF
 10
1.670669959928885
 20
9.5637024698960431
 30
0.0000000000000001
 70
     8
  0
VERTEX
  5
C0C1
  8
PROF
 10
1.6528616556759621
 20
9.5033187646697552
 30
0.0000000000000001
 70
     8
  0
VERTEX
  5
C0C2
  8
PROF
 10
1.632356299273054
 20
9.4475843259650691
 30
0.0000000000000001
 70
     8
  0
VERTEX
  5
C0C3
  8
PROF
 10
1.609497882140658
 20
9.3963066472123273
 30
0.0000000000000001
 70
     8
  0
VERTEX
  5
C0C4
  8
PROF
 10
1.584418793621637
 20
9.3492451949202842
 30
0.0000000000000001
 70
     8
  0
VERTEX
  5
C0C5
  8
PROF
 10
1.5572514230587431
 20
9.3061594355972357
 30
0.0000000000000001
 70
     8
  0
VERTEX
  5
C0C6
  8
PROF
 10
1.5281281597949601
 20
9.2668088357519274
 30
0.0000000000000001
 70
     8
  0
VERTEX
  5
C0C7
  8
PROF
 10
1.497181393172978
 20
9.2309528618929981
 30
0.0000000000000001
 70
     8
  0
VERTEX
  5
C0C8
  8
PROF
 10
1.4645435125357249
 20
9.1983509805288541
 30
0.0000000000000001
 70
     8
  0
VERTEX
  5
C0C9
  8
PROF
 10
1.4303469072260091
 20
9.1687626581682462
 30
0.0000000000000001
 70
     8
  0
VERTEX
  5
C0CA
  8
PROF
 10
1.394736033257401
 20
9.1419547918675335
 30
0.0000000000000001
 70
     8
  0
VERTEX
  5
C0CB
  8
PROF
 10
1.3579036133264131
 20
9.1177240008747713
 30
0.0000000000000001
 70
     8
  0
VERTEX
  5
C0CC
  8
PROF
 10
1.3200544368004321
 20
9.0958743349860924
 30
0.0000000000000001
 70
     8
  0
VERTEX
  5
C0CD
  8
PROF
 10
1.281393293046676
 20
9.0762098439975034
 30
0.0000000000000001
 70
     8
  0
VERTEX
  5
C0CE
  8
PROF
 10
1.2421249714324161
 20
9.0585345777049042
 30
0.0000000000000001
 70
     8
  0
VERTEX
  5
C0CF
  8
PROF
 10
1.202454261324986
 20
9.0426525859044187
 30
0.0000000000000001
 70
     8
  0
VERTEX
  5
C0D0
  8
PROF
 10
1.162585952091659
 20
9.0283679183919503
 30
0.0000000000000001
 70
     8
  0
VERTEX
  5
C0D1
  8
PROF
 10
1.1227248330997091
 20
9.0154846249635021
 30
0.0000000000000001
 70
     8
  0
VERTEX
  5
C0D2
  8
PROF
 10
1.0829726247361
 20
9.0034643862466055
 30
0.0000000000000001
 70
     8
  0
VERTEX
  5
C0D3
  8
PROF
 10
1.043018771466222
 20
8.9903994061946833
 30
0.0000000000000001
 70
     8
  0
VERTEX
  5
C0D4
  8
PROF
 10
1.002449648775211
 20
8.9740395195925622
 30
0.0000000000000001
 70
     8
  0
VERTEX
  5
C0D5
  8
PROF
 10
0.9608516321480919
 20
8.9521345612251935
 30
0.0000000000000001
 70
     8
  0
VERTEX
  5
C0D6
  8
PROF
 10
0.9178110970699435
 20
8.9224343658775052
 30
0.0000000000000001
 70
     8
  0
VERTEX
  5
C0D7
  8
PROF
 10
0.8729144190259033
 20
8.8826887683343312
 30
0.0000000000000001
 70
     8
  0
VERTEX
  5
C0D8
  8
PROF
 10
0.8257479735009949
 20
8.8306476033806121
 30
0.0000000000000001
 70
     8
  0
VERTEX
  5
C0D9
  8
PROF
 10
0.7758981359802988
 20
8.764060705801171
 30
0.0000000000000001
 70
     8
  0
VERTEX
  5
C0DA
  8
PROF
 10
1.7292019016096549
 20
9.8629858761255491
 30
0.0000000000000001
 70
    16
  0
VERTEX
  5
C0DB
  8
PROF
 10
1.679373123114088
 20
9.4532143012734213
 30
0.0000000000000001
 70
    16
  0
VERTEX
  5
C0DC
  8
PROF
 10
1.4455611507419801
 20
9.1391837193732481
 30
0.0000000000000001
 70
    16
  0
VERTEX
  5
C0DD
  8
PROF
 10
1.1204637172738201
 20
9.0026267702428413
 30
0.0000000000000001
 70
    16
  0
VERTEX
  5
C0DE
  8
PROF
 10
0.9127765582653638
 20
8.9630202230383702
 30
0.0000000000000001
 70
    16
  0
VERTEX
  5
C0DF
  8
PROF
 10
0.7758981359802988
 20
8.764060705801171
 30
0.0000000000000001
 70
    16
  0
SEQEND
  5
C0E0
  8
PROF
  0
ARC
  5
C0E1
  8
PROF
 10
0.733429816733235
 20
8.4849506952165257
 30
0.0000000000000001
 40
0.2823224329524727
 50
269.73652020831901
 51
81.348449993176914
  0
LINE
  5
C0E2
  8
PROF
  6
CONTINUOUS
 10
-0.0000008570117416
 20
9.1943336957369848
 30
-0.0000000000000001
 11
3.6306271195888362
 21
13.325025853350891
 31
0.0000000000000002
  0
POLYLINE
  5
C0E3
  8
PROF
 66
     1
 10
0.0
 20
0.0
 30
0.0000000000000001
 70
     4
 75
     6
  0
VERTEX
  5
C0E4
  8
PROF
 10
4.519857503186925
 20
12.72227734589444
 30
0.0000000000000001
 70
    16
  0
VERTEX
  5
C0E5
  8
PROF
 10
4.519857503186925
 20
12.72227734589444
 30
0.0000000000000001
 70
     8
  0
VERTEX
  5
C0E6
  8
PROF
 10
4.4467035366886289
 20
12.741128108778071
 30
0.0000000000000001
 70
     8
  0
VERTEX
  5
C0E7
  8
PROF
 10
4.3786645761268801
 20
12.754675269913941
 30
0.0000000000000001
 70
     8
  0
VERTEX
  5
C0E8
  8
PROF
 10
4.3154364111440469
 20
12.76334314092332
 30
0.0000000000000001
 70
     8
  0
VERTEX
  5
C0E9
  8
PROF
 10
4.256714831382566
 20
12.76755603342724
 30
0.0000000000000001
 70
     8
  0
VERTEX
  5
C0EA
  8
PROF
 10
4.2021956264849791
 20
12.76773825904672
 30
0.0000000000000001
 70
     8
  0
VERTEX
  5
C0EB
  8
PROF
 10
4.1515745860935436
 20
12.764314129403139
 30
0.0000000000000001
 70
     8
  0
VERTEX
  5
C0EC
  8
PROF
 10
4.1045474998508649
 20
12.75770795611743
 30
0.0000000000000001
 70
     8
  0
VERTEX
  5
C0ED
  8
PROF
 10
4.0608101573993149
 20
12.748344050810831
 30
0.0000000000000001
 70
     8
  0
VERTEX
  5
C0EE
  8
PROF
 10
4.0200583483813261
 20
12.736646725104491
 30
0.0000000000000001
 70
     8
  0
VERTEX
  5
C0EF
  8
PROF
 10
3.981987862439381
 20
12.72304029061945
 30
0.0000000000000001
 70
     8
  0
VERTEX
  5
C0F0
  8
PROF
 10
3.946294489215858
 20
12.707949058976959
 30
0.0000000000000001
 70
     8
  0
VERTEX
  5
C0F1
  8
PROF
 10
3.912674018353242
 20
12.691797341798059
 30
0.0000000000000001
 70
     8
  0
VERTEX
  5
C0F2
  8
PROF
 10
3.8808638350742499
 20
12.67494295718654
 30
0.0000000000000001
 70
     8
  0
VERTEX
  5
C0F3
  8
PROF
 10
3.850767706922738
 20
12.65747774917668
 30
0.0000000000000001
 70
     8
  0
VERTEX
  5
C0F4
  8
PROF
 10
3.8223309970228438
 20
12.639427068285499
 30
0.0000000000000001
 70
     8
  0
VERTEX
  5
C0F5
  8
PROF
 10
3.795499068498712
 20
12.62081626503004
 30
0.0000000000000001
 70
     8
  0
VERTEX
  5
C0F6
  8
PROF
 10
3.7702172844744819
 20
12.601670689926999
 30
0.0000000000000001
 70
     8
  0
VERTEX
  5
C0F7
  8
PROF
 10
3.7464310080743521
 20
12.58201569349364
 30
0.0000000000000001
 70
     8
  0
VERTEX
  5
C0F8
  8
PROF
 10
3.7240856024224609
 20
12.56187662624666
 30
0.0000000000000001
 70
     8
  0
VERTEX
  5
C0F9
  8
PROF
 10
3.7031264306428961
 20
12.541278838703191
 30
0.0000000000000001
 70
     8
  0
VERTEX
  5
C0FA
  8
PROF
 10
3.683498855859908
 20
12.520247681380051
 30
0.0000000000000001
 70
     8
  0
VERTEX
  5
C0FB
  8
PROF
 10
3.665148241197528
 20
12.49880850479428
 30
0.0000000000000001
 70
     8
  0
VERTEX
  5
C0FC
  8
PROF
 10
3.648019949779949
 20
12.47698665946279
 30
0.0000000000000001
 70
     8
  0
VERTEX
  5
C0FD
  8
PROF
 10
3.6320593447313159
 20
12.45480749590263
 30
0.0000000000000001
 70
     8
  0
VERTEX
  5
C0FE
  8
PROF
 10
3.617189584886658
 20
12.43223790353807
 30
0.0000000000000001
 70
     8
  0
VERTEX
  5
C0FF
  8
PROF
 10
3.6032450119242849
 20
12.40901092742285
 30
0.0000000000000001
 70
     8
  0
VERTEX
  5
C100
  8
PROF
 10
3.590037763233453
 20
12.38480115151844
 30
0.0000000000000001
 70
     8
  0
VERTEX
  5
C101
  8
PROF
 10
3.5773799762033032
 20
12.35928315978594
 30
0.0000000000000001
 70
     8
  0
VERTEX
  5
C102
  8
PROF
 10
3.5650837882230899
 20
12.33213153618658
 30
0.0000000000000001
 70
     8
  0
VERTEX
  5
C103
  8
PROF
 10
3.552961336681959
 20
12.303020864681571
 30
0.0000000000000001
 70
     8
  0
VERTEX
  5
C104
  8
PROF
 10
3.540824758969165
 20
12.271625729232371
 30
0.0000000000000001
 70
     8
  0
VERTEX
  5
C105
  8
PROF
 10
3.528486192473848
 20
12.23762071379997
 30
0.0000000000000001
 70
     8
  0
VERTEX
  5
C106
  8
PROF
 10
3.5157577745852659
 20
12.200680402345711
 30
0.0000000000000001
 70
     8
  0
VERTEX
  5
C107
  8
PROF
 10
3.502451642692618
 20
12.16047937883093
 30
0.0000000000000001
 70
     8
  0
VERTEX
  5
C108
  8
PROF
 10
3.4883799341851041
 20
12.116692227216619
 30
0.0000000000000001
 70
     8
  0
VERTEX
  5
C109
  8
PROF
 10
3.4733547864519201
 20
12.06899353146423
 30
0.0000000000000001
 70
     8
  0
VERTEX
  5
C10A
  8
PROF
 10
3.45723654619428
 20
12.0172095445447
 30
0.0000000000000001
 70
     8
  0
VERTEX
  5
C10B
  8
PROF
 10
3.440078397361388
 20
11.961773195467799
 30
0.0000000000000001
 70
     8
  0
VERTEX
  5
C10C
  8
PROF
 10
3.4219817332145781
 20
11.90326908225302
 30
0.0000000000000001
 70
     8
  0
VERTEX
  5
C10D
  8
PROF
 10
3.4030479470150099
 20
11.842281802919951
 30
0.0000000000000001
 70
     8
  0
VERTEX
  5
C10E
  8
PROF
 10
3.383378432024017
 20
11.779395955487979
 30
0.0000000000000001
 70
     8
  0
VERTEX
  5
C10F
  8
PROF
 10
3.36307458150287
 20
11.7151961379768
 30
0.0000000000000001
 70
     8
  0
VERTEX
  5
C110
  8
PROF
 10
3.342237788712735
 20
11.650266948405831
 30
0.0000000000000001
 70
     8
  0
VERTEX
  5
C111
  8
PROF
 10
3.3209694469149991
 20
11.58519298479461
 30
0.0000000000000001
 70
     8
  0
VERTEX
  5
C112
  8
PROF
 10
3.299370949370767
 20
11.52055884516254
 30
0.0000000000000001
 70
     8
  0
VERTEX
  5
C113
  8
PROF
 10
3.277543689341428
 20
11.456949127529461
 30
0.0000000000000001
 70
     8
  0
VERTEX
  5
C114
  8
PROF
 10
3.2555890600881399
 20
11.3949484299145
 30
0.0000000000000001
 70
     8
  0
VERTEX
  5
C115
  8
PROF
 10
3.2336084548721811
 20
11.335141350337491
 30
0.0000000000000001
 70
     8
  0
VERTEX
  5
C116
  8
PROF
 10
3.2116715641212181
 20
11.277995447977769
 30
0.0000000000000001
 70
     8
  0
VERTEX
  5
C117
  8
PROF
 10
3.1897212669278461
 20
11.22351012665467
 30
0.0000000000000001
 70
     8
  0
VERTEX
  5
C118
  8
PROF
 10
3.1676687395512881
 20
11.17156775134765
 30
0.0000000000000001
 70
     8
  0
VERTEX
  5
C119
  8
PROF
 10
3.1454251582505321
 20
11.12205068703588
 30
0.0000000000000001
 70
     8
  0
VERTEX
  5
C11A
  8
PROF
 10
3.122901699284625
 20
11.07484129869874
 30
0.0000000000000001
 70
     8
  0
VERTEX
  5
C11B
  8
PROF
 10
3.1000095389127278
 20
11.02982195131551
 30
0.0000000000000001
 70
     8
  0
VERTEX
  5
C11C
  8
PROF
 10
3.07665985339389
 20
10.986875009865679
 30
0.0000000000000001
 70
     8
  0
VERTEX
  5
C11D
  8
PROF
 10
3.0527638189871591
 20
10.9458828393283
 30
0.0000000000000001
 70
     8
  0
VERTEX
  5
C11E
  8
PROF
 10
3.0282326119516361
 20
10.90672780468298
 30
0.0000000000000001
 70
     8
  0
VERTEX
  5
C11F
  8
PROF
 10
3.0029774085463701
 20
10.869292270908771
 30
0.0000000000000001
 70
     8
  0
VERTEX
  5
C120
  8
PROF
 10
2.9769093850304089
 20
10.833458602985161
 30
0.0000000000000001
 70
     8
  0
VERTEX
  5
C121
  8
PROF
 10
2.9499397176628559
 20
10.799109165891419
 30
0.0000000000000001
 70
     8
  0
VERTEX
  5
C122
  8
PROF
 10
2.922000609840437
 20
10.76614363969508
 30
0.0000000000000001
 70
     8
  0
VERTEX
  5
C123
  8
PROF
 10
2.8931083735102998
 20
10.7345309648158
 30
0.0000000000000001
 70
     8
  0
VERTEX
  5
C124
  8
PROF
 10
2.8633003477572729
 20
10.70425739676193
 30
0.0000000000000001
 70
     8
  0
VERTEX
  5
C125
  8
PROF
 10
2.8326138716660689
 20
10.67530919104115
 30
0.0000000000000001
 70
     8
  0
VERTEX
  5
C126
  8
PROF
 10
2.801086284321626
 20
10.647672603161711
 30
0.0000000000000001
 70
     8
  0
VERTEX
  5
C127
  8
PROF
 10
2.7687549248087162
 20
10.62133388863162
 30
0.0000000000000001
 70
     8
  0
VERTEX
  5
C128
  8
PROF
 10
2.7356571322120531
 20
10.5962793029588
 30
0.0000000000000001
 70
     8
  0
VERTEX
  5
C129
  8
PROF
 10
2.7018302456165202
 20
10.572495101651381
 30
0.0000000000000001
 70
     8
  0
VERTEX
  5
C12A
  8
PROF
 10
2.6673116041068838
 20
10.54996754021726
 30
0.0000000000000001
 70
     8
  0
VERTEX
  5
C12B
  8
PROF
 10
2.6321385467680321
 20
10.528682874164581
 30
0.0000000000000001
 70
     8
  0
VERTEX
  5
C12C
  8
PROF
 10
2.5963484126846179
 20
10.508627359001251
 30
0.0000000000000001
 70
     8
  0
VERTEX
  5
C12D
  8
PROF
 10
2.5599785409415841
 20
10.489787250235279
 30
0.0000000000000001
 70
     8
  0
VERTEX
  5
C12E
  8
PROF
 10
2.522998630314361
 20
10.472162234281081
 30
0.0000000000000001
 70
     8
  0
VERTEX
  5
C12F
  8
PROF
 10
2.4851078183409072
 20
10.455805721177621
 30
0.0000000000000001
 70
     8
  0
VERTEX
  5
C130
  8
PROF
 10
2.4459376022498982
 20
10.44078455187036
 30
0.0000000000000001
 70
     8
  0
VERTEX
  5
C131
  8
PROF
 10
2.4051194792701249
 20
10.42716556730465
 30
0.0000000000000001
 70
     8
  0
VERTEX
  5
C132
  8
PROF
 10
2.3622849466301541
 20
10.415015608425851
 30
0.0000000000000001
 70
     8
  0
VERTEX
  5
C133
  8
PROF
 10
2.317065501558714
 20
10.40440151617929
 30
0.0000000000000001
 70
     8
  0
VERTEX
  5
C134
  8
PROF
 10
2.2690926412844301
 20
10.395390131510339
 30
0.0000000000000001
 70
     8
  0
VERTEX
  5
C135
  8
PROF
 10
2.2179978630360879
 20
10.388048295364451
 30
0.0000000000000001
 70
     8
  0
VERTEX
  5
C136
  8
PROF
 10
2.1634126640422551
 20
10.38244284868688
 30
0.0000000000000001
 70
     8
  0
VERTEX
  5
C137
  8
PROF
 10
2.1049685415316031
 20
10.37864063242295
 30
0.0000000000000001
 70
     8
  0
VERTEX
  5
C138
  8
PROF
 10
2.0422969927328709
 20
10.37670848751816
 30
0.0000000000000001
 70
     8
  0
VERTEX
  5
C139
  8
PROF
 10
1.9750295148747341
 20
10.37671325491794
 30
0.0000000000000001
 70
     8
  0
VERTEX
  5
C13A
  8
PROF
 10
4.2166060115107484
 20
12.80885334975255
 30
0.0000000000000001
 70
    16
  0
VERTEX
  5
C13B
  8
PROF
 10
3.8702254102732909
 20
12.707065515763929
 30
0.0000000000000001
 70
    16
  0
VERTEX
  5
C13C
  8
PROF
 10
3.605346156896871
 20
12.46277472098552
 30
0.0000000000000001
 70
    16
  0
VERTEX
  5
C13D
  8
PROF
 10
3.500746030527238
 20
12.170680575709749
 30
0.0000000000000001
 70
    16
  0
VERTEX
  5
C13E
  8
PROF
 10
3.231798439705698
 20
11.26846416496107
 30
0.0000000000000001
 70
    16
  0
VERTEX
  5
C13F
  8
PROF
 10
2.9737109398832882
 20
10.76631086647069
 30
0.0000000000000001
 70
    16
  0
VERTEX
  5
C140
  8
PROF
 10
2.5729961067384002
 20
10.460947364504699
 30
0.0000000000000001
 70
    16
  0
VERTEX
  5
C141
  8
PROF
 10
2.2537826214546031
 20
10.372731239449759
 30
0.0000000000000001
 70
    16
  0
VERTEX
  5
C142
  8
PROF
 10
1.9750295148747341
 20
10.37671325491794
 30
0.0000000000000001
 70
    16
  0
SEQEND
  5
C143
  8
PROF
  0
LINE
  5
C144
  8
PROF
 10
4.9012016798694162
 20
12.88585218805485
 30
0.0000000000000003
 11
4.519857503186925
 21
12.88585218805485
 31
0.0000000000000003
  0
LINE
  5
C145
  8
PROF
 10
0.7321315362267457
 20
8.2026312473991556
 30
0.0000000000000006
 11
0.7321315362267457
 21
8.0511853963434952
 31
0.0000000000000006
  0
ARC
  5
C146
  8
PROF
 10
0.7977322214551919
 20
7.577333933202679
 30
0.0000000000000006
 40
0.4783708383912013
 50
97.882010168942557
 51
186.31119505698641
  0
LINE
  5
C147
  8
FRAME_050
 10
7.8016377197432121
 20
17.99371054969447
 30
0.0
 11
7.8016377197432121
 21
0.0000000000002274
 31
0.0
  0
ENDBLK
  5
C149
  8
0
  0
BLOCK
  8
0
  2
*U7
 70
     1
 10
0.0
 20
0.0
 30
0.0
  3
*U7
  1

  0
TEXT
  5
C8C3
  8
0
 10
3.5177832928899071
 20
10.38601584255777
 30
0.0
 40
0.125
  1
Crown Moulding
  0
TEXT
  5
C8C4
  8
0
 10
3.5223876585106431
 20
10.17717091304435
 30
0.0
 40
0.125
  1
TL-AB509
  0
TEXT
  5
C8C5
  8
0
 10
3.5074661032582561
 20
9.9667059289606801
 30
0.0
 40
0.125
  1
1-5/16" x 7-9/16"
  0
TEXT
  5
C8C6
  8
0
 10
3.519403347460166
 20
9.7562409448770051
 30
0.0
 40
0.125
  1
800.66.TAGUE
  0
ENDBLK
  5
C8C8
  8
0
  0
BLOCK
  8
0
  2
*U8
 70
     1
 10
0.0
 20
0.0
 30
0.0
  3
*U8
  1

  0
TEXT
  5
C8CA
  8
0
 10
5.3066868277875692
 20
1.767659498411035
 30
0.0
 40
0.125
  1
Back Band
  0
TEXT
  5
C8CB
  8
0
 10
5.3153839628489603
 20
1.55881456889762
 30
0.0
 40
0.125
  1
TL-1
  0
TEXT
  5
C8CC
  8
0
 10
5.3004624075965721
 20
1.3483495848139451
 30
0.0
 40
0.125
  1
1-3/8" x 1-9/16"
  0
TEXT
  5
C8CD
  8
0
 10
5.3123996517984811
 20
1.1378846007302701
 30
0.0
 40
0.125
  1
800.66.TAGUE
  0
ENDBLK
  5
C8CF
  8
0
  0
BLOCK
  8
0
  2
*U9
 70
     1
 10
0.0
 20
0.0
 30
0.0
  3
*U9
  1

  0
TEXT
  5
C8D1
  8
0
 10
-385.7580743253551
 20
838.2627455404056
 30
0.0
 40
0.125
  1
Back Band
  0
TEXT
  5
C8D2
  8
0
 10
-385.74937719029373
 20
838.05390061089247
 30
0.0
 40
0.125
  1
TL-1
  0
TEXT
  5
C8D3
  8
0
 10
-385.76429874554611
 20
837.84343562680851
 30
0.0
 40
0.125
  1
1-3/8" x 1-9/16"
  0
TEXT
  5
C8D4
  8
0
 10
-385.75236150134418
 20
837.63297064272513
 30
0.0
 40
0.125
  1
800.66.TAGUE
  0
ENDBLK
  5
C8D6
  8
0
  0
BLOCK
  8
0
  2
*U25
 70
     1
 10
0.0
 20
0.0
 30
0.0
  3
*U25
  1

  0
TEXT
  5
D2E8
  8
0
 10
1.801309719190612
 20
0.7422271098238867
 30
0.0
 40
0.125
  1
Solid Crown
  0
TEXT
  5
D2E9
  8
0
 10
1.801309719190612
 20
0.5338937764905534
 30
0.0
 40
0.125
  1
TL-2182
  0
TEXT
  5
D2EA
  8
0
 10
1.801309719190612
 20
0.32556044315722
 30
0.0
 40
0.125
  1
1-1/32" x 1-5/16"
  0
TEXT
  5
D2EB
  8
0
 10
1.801309719190612
 20
0.1172271098238866
 30
0.0
 40
0.125
  1
800.66.TAGUE
  0
ENDBLK
  5
D2ED
  8
0
  0
BLOCK
  8
0
  2
*U26
 70
     1
 10
0.0
 20
0.0
 30
0.0
  3
*U26
  1

  0
TEXT
  5
D2EF
  8
0
 10
1.625113436446326
 20
0.9370028111704301
 30
0.0
 40
0.125
  1
Solid Crown
  0
TEXT
  5
D2F0
  8
0
 10
1.625113436446326
 20
0.7286694778370969
 30
0.0
 40
0.125
  1
TL-2157
  0
TEXT
  5
D2F1
  8
0
 10
1.625113436446326
 20
0.5203361445037635
 30
0.0
 40
0.125
  1
1-9/32" x 2"
  0
TEXT
  5
D2F2
  8
0
 10
1.625113436446326
 20
0.31200281117043
 30
0.0
 40
0.125
  1
800.66.TAGUE
  0
ENDBLK
  5
D2F4
  8
0
  0
BLOCK
  8
0
  2
*U27
 70
     1
 10
0.0
 20
0.0
 30
0.0
  3
*U27
  1

  0
TEXT
  5
D2F6
  8
0
 10
1.920486779030625
 20
0.9014428381942138
 30
0.0
 40
0.125
  1
Solid Crown
  0
TEXT
  5
D2F7
  8
0
 10
1.920486779030625
 20
0.6931095048608807
 30
0.0
 40
0.125
  1
TL-2188
  0
TEXT
  5
D2F8
  8
0
 10
1.920486779030625
 20
0.4847761715275473
 30
0.0
 40
0.125
  1
1-5/8" x 2"
  0
TEXT
  5
D2F9
  8
0
 10
1.920486779030625
 20
0.2764428381942139
 30
0.0
 40
0.125
  1
800.66.TAGUE
  0
ENDBLK
  5
D2FB
  8
0
  0
BLOCK
  8
0
  2
*U28
 70
     1
 10
0.0
 20
0.0
 30
0.0
  3
*U28
  1

  0
TEXT
  5
D2FD
  8
0
 10
1.746815334566576
 20
0.7356822575717957
 30
0.0
 40
0.125
  1
Solid Crown
  0
TEXT
  5
D2FE
  8
0
 10
1.746815334566576
 20
0.5273489242384624
 30
0.0
 40
0.125
  1
TL-2235
  0
TEXT
  5
D2FF
  8
0
 10
1.746815334566576
 20
0.319015590905129
 30
0.0
 40
0.125
  1
11/16" x 15/16"
  0
TEXT
  5
D300
  8
0
 10
1.746815334566576
 20
0.1106822575717956
 30
0.0
 40
0.125
  1
800.66.TAGUE
  0
ENDBLK
  5
D302
  8
0
  0
BLOCK
  8
0
  2
*U29
 70
     1
 10
0.0
 20
0.0
 30
0.0
  3
*U29
  1

  0
TEXT
  5
D304
  8
0
 10
2.0509945988744671
 20
1.365453408895575
 30
0.0
 40
0.125
  1
Solid Crown
  0
TEXT
  5
D305
  8
0
 10
2.0509945988744671
 20
1.1571200755622419
 30
0.0
 40
0.125
  1
TL-339
  0
TEXT
  5
D306
  8
0
 10
2.0509945988744671
 20
0.948786742228909
 30
0.0
 40
0.125
  1
1-5/8" x 2-5/8"
  0
TEXT
  5
D307
  8
0
 10
2.0509945988744671
 20
0.7404534088955757
 30
0.0
 40
0.125
  1
800.66.TAGUE
  0
ENDBLK
  5
D309
  8
0
  0
BLOCK
  8
0
  2
*U30
 70
     1
 10
0.0
 20
0.0
 30
0.0
  3
*U30
  1

  0
TEXT
  5
D30B
  8
0
 10
2.0562685683860868
 20
1.1925432374321749
 30
0.0
 40
0.125
  1
Solid Crown
  0
TEXT
  5
D30C
  8
0
 10
2.0562685683860868
 20
0.9842099040988426
 30
0.0
 40
0.125
  1
TL-2249
  0
TEXT
  5
D30D
  8
0
 10
2.0562685683860868
 20
0.7758765707655093
 30
0.0
 40
0.125
  1
1-1/8" x 1-7/8"
  0
TEXT
  5
D30E
  8
0
 10
2.0562685683860868
 20
0.5675432374321759
 30
0.0
 40
0.125
  1
800.66.TAGUE
  0
ENDBLK
  5
D310
  8
0
  0
BLOCK
  8
0
  2
*U31
 70
     1
 10
0.0
 20
0.0
 30
0.0
  3
*U31
  1

  0
TEXT
  5
D312
  8
0
 10
1.34401033534931
 20
0.6780822238238784
 30
0.0
 40
0.125
  1
Solid Crown
  0
TEXT
  5
D313
  8
0
 10
1.34401033534931
 20
0.4697488904905451
 30
0.0
 40
0.125
  1
TL-2258
  0
TEXT
  5
D314
  8
0
 10
1.34401033534931
 20
0.2614155571572118
 30
0.0
 40
0.125
  1
5/8" x 3/4"
  0
TEXT
  5
D315
  8
0
 10
1.34401033534931
 20
0.0530822238238784
 30
0.0
 40
0.125
  1
800.66.TAGUE
  0
ENDBLK
  5
D317
  8
0
  0
BLOCK
  8
0
  2
*U32
 70
     1
 10
0.0
 20
0.0
 30
0.0
  3
*U32
  1

  0
TEXT
  5
D319
  8
0
 10
2.0597898518844882
 20
1.5819740602258321
 30
0.0
 40
0.125
  1
Solid Crown 
  0
TEXT
  5
D31A
  8
0
 10
2.0597898518844882
 20
1.3736407268924979
 30
0.0
 40
0.125
  1
TL-2279
  0
TEXT
  5
D31B
  8
0
 10
2.0597898518844882
 20
1.1653073935591649
 30
0.0
 40
0.125
  1
1-3/4"  x 2-3/4"
  0
TEXT
  5
D31C
  8
0
 10
2.0597898518844882
 20
0.956974060225832
 30
0.0
 40
0.125
  1
800.66.TAGUE
  0
ENDBLK
  5
D31E
  8
0
  0
BLOCK
  8
0
  2
*U33
 70
     1
 10
0.0
 20
0.0
 30
0.0
  3
*U33
  1

  0
TEXT
  5
D320
  8
0
 10
0.5926592555372281
 20
0.6780822487964429
 30
0.0
 40
0.125
  1
Solid Crown
  0
TEXT
  5
D321
  8
0
 10
0.5926592555372281
 20
0.4697489154631096
 30
0.0
 40
0.125
  1
TL-2321
  0
TEXT
  5
D322
  8
0
 10
0.5926592555372281
 20
0.2614155821297762
 30
0.0
 40
0.125
  1
1-7/8" x 2-1/4"
  0
TEXT
  5
D323
  8
0
 10
0.5926592555372281
 20
0.0530822487964429
 30
0.0
 40
0.125
  1
800.66.TAGUE
  0
ENDBLK
  5
D325
  8
0
  0
BLOCK
  8
0
  2
*U34
 70
     1
 10
0.0
 20
0.0
 30
0.0
  3
*U34
  1

  0
TEXT
  5
D327
  8
0
 10
0.054571907909974
 20
0.6780827931436875
 30
0.0
 40
0.125
  1
Solid Crown
  0
TEXT
  5
D328
  8
0
 10
0.054571907909974
 20
0.4697494598103542
 30
0.0
 40
0.125
  1
TL-2322
  0
TEXT
  5
D329
  8
0
 10
0.054571907909974
 20
0.2614161264770209
 30
0.0
 40
0.125
  1
1-1/4" x 2"
  0
TEXT
  5
D32A
  8
0
 10
0.054571907909974
 20
0.0530827931436875
 30
0.0
 40
0.125
  1
800.66.TAGUE
  0
ENDBLK
  5
D32C
  8
0
  0
BLOCK
  8
0
  2
*U35
 70
     1
 10
0.0
 20
0.0
 30
0.0
  3
*U35
  1

  0
TEXT
  5
D32E
  8
0
 10
2.812997521113572
 20
1.5103095468846841
 30
0.0
 40
0.125
  1
Solid Crown
  0
TEXT
  5
D32F
  8
0
 10
2.812997521113572
 20
1.3019762135513511
 30
0.0
 40
0.125
  1
TL-2325
  0
TEXT
  5
D330
  8
0
 10
2.812997521113572
 20
1.093642880218018
 30
0.0
 40
0.125
  1
1-3/4" x 2-7/8"
  0
TEXT
  5
D331
  8
0
 10
2.812997521113572
 20
0.8853095468846846
 30
0.0
 40
0.125
  1
800.66.TAGUE
  0
ENDBLK
  5
D333
  8
0
  0
BLOCK
  8
0
  2
*U36
 70
     1
 10
0.0
 20
0.0
 30
0.0
  3
*U36
  1

  0
INSERT
  5
D335
  8
0
  6
CONTINUOUS
  2
_OPEN30
 10
4.25007583112773
 20
4.0458778811966161
 30
0.0
 41
0.046875
 42
0.046875
 43
0.046875
 50
206.86004097467
  0
POLYLINE
  5
D336
  8
0
  6
CONTINUOUS
 66
     1
 10
0.0
 20
0.0
 30
0.0
  0
VERTEX
  5
D337
  8
0
  6
CONTINUOUS
 10
4.2918936208850731
 20
4.0670565989295362
 30
0.0
  0
VERTEX
  5
D338
  8
0
  6
CONTINUOUS
 10
4.7925223938993318
 20
4.3206012155668807
 30
0.0
  0
VERTEX
  5
D339
  8
0
  6
CONTINUOUS
 10
4.8767298800405001
 20
4.3228722330817666
 30
0.0
  0
SEQEND
  5
D33A
  8
0
  6
CONTINUOUS
  0
ENDBLK
  5
D33C
  8
0
  0
BLOCK
  8
0
  2
*U37
 70
     1
 10
0.0
 20
0.0
 30
0.0
  3
*U37
  1

  0
TEXT
  5
D33E
  8
0
 10
4.9392298800405001
 20
4.2603722330817666
 30
0.0
 40
0.125
  1
TL-1169
  0
ENDBLK
  5
D340
  8
0
  0
BLOCK
  8
0
  2
*U38
 70
     1
 10
0.0
 20
0.0
 30
0.0
  3
*U38
  1

  0
INSERT
  5
D342
  8
0
  6
CONTINUOUS
  2
_OPEN30
 10
3.015727299021818
 20
3.1861523687388451
 30
0.0
 41
0.046875
 42
0.046875
 43
0.046875
 50
136.65142556006271
  0
POLYLINE
  5
D343
  8
0
  6
CONTINUOUS
 66
     1
 10
0.0
 20
0.0
 30
0.0
  0
VERTEX
  5
D344
  8
0
  6
CONTINUOUS
 10
3.0498143804479341
 20
3.1539757234064099
 30
0.0
  0
VERTEX
  5
D345
  8
0
  6
CONTINUOUS
 10
3.5070580539338598
 20
2.722358615202352
 30
0.0
  0
VERTEX
  5
D346
  8
0
  6
CONTINUOUS
 10
3.6019889170380561
 20
2.722358615202352
 30
0.0
  0
SEQEND
  5
D347
  8
0
  6
CONTINUOUS
  0
ENDBLK
  5
D349
  8
0
  0
BLOCK
  8
0
  2
*U39
 70
     1
 10
0.0
 20
0.0
 30
0.0
  3
*U39
  1

  0
TEXT
  5
D34B
  8
0
 10
3.6644889170380561
 20
2.659858615202352
 30
0.0
 40
0.125
  1
TL-100
  0
ENDBLK
  5
D34D
  8
0
  0
BLOCK
  8
0
  2
*U40
 70
     1
 10
0.0
 20
0.0
 30
0.0
  3
*U40
  1

  0
INSERT
  5
D34F
  8
0
  6
CONTINUOUS
  2
_OPEN30
 10
2.6870017865641098
 20
1.8450005331302739
 30
0.0
 41
0.046875
 42
0.046875
 43
0.046875
 50
136.3900499074297
  0
POLYLINE
  5
D350
  8
0
  6
CONTINUOUS
 66
     1
 10
0.0
 20
0.0
 30
0.0
  0
VERTEX
  5
D351
  8
0
  6
CONTINUOUS
 10
2.720941728277904
 20
1.812668722456199
 30
0.0
  0
VERTEX
  5
D352
  8
0
  6
CONTINUOUS
 10
3.1314267320642548
 20
1.4216331827111901
 30
0.0
  0
VERTEX
  5
D353
  8
0
  6
CONTINUOUS
 10
3.2316706730279061
 20
1.4132916418840571
 30
0.0
  0
SEQEND
  5
D354
  8
0
  6
CONTINUOUS
  0
ENDBLK
  5
D356
  8
0
  0
BLOCK
  8
0
  2
*U41
 70
     1
 10
0.0
 20
0.0
 30
0.0
  3
*U41
  1

  0
TEXT
  5
D358
  8
0
 10
3.2941706730279061
 20
1.3507916418840571
 30
0.0
 40
0.125
  1
TL-412
  0
ENDBLK
  5
D35A
  8
0
  0
BLOCK
  8
0
  2
*U42
 70
     1
 10
0.0
 20
0.0
 30
0.0
  3
*U42
  1

  0
TEXT
  5
D35C
  8
0
 10
0.1283225761480367
 20
1.8963519740894119
 30
0.0
 40
0.125
  1
Stool Assembly
  0
TEXT
  5
D35D
  8
0
 10
0.1283225761480367
 20
1.6880186407560791
 30
0.0
 40
0.125
  1
TL-640
  0
TEXT
  5
D35E
  8
0
 10
0.1283225761480367
 20
1.4796853074227461
 30
0.0
 40
0.125
  1
4-1/4" x 4-9/16"
  0
TEXT
  5
D35F
  8
0
 10
0.1283225761480367
 20
1.2713519740894119
 30
0.0
 40
0.125
  1
800.66.TAGUE
  0
ENDBLK
  5
D361
  8
0
  0
BLOCK
  8
0
  2
*U43
 70
     1
 10
0.0
 20
0.0
 30
0.0
  3
*U43
  1

  0
TEXT
  5
D363
  8
0
 10
0.3052749355636024
 20
1.3133121278941919
 30
0.0
 40
0.125
  1
Stool Assembly
  0
TEXT
  5
D364
  8
0
 10
0.3052749355636024
 20
1.1049787945608589
 30
0.0
 40
0.125
  1
TL-642
  0
TEXT
  5
D365
  8
0
 10
0.3052749355636024
 20
0.8966454612275262
 30
0.0
 40
0.125
  1
3-9/16" x 4-1/4"
  0
TEXT
  5
D366
  8
0
 10
0.3052749355636024
 20
0.6883121278941929
 30
0.0
 40
0.125
  1
800.66.TAGUE
  0
ENDBLK
  5
D368
  8
0
  0
BLOCK
  8
0
  2
*U44
 70
     1
 10
0.0
 20
0.0
 30
0.0
  3
*U44
  1

  0
INSERT
  5
D36A
  8
0
  6
CONTINUOUS
  2
_OPEN30
 10
4.2500004173678567
 20
3.125000325262504
 30
0.0
 41
0.046875
 42
0.046875
 43
0.046875
 50
220.9039207528615
  0
POLYLINE
  5
D36B
  8
0
  6
CONTINUOUS
 66
     1
 10
0.0
 20
0.0
 30
0.0
  0
VERTEX
  5
D36C
  8
0
  6
CONTINUOUS
 10
4.285428948467243
 20
3.1556937253533999
 30
0.0
  0
VERTEX
  5
D36D
  8
0
  6
CONTINUOUS
 10
4.8218309318424408
 20
3.620403951106169
 30
0.0
  0
VERTEX
  5
D36E
  8
0
  6
CONTINUOUS
 10
4.8826737540601917
 20
3.620403951106169
 30
0.0
  0
SEQEND
  5
D36F
  8
0
  6
CONTINUOUS
  0
ENDBLK
  5
D371
  8
0
  0
BLOCK
  8
0
  2
*U45
 70
     1
 10
0.0
 20
0.0
 30
0.0
  3
*U45
  1

  0
TEXT
  5
D373
  8
0
 10
4.9451737540601917
 20
3.557903951106169
 30
0.0
 40
0.125
  1
1-1/16" x 1-3/4" w/
  0
TEXT
  5
D374
  8
0
 10
4.9451737540601917
 20
3.349570617772835
 30
0.0
 40
0.125
  1
1/4" Bead
  0
ENDBLK
  5
D376
  8
0
  0
BLOCK
  8
0
  2
*U46
 70
     1
 10
0.0
 20
0.0
 30
0.0
  3
*U46
  1

  0
INSERT
  5
D378
  8
0
  6
CONTINUOUS
  2
_OPEN30
 10
3.2579528869749188
 20
1.406250325262504
 30
0.0
 41
0.046875
 42
0.046875
 43
0.046875
 50
156.86838037646939
  0
POLYLINE
  5
D379
  8
0
  6
CONTINUOUS
 66
     1
 10
0.0
 20
0.0
 30
0.0
  0
VERTEX
  5
D37A
  8
0
  6
CONTINUOUS
 10
3.3010593638282271
 20
1.387835731096593
 30
0.0
  0
VERTEX
  5
D37B
  8
0
  6
CONTINUOUS
 10
4.0288058775305444
 20
1.0769507392405151
 30
0.0
  0
VERTEX
  5
D37C
  8
0
  6
CONTINUOUS
 10
4.1146926397061634
 20
1.0769507392405151
 30
0.0
  0
SEQEND
  5
D37D
  8
0
  6
CONTINUOUS
  0
ENDBLK
  5
D37F
  8
0
  0
BLOCK
  8
0
  2
*U47
 70
     1
 10
0.0
 20
0.0
 30
0.0
  3
*U47
  1

  0
TEXT
  5
D381
  8
0
 10
4.1771926397061634
 20
1.0144507392405151
 30
0.0
 40
0.125
  1
3/4" x 2-1/2" w/
  0
TEXT
  5
D382
  8
0
 10
4.1771926397061634
 20
0.8061174059071825
 30
0.0
 40
0.125
  1
1/4" Bead
  0
ENDBLK
  5
D384
  8
0
  0
BLOCK
  8
0
  2
*U48
 70
     1
 10
0.0
 20
0.0
 30
0.0
  3
*U48
  1

  0
TEXT
  5
D386
  8
0
 10
2.2482544924862391
 20
2.450263826582272
 30
0.0
 40
0.125
  1
Stool
  0
TEXT
  5
D387
  8
0
 10
2.2482544924862391
 20
2.241930493248939
 30
0.0
 40
0.125
  1
TL-1159
  0
TEXT
  5
D388
  8
0
 10
2.2482544924862391
 20
2.0335971599156051
 30
0.0
 40
0.125
  1
1-1/16" x 5-1/2"
  0
TEXT
  5
D389
  8
0
 10
2.2482544924862391
 20
1.825263826582272
 30
0.0
 40
0.125
  1
800.66.TAGUE
  0
ENDBLK
  5
D38B
  8
0
  0
BLOCK
  8
0
  2
*U49
 70
     1
 10
0.0
 20
0.0
 30
0.0
  3
*U49
  1

  0
TEXT
  5
D38D
  8
0
 10
0.8191625160812918
 20
2.6766317664879571
 30
0.0
 40
0.125
  1
Stool
  0
TEXT
  5
D38E
  8
0
 10
0.8191625160812918
 20
2.468298433154624
 30
0.0
 40
0.125
  1
TL-1163
  0
TEXT
  5
D38F
  8
0
 10
0.8191625160812918
 20
2.259965099821291
 30
0.0
 40
0.125
  1
1-1/16" x 3-1/4"
  0
TEXT
  5
D390
  8
0
 10
0.8191625160812918
 20
2.0516317664879571
 30
0.0
 40
0.125
  1
800.66.TAGUE
  0
ENDBLK
  5
D392
  8
0
  0
BLOCK
  8
0
  2
*U50
 70
     1
 10
0.0
 20
0.0
 30
0.0
  3
*U50
  1

  0
TEXT
  5
D394
  8
0
 10
-387.82397004284002
 20
839.99071815424168
 30
0.0
 40
0.125
  1
Stool
  0
TEXT
  5
D395
  8
0
 10
-387.82397004284002
 20
839.78238482090842
 30
0.0
 40
0.125
  1
TL-1163
  0
TEXT
  5
D396
  8
0
 10
-387.82397004284002
 20
839.57405148757505
 30
0.0
 40
0.125
  1
1-1/16" x 3-1/4"
  0
TEXT
  5
D397
  8
0
 10
-387.82397004284002
 20
839.36571815424168
 30
0.0
 40
0.125
  1
800.66.TAGUE
  0
ENDBLK
  5
D399
  8
0
  0
ENDSEC
  0
SECTION
  2
ENTITIES
  0
INSERT
  5
D2D1
  8
0
  2
*U50
 10
0.0
 20
0.0
 30
0.0
  0
LINE
  5
D2D2
  8
0
 10
-387.45563157868918
 20
837.62658693073945
 30
0.0
 11
-387.45563157868918
 21
837.31408693073945
 31
0.0
  0
LINE
  5
D2D3
  8
0
 10
-388.64313157868918
 20
837.40783693073956
 30
0.0
 11
-388.64313157868918
 21
838.34533693073956
 31
0.0
  0
LINE
  5
D2D4
  8
0
 10
-387.45563157868918
 20
837.31408693073945
 30
0.0
 11
-385.99205109839392
 21
837.31408693073945
 31
0.0
  0
LINE
  5
D2D5
  8
0
 10
-388.64313157868918
 20
837.40783693073956
 30
0.0
 11
-387.45563157868918
 21
837.62658693073945
 31
0.0
  0
LINE
  5
D2D6
  8
0
 10
-388.64313157868918
 20
838.34533693073956
 30
0.0
 11
-385.70593672458529
 21
838.34533693073956
 31
0.0
  0
POLYLINE
  8
0
  5
D39A
  66
     1
 10
0.000000
 20
0.000000
 30
0.000000
  70
     8
  0
VERTEX
  8
0
  5
D39B
 10
-385.706
 20
838.345
 30
0.000000
  70
    32
  0
VERTEX
  8
0
  5
D39C
 10
-385.701
 20
838.344
 30
0.000000
  70
    32
  0
VERTEX
  8
0
  5
D39D
 10
-385.697
 20
838.343
 30
0.000000
  70
    32
  0
VERTEX
  8
0
  5
D39E
 10
-385.692
 20
838.342
 30
0.000000
  70
    32
  0
VERTEX
  8
0
  5
D39F
 10
-385.688
 20
838.341
 30
0.000000
  70
    32
  0
VERTEX
  8
0
  5
D3A0
 10
-385.683
 20
838.339
 30
0.000000
  70
    32
  0
VERTEX
  8
0
  5
D3A1
 10
-385.679
 20
838.338
 30
0.000000
  70
    32
  0
VERTEX
  8
0
  5
D3A2
 10
-385.674
 20
838.336
 30
0.000000
  70
    32
  0
VERTEX
  8
0
  5
D3A3
 10
-385.670
 20
838.335
 30
0.000000
  70
    32
  0
VERTEX
  8
0
  5
D3A4
 10
-385.666
 20
838.333
 30
0.000000
  70
    32
  0
VERTEX
  8
0
  5
D3A5
 10
-385.661
 20
838.331
 30
0.000000
  70
    32
  0
VERTEX
  8
0
  5
D3A6
 10
-385.657
 20
838.329
 30
0.000000
  70
    32
  0
VERTEX
  8
0
  5
D3A7
 10
-385.653
 20
838.327
 30
0.000000
  70
    32
  0
VERTEX
  8
0
  5
D3A8
 10
-385.648
 20
838.325
 30
0.000000
  70
    32
  0
VERTEX
  8
0
  5
D3A9
 10
-385.644
 20
838.323
 30
0.000000
  70
    32
  0
VERTEX
  8
0
  5
D3AA
 10
-385.640
 20
838.320
 30
0.000000
  70
    32
  0
VERTEX
  8
0
  5
D3AB
 10
-385.636
 20
838.318
 30
0.000000
  70
    32
  0
VERTEX
  8
0
  5
D3AC
 10
-385.632
 20
838.316
 30
0.000000
  70
    32
  0
VERTEX
  8
0
  5
D3AD
 10
-385.628
 20
838.313
 30
0.000000
  70
    32
  0
VERTEX
  8
0
  5
D3AE
 10
-385.624
 20
838.311
 30
0.000000
  70
    32
  0
VERTEX
  8
0
  5
D3AF
 10
-385.620
 20
838.308
 30
0.000000
  70
    32
  0
VERTEX
  8
0
  5
D3B0
 10
-385.616
 20
838.305
 30
0.000000
  70
    32
  0
VERTEX
  8
0
  5
D3B1
 10
-385.612
 20
838.303
 30
0.000000
  70
    32
  0
VERTEX
  8
0
  5
D3B2
 10
-385.608
 20
838.300
 30
0.000000
  70
    32
  0
VERTEX
  8
0
  5
D3B3
 10
-385.604
 20
838.297
 30
0.000000
  70
    32
  0
VERTEX
  8
0
  5
D3B4
 10
-385.600
 20
838.294
 30
0.000000
  70
    32
  0
VERTEX
  8
0
  5
D3B5
 10
-385.596
 20
838.291
 30
0.000000
  70
    32
  0
VERTEX
  8
0
  5
D3B6
 10
-385.593
 20
838.288
 30
0.000000
  70
    32
  0
VERTEX
  8
0
  5
D3B7
 10
-385.589
 20
838.285
 30
0.000000
  70
    32
  0
VERTEX
  8
0
  5
D3B8
 10
-385.585
 20
838.282
 30
0.000000
  70
    32
  0
VERTEX
  8
0
  5
D3B9
 10
-385.582
 20
838.278
 30
0.000000
  70
    32
  0
VERTEX
  8
0
  5
D3BA
 10
-385.578
 20
838.275
 30
0.000000
  70
    32
  0
VERTEX
  8
0
  5
D3BB
 10
-385.575
 20
838.272
 30
0.000000
  70
    32
  0
VERTEX
  8
0
  5
D3BC
 10
-385.571
 20
838.268
 30
0.000000
  70
    32
  0
VERTEX
  8
0
  5
D3BD
 10
-385.568
 20
838.265
 30
0.000000
  70
    32
  0
VERTEX
  8
0
  5
D3BE
 10
-385.564
 20
838.261
 30
0.000000
  70
    32
  0
VERTEX
  8
0
  5
D3BF
 10
-385.561
 20
838.258
 30
0.000000
  70
    32
  0
VERTEX
  8
0
  5
D3C0
 10
-385.558
 20
838.254
 30
0.000000
  70
    32
  0
VERTEX
  8
0
  5
D3C1
 10
-385.554
 20
838.251
 30
0.000000
  70
    32
  0
VERTEX
  8
0
  5
D3C2
 10
-385.551
 20
838.247
 30
0.000000
  70
    32
  0
VERTEX
  8
0
  5
D3C3
 10
-385.548
 20
838.244
 30
0.000000
  70
    32
  0
VERTEX
  8
0
  5
D3C4
 10
-385.545
 20
838.240
 30
0.000000
  70
    32
  0
VERTEX
  8
0
  5
D3C5
 10
-385.542
 20
838.236
 30
0.000000
  70
    32
  0
VERTEX
  8
0
  5
D3C6
 10
-385.539
 20
838.232
 30
0.000000
  70
    32
  0
VERTEX
  8
0
  5
D3C7
 10
-385.536
 20
838.229
 30
0.000000
  70
    32
  0
VERTEX
  8
0
  5
D3C8
 10
-385.533
 20
838.225
 30
0.000000
  70
    32
  0
VERTEX
  8
0
  5
D3C9
 10
-385.530
 20
838.221
 30
0.000000
  70
    32
  0
VERTEX
  8
0
  5
D3CA
 10
-385.527
 20
838.217
 30
0.000000
  70
    32
  0
VERTEX
  8
0
  5
D3CB
 10
-385.524
 20
838.213
 30
0.000000
  70
    32
  0
VERTEX
  8
0
  5
D3CC
 10
-385.521
 20
838.209
 30
0.000000
  70
    32
  0
VERTEX
  8
0
  5
D3CD
 10
-385.519
 20
838.205
 30
0.000000
  70
    32
  0
VERTEX
  8
0
  5
D3CE
 10
-385.516
 20
838.201
 30
0.000000
  70
    32
  0
VERTEX
  8
0
  5
D3CF
 10
-385.513
 20
838.197
 30
0.000000
  70
    32
  0
VERTEX
  8
0
  5
D3D0
 10
-385.511
 20
838.193
 30
0.000000
  70
    32
  0
VERTEX
  8
0
  5
D3D1
 10
-385.508
 20
838.189
 30
0.000000
  70
    32
  0
VERTEX
  8
0
  5
D3D2
 10
-385.506
 20
838.185
 30
0.000000
  70
    32
  0
VERTEX
  8
0
  5
D3D3
 10
-385.504
 20
838.181
 30
0.000000
  70
    32
  0
VERTEX
  8
0
  5
D3D4
 10
-385.501
 20
838.177
 30
0.000000
  70
    32
  0
VERTEX
  8
0
  5
D3D5
 10
-385.499
 20
838.173
 30
0.000000
  70
    32
  0
VERTEX
  8
0
  5
D3D6
 10
-385.497
 20
838.168
 30
0.000000
  70
    32
  0
VERTEX
  8
0
  5
D3D7
 10
-385.494
 20
838.164
 30
0.000000
  70
    32
  0
VERTEX
  8
0
  5
D3D8
 10
-385.492
 20
838.160
 30
0.000000
  70
    32
  0
VERTEX
  8
0
  5
D3D9
 10
-385.490
 20
838.156
 30
0.000000
  70
    32
  0
VERTEX
  8
0
  5
D3DA
 10
-385.488
 20
838.151
 30
0.000000
  70
    32
  0
VERTEX
  8
0
  5
D3DB
 10
-385.486
 20
838.147
 30
0.000000
  70
    32
  0
VERTEX
  8
0
  5
D3DC
 10
-385.484
 20
838.143
 30
0.000000
  70
    32
  0
VERTEX
  8
0
  5
D3DD
 10
-385.483
 20
838.138
 30
0.000000
  70
    32
  0
VERTEX
  8
0
  5
D3DE
 10
-385.481
 20
838.134
 30
0.000000
  70
    32
  0
VERTEX
  8
0
  5
D3DF
 10
-385.479
 20
838.130
 30
0.000000
  70
    32
  0
VERTEX
  8
0
  5
D3E0
 10
-385.477
 20
838.125
 30
0.000000
  70
    32
  0
VERTEX
  8
0
  5
D3E1
 10
-385.476
 20
838.121
 30
0.000000
  70
    32
  0
VERTEX
  8
0
  5
D3E2
 10
-385.474
 20
838.116
 30
0.000000
  70
    32
  0
VERTEX
  8
0
  5
D3E3
 10
-385.473
 20
838.112
 30
0.000000
  70
    32
  0
VERTEX
  8
0
  5
D3E4
 10
-385.471
 20
838.107
 30
0.000000
  70
    32
  0
VERTEX
  8
0
  5
D3E5
 10
-385.470
 20
838.103
 30
0.000000
  70
    32
  0
VERTEX
  8
0
  5
D3E6
 10
-385.469
 20
838.098
 30
0.000000
  70
    32
  0
VERTEX
  8
0
  5
D3E7
 10
-385.468
 20
838.094
 30
0.000000
  70
    32
  0
VERTEX
  8
0
  5
D3E8
 10
-385.466
 20
838.089
 30
0.000000
  70
    32
  0
VERTEX
  8
0
  5
D3E9
 10
-385.465
 20
838.084
 30
0.000000
  70
    32
  0
VERTEX
  8
0
  5
D3EA
 10
-385.464
 20
838.080
 30
0.000000
  70
    32
  0
VERTEX
  8
0
  5
D3EB
 10
-385.463
 20
838.075
 30
0.000000
  70
    32
  0
VERTEX
  8
0
  5
D3EC
 10
-385.462
 20
838.070
 30
0.000000
  70
    32
  0
VERTEX
  8
0
  5
D3ED
 10
-385.462
 20
838.066
 30
0.000000
  70
    32
  0
VERTEX
  8
0
  5
D3EE
 10
-385.461
 20
838.061
 30
0.000000
  70
    32
  0
VERTEX
  8
0
  5
D3EF
 10
-385.460
 20
838.056
 30
0.000000
  70
    32
  0
VERTEX
  8
0
  5
D3F0
 10
-385.459
 20
838.052
 30
0.000000
  70
    32
  0
VERTEX
  8
0
  5
D3F1
 10
-385.459
 20
838.047
 30
0.000000
  70
    32
  0
VERTEX
  8
0
  5
D3F2
 10
-385.458
 20
838.042
 30
0.000000
  70
    32
  0
VERTEX
  8
0
  5
D3F3
 10
-385.458
 20
838.038
 30
0.000000
  70
    32
  0
VERTEX
  8
0
  5
D3F4
 10
-385.457
 20
838.033
 30
0.000000
  70
    32
  0
VERTEX
  8
0
  5
D3F5
 10
-385.457
 20
838.028
 30
0.000000
  70
    32
  0
VERTEX
  8
0
  5
D3F6
 10
-385.457
 20
838.023
 30
0.000000
  70
    32
  0
VERTEX
  8
0
  5
D3F7
 10
-385.457
 20
838.018
 30
0.000000
  70
    32
  0
VERTEX
  8
0
  5
D3F8
 10
-385.457
 20
838.014
 30
0.000000
  70
    32
  0
VERTEX
  8
0
  5
D3F9
 10
-385.457
 20
838.009
 30
0.000000
  70
    32
  0
VERTEX
  8
0
  5
D3FA
 10
-385.457
 20
838.004
 30
0.000000
  70
    32
  0
VERTEX
  8
0
  5
D3FB
 10
-385.457
 20
837.999
 30
0.000000
  70
    32
  0
VERTEX
  8
0
  5
D3FC
 10
-385.457
 20
837.994
 30
0.000000
  70
    32
  0
VERTEX
  8
0
  5
D3FD
 10
-385.457
 20
837.990
 30
0.000000
  70
    32
  0
VERTEX
  8
0
  5
D3FE
 10
-385.457
 20
837.985
 30
0.000000
  70
    32
  0
VERTEX
  8
0
  5
D3FF
 10
-385.457
 20
837.980
 30
0.000000
  70
    32
  0
VERTEX
  8
0
  5
D400
 10
-385.458
 20
837.975
 30
0.000000
  70
    32
  0
VERTEX
  8
0
  5
D401
 10
-385.458
 20
837.970
 30
0.000000
  70
    32
  0
VERTEX
  8
0
  5
D402
 10
-385.459
 20
837.966
 30
0.000000
  70
    32
  0
VERTEX
  8
0
  5
D403
 10
-385.459
 20
837.961
 30
0.000000
  70
    32
  0
VERTEX
  8
0
  5
D404
 10
-385.460
 20
837.956
 30
0.000000
  70
    32
  0
VERTEX
  8
0
  5
D405
 10
-385.461
 20
837.951
 30
0.000000
  70
    32
  0
VERTEX
  8
0
  5
D406
 10
-385.461
 20
837.946
 30
0.000000
  70
    32
  0
VERTEX
  8
0
  5
D407
 10
-385.462
 20
837.942
 30
0.000000
  70
    32
  0
VERTEX
  8
0
  5
D408
 10
-385.463
 20
837.937
 30
0.000000
  70
    32
  0
VERTEX
  8
0
  5
D409
 10
-385.464
 20
837.932
 30
0.000000
  70
    32
  0
VERTEX
  8
0
  5
D40A
 10
-385.465
 20
837.927
 30
0.000000
  70
    32
  0
VERTEX
  8
0
  5
D40B
 10
-385.466
 20
837.923
 30
0.000000
  70
    32
  0
VERTEX
  8
0
  5
D40C
 10
-385.467
 20
837.918
 30
0.000000
  70
    32
  0
VERTEX
  8
0
  5
D40D
 10
-385.468
 20
837.913
 30
0.000000
  70
    32
  0
VERTEX
  8
0
  5
D40E
 10
-385.469
 20
837.909
 30
0.000000
  70
    32
  0
VERTEX
  8
0
  5
D40F
 10
-385.471
 20
837.904
 30
0.000000
  70
    32
  0
VERTEX
  8
0
  5
D410
 10
-385.472
 20
837.899
 30
0.000000
  70
    32
  0
VERTEX
  8
0
  5
D411
 10
-385.473
 20
837.895
 30
0.000000
  70
    32
  0
VERTEX
  8
0
  5
D412
 10
-385.475
 20
837.890
 30
0.000000
  70
    32
  0
VERTEX
  8
0
  5
D413
 10
-385.476
 20
837.885
 30
0.000000
  70
    32
  0
VERTEX
  8
0
  5
D414
 10
-385.478
 20
837.881
 30
0.000000
  70
    32
  0
VERTEX
  8
0
  5
D415
 10
-385.479
 20
837.876
 30
0.000000
  70
    32
  0
VERTEX
  8
0
  5
D416
 10
-385.481
 20
837.872
 30
0.000000
  70
    32
  0
VERTEX
  8
0
  5
D417
 10
-385.483
 20
837.867
 30
0.000000
  70
    32
  0
VERTEX
  8
0
  5
D418
 10
-385.484
 20
837.862
 30
0.000000
  70
    32
  0
VERTEX
  8
0
  5
D419
 10
-385.486
 20
837.858
 30
0.000000
  70
    32
  0
VERTEX
  8
0
  5
D41A
 10
-385.488
 20
837.854
 30
0.000000
  70
    32
  0
VERTEX
  8
0
  5
D41B
 10
-385.490
 20
837.849
 30
0.000000
  70
    32
  0
VERTEX
  8
0
  5
D41C
 10
-385.492
 20
837.845
 30
0.000000
  70
    32
  0
VERTEX
  8
0
  5
D41D
 10
-385.494
 20
837.840
 30
0.000000
  70
    32
  0
VERTEX
  8
0
  5
D41E
 10
-385.496
 20
837.836
 30
0.000000
  70
    32
  0
VERTEX
  8
0
  5
D41F
 10
-385.498
 20
837.832
 30
0.000000
  70
    32
  0
VERTEX
  8
0
  5
D420
 10
-385.500
 20
837.827
 30
0.000000
  70
    32
  0
VERTEX
  8
0
  5
D421
 10
-385.502
 20
837.823
 30
0.000000
  70
    32
  0
VERTEX
  8
0
  5
D422
 10
-385.505
 20
837.819
 30
0.000000
  70
    32
  0
VERTEX
  8
0
  5
D423
 10
-385.507
 20
837.815
 30
0.000000
  70
    32
  0
VERTEX
  8
0
  5
D424
 10
-385.509
 20
837.810
 30
0.000000
  70
    32
  0
VERTEX
  8
0
  5
D425
 10
-385.512
 20
837.806
 30
0.000000
  70
    32
  0
VERTEX
  8
0
  5
D426
 10
-385.514
 20
837.802
 30
0.000000
  70
    32
  0
VERTEX
  8
0
  5
D427
 10
-385.517
 20
837.798
 30
0.000000
  70
    32
  0
VERTEX
  8
0
  5
D428
 10
-385.519
 20
837.794
 30
0.000000
  70
    32
  0
VERTEX
  8
0
  5
D429
 10
-385.522
 20
837.790
 30
0.000000
  70
    32
  0
VERTEX
  8
0
  5
D42A
 10
-385.525
 20
837.786
 30
0.000000
  70
    32
  0
VERTEX
  8
0
  5
D42B
 10
-385.527
 20
837.782
 30
0.000000
  70
    32
  0
VERTEX
  8
0
  5
D42C
 10
-385.530
 20
837.778
 30
0.000000
  70
    32
  0
VERTEX
  8
0
  5
D42D
 10
-385.533
 20
837.774
 30
0.000000
  70
    32
  0
VERTEX
  8
0
  5
D42E
 10
-385.536
 20
837.771
 30
0.000000
  70
    32
  0
VERTEX
  8
0
  5
D42F
 10
-385.539
 20
837.767
 30
0.000000
  70
    32
  0
VERTEX
  8
0
  5
D430
 10
-385.541
 20
837.763
 30
0.000000
  70
    32
  0
VERTEX
  8
0
  5
D431
 10
-385.544
 20
837.760
 30
0.000000
  70
    32
  0
VERTEX
  8
0
  5
D432
 10
-385.547
 20
837.756
 30
0.000000
  70
    32
  0
VERTEX
  8
0
  5
D433
 10
-385.551
 20
837.752
 30
0.000000
  70
    32
  0
VERTEX
  8
0
  5
D434
 10
-385.554
 20
837.749
 30
0.000000
  70
    32
  0
VERTEX
  8
0
  5
D435
 10
-385.557
 20
837.745
 30
0.000000
  70
    32
  0
VERTEX
  8
0
  5
D436
 10
-385.560
 20
837.742
 30
0.000000
  70
    32
  0
VERTEX
  8
0
  5
D437
 10
-385.563
 20
837.738
 30
0.000000
  70
    32
  0
VERTEX
  8
0
  5
D438
 10
-385.566
 20
837.735
 30
0.000000
  70
    32
  0
VERTEX
  8
0
  5
D439
 10
-385.570
 20
837.732
 30
0.000000
  70
    32
  0
VERTEX
  8
0
  5
D43A
 10
-385.573
 20
837.728
 30
0.000000
  70
    32
  0
VERTEX
  8
0
  5
D43B
 10
-385.577
 20
837.725
 30
0.000000
  70
    32
  0
VERTEX
  8
0
  5
D43C
 10
-385.580
 20
837.722
 30
0.000000
  70
    32
  0
VERTEX
  8
0
  5
D43D
 10
-385.583
 20
837.718
 30
0.000000
  70
    32
  0
VERTEX
  8
0
  5
D43E
 10
-385.587
 20
837.715
 30
0.000000
  70
    32
  0
VERTEX
  8
0
  5
D43F
 10
-385.590
 20
837.712
 30
0.000000
  70
    32
  0
VERTEX
  8
0
  5
D440
 10
-385.594
 20
837.709
 30
0.000000
  70
    32
  0
VERTEX
  8
0
  5
D441
 10
-385.597
 20
837.706
 30
0.000000
  70
    32
  0
VERTEX
  8
0
  5
D442
 10
-385.601
 20
837.703
 30
0.000000
  70
    32
  0
VERTEX
  8
0
  5
D443
 10
-385.605
 20
837.700
 30
0.000000
  70
    32
  0
VERTEX
  8
0
  5
D444
 10
-385.608
 20
837.697
 30
0.000000
  70
    32
  0
VERTEX
  8
0
  5
D445
 10
-385.612
 20
837.694
 30
0.000000
  70
    32
  0
VERTEX
  8
0
  5
D446
 10
-385.616
 20
837.691
 30
0.000000
  70
    32
  0
VERTEX
  8
0
  5
D447
 10
-385.619
 20
837.688
 30
0.000000
  70
    32
  0
VERTEX
  8
0
  5
D448
 10
-385.623
 20
837.685
 30
0.000000
  70
    32
  0
VERTEX
  8
0
  5
D449
 10
-385.627
 20
837.682
 30
0.000000
  70
    32
  0
VERTEX
  8
0
  5
D44A
 10
-385.631
 20
837.680
 30
0.000000
  70
    32
  0
VERTEX
  8
0
  5
D44B
 10
-385.635
 20
837.677
 30
0.000000
  70
    32
  0
VERTEX
  8
0
  5
D44C
 10
-385.639
 20
837.674
 30
0.000000
  70
    32
  0
VERTEX
  8
0
  5
D44D
 10
-385.642
 20
837.671
 30
0.000000
  70
    32
  0
VERTEX
  8
0
  5
D44E
 10
-385.646
 20
837.669
 30
0.000000
  70
    32
  0
VERTEX
  8
0
  5
D44F
 10
-385.650
 20
837.666
 30
0.000000
  70
    32
  0
VERTEX
  8
0
  5
D450
 10
-385.654
 20
837.663
 30
0.000000
  70
    32
  0
VERTEX
  8
0
  5
D451
 10
-385.658
 20
837.661
 30
0.000000
  70
    32
  0
VERTEX
  8
0
  5
D452
 10
-385.662
 20
837.658
 30
0.000000
  70
    32
  0
VERTEX
  8
0
  5
D453
 10
-385.666
 20
837.655
 30
0.000000
  70
    32
  0
VERTEX
  8
0
  5
D454
 10
-385.670
 20
837.653
 30
0.000000
  70
    32
  0
VERTEX
  8
0
  5
D455
 10
-385.674
 20
837.650
 30
0.000000
  70
    32
  0
VERTEX
  8
0
  5
D456
 10
-385.678
 20
837.648
 30
0.000000
  70
    32
  0
VERTEX
  8
0
  5
D457
 10
-385.682
 20
837.645
 30
0.000000
  70
    32
  0
VERTEX
  8
0
  5
D458
 10
-385.686
 20
837.643
 30
0.000000
  70
    32
  0
VERTEX
  8
0
  5
D459
 10
-385.690
 20
837.640
 30
0.000000
  70
    32
  0
VERTEX
  8
0
  5
D45A
 10
-385.694
 20
837.638
 30
0.000000
  70
    32
  0
VERTEX
  8
0
  5
D45B
 10
-385.699
 20
837.636
 30
0.000000
  70
    32
  0
VERTEX
  8
0
  5
D45C
 10
-385.703
 20
837.633
 30
0.000000
  70
    32
  0
VERTEX
  8
0
  5
D45D
 10
-385.707
 20
837.631
 30
0.000000
  70
    32
  0
VERTEX
  8
0
  5
D45E
 10
-385.711
 20
837.629
 30
0.000000
  70
    32
  0
VERTEX
  8
0
  5
D45F
 10
-385.715
 20
837.626
 30
0.000000
  70
    32
  0
VERTEX
  8
0
  5
D460
 10
-385.719
 20
837.624
 30
0.000000
  70
    32
  0
VERTEX
  8
0
  5
D461
 10
-385.723
 20
837.622
 30
0.000000
  70
    32
  0
VERTEX
  8
0
  5
D462
 10
-385.727
 20
837.619
 30
0.000000
  70
    32
  0
VERTEX
  8
0
  5
D463
 10
-385.732
 20
837.617
 30
0.000000
  70
    32
  0
VERTEX
  8
0
  5
D464
 10
-385.736
 20
837.615
 30
0.000000
  70
    32
  0
VERTEX
  8
0
  5
D465
 10
-385.740
 20
837.612
 30
0.000000
  70
    32
  0
VERTEX
  8
0
  5
D466
 10
-385.744
 20
837.610
 30
0.000000
  70
    32
  0
VERTEX
  8
0
  5
D467
 10
-385.748
 20
837.608
 30
0.000000
  70
    32
  0
VERTEX
  8
0
  5
D468
 10
-385.752
 20
837.606
 30
0.000000
  70
    32
  0
VERTEX
  8
0
  5
D469
 10
-385.756
 20
837.603
 30
0.000000
  70
    32
  0
VERTEX
  8
0
  5
D46A
 10
-385.760
 20
837.601
 30
0.000000
  70
    32
  0
VERTEX
  8
0
  5
D46B
 10
-385.765
 20
837.599
 30
0.000000
  70
    32
  0
VERTEX
  8
0
  5
D46C
 10
-385.769
 20
837.596
 30
0.000000
  70
    32
  0
VERTEX
  8
0
  5
D46D
 10
-385.773
 20
837.594
 30
0.000000
  70
    32
  0
VERTEX
  8
0
  5
D46E
 10
-385.777
 20
837.592
 30
0.000000
  70
    32
  0
VERTEX
  8
0
  5
D46F
 10
-385.781
 20
837.589
 30
0.000000
  70
    32
  0
VERTEX
  8
0
  5
D470
 10
-385.785
 20
837.587
 30
0.000000
  70
    32
  0
VERTEX
  8
0
  5
D471
 10
-385.789
 20
837.584
 30
0.000000
  70
    32
  0
VERTEX
  8
0
  5
D472
 10
-385.793
 20
837.582
 30
0.000000
  70
    32
  0
VERTEX
  8
0
  5
D473
 10
-385.797
 20
837.580
 30
0.000000
  70
    32
  0
VERTEX
  8
0
  5
D474
 10
-385.801
 20
837.577
 30
0.000000
  70
    32
  0
VERTEX
  8
0
  5
D475
 10
-385.805
 20
837.575
 30
0.000000
  70
    32
  0
VERTEX
  8
0
  5
D476
 10
-385.809
 20
837.572
 30
0.000000
  70
    32
  0
VERTEX
  8
0
  5
D477
 10
-385.813
 20
837.569
 30
0.000000
  70
    32
  0
VERTEX
  8
0
  5
D478
 10
-385.817
 20
837.567
 30
0.000000
  70
    32
  0
VERTEX
  8
0
  5
D479
 10
-385.820
 20
837.564
 30
0.000000
  70
    32
  0
VERTEX
  8
0
  5
D47A
 10
-385.824
 20
837.562
 30
0.000000
  70
    32
  0
VERTEX
  8
0
  5
D47B
 10
-385.828
 20
837.559
 30
0.000000
  70
    32
  0
VERTEX
  8
0
  5
D47C
 10
-385.832
 20
837.556
 30
0.000000
  70
    32
  0
VERTEX
  8
0
  5
D47D
 10
-385.836
 20
837.553
 30
0.000000
  70
    32
  0
VERTEX
  8
0
  5
D47E
 10
-385.839
 20
837.550
 30
0.000000
  70
    32
  0
VERTEX
  8
0
  5
D47F
 10
-385.843
 20
837.548
 30
0.000000
  70
    32
  0
VERTEX
  8
0
  5
D480
 10
-385.847
 20
837.545
 30
0.000000
  70
    32
  0
VERTEX
  8
0
  5
D481
 10
-385.850
 20
837.542
 30
0.000000
  70
    32
  0
VERTEX
  8
0
  5
D482
 10
-385.854
 20
837.539
 30
0.000000
  70
    32
  0
VERTEX
  8
0
  5
D483
 10
-385.857
 20
837.536
 30
0.000000
  70
    32
  0
VERTEX
  8
0
  5
D484
 10
-385.861
 20
837.532
 30
0.000000
  70
    32
  0
VERTEX
  8
0
  5
D485
 10
-385.864
 20
837.529
 30
0.000000
  70
    32
  0
VERTEX
  8
0
  5
D486
 10
-385.868
 20
837.526
 30
0.000000
  70
    32
  0
VERTEX
  8
0
  5
D487
 10
-385.871
 20
837.523
 30
0.000000
  70
    32
  0
VERTEX
  8
0
  5
D488
 10
-385.875
 20
837.519
 30
0.000000
  70
    32
  0
VERTEX
  8
0
  5
D489
 10
-385.878
 20
837.516
 30
0.000000
  70
    32
  0
VERTEX
  8
0
  5
D48A
 10
-385.881
 20
837.513
 30
0.000000
  70
    32
  0
VERTEX
  8
0
  5
D48B
 10
-385.885
 20
837.509
 30
0.000000
  70
    32
  0
VERTEX
  8
0
  5
D48C
 10
-385.888
 20
837.506
 30
0.000000
  70
    32
  0
VERTEX
  8
0
  5
D48D
 10
-385.891
 20
837.502
 30
0.000000
  70
    32
  0
VERTEX
  8
0
  5
D48E
 10
-385.894
 20
837.499
 30
0.000000
  70
    32
  0
VERTEX
  8
0
  5
D48F
 10
-385.897
 20
837.495
 30
0.000000
  70
    32
  0
VERTEX
  8
0
  5
D490
 10
-385.900
 20
837.491
 30
0.000000
  70
    32
  0
VERTEX
  8
0
  5
D491
 10
-385.903
 20
837.488
 30
0.000000
  70
    32
  0
VERTEX
  8
0
  5
D492
 10
-385.906
 20
837.484
 30
0.000000
  70
    32
  0
VERTEX
  8
0
  5
D493
 10
-385.909
 20
837.480
 30
0.000000
  70
    32
  0
VERTEX
  8
0
  5
D494
 10
-385.912
 20
837.476
 30
0.000000
  70
    32
  0
VERTEX
  8
0
  5
D495
 10
-385.915
 20
837.473
 30
0.000000
  70
    32
  0
VERTEX
  8
0
  5
D496
 10
-385.918
 20
837.469
 30
0.000000
  70
    32
  0
VERTEX
  8
0
  5
D497
 10
-385.921
 20
837.465
 30
0.000000
  70
    32
  0
VERTEX
  8
0
  5
D498
 10
-385.924
 20
837.461
 30
0.000000
  70
    32
  0
VERTEX
  8
0
  5
D499
 10
-385.926
 20
837.457
 30
0.000000
  70
    32
  0
VERTEX
  8
0
  5
D49A
 10
-385.929
 20
837.453
 30
0.000000
  70
    32
  0
VERTEX
  8
0
  5
D49B
 10
-385.932
 20
837.449
 30
0.000000
  70
    32
  0
VERTEX
  8
0
  5
D49C
 10
-385.934
 20
837.445
 30
0.000000
  70
    32
  0
VERTEX
  8
0
  5
D49D
 10
-385.937
 20
837.441
 30
0.000000
  70
    32
  0
VERTEX
  8
0
  5
D49E
 10
-385.939
 20
837.437
 30
0.000000
  70
    32
  0
VERTEX
  8
0
  5
D49F
 10
-385.942
 20
837.433
 30
0.000000
  70
    32
  0
VERTEX
  8
0
  5
D4A0
 10
-385.944
 20
837.428
 30
0.000000
  70
    32
  0
VERTEX
  8
0
  5
D4A1
 10
-385.947
 20
837.424
 30
0.000000
  70
    32
  0
VERTEX
  8
0
  5
D4A2
 10
-385.949
 20
837.420
 30
0.000000
  70
    32
  0
VERTEX
  8
0
  5
D4A3
 10
-385.951
 20
837.416
 30
0.000000
  70
    32
  0
VERTEX
  8
0
  5
D4A4
 10
-385.954
 20
837.412
 30
0.000000
  70
    32
  0
VERTEX
  8
0
  5
D4A5
 10
-385.956
 20
837.407
 30
0.000000
  70
    32
  0
VERTEX
  8
0
  5
D4A6
 10
-385.958
 20
837.403
 30
0.000000
  70
    32
  0
VERTEX
  8
0
  5
D4A7
 10
-385.960
 20
837.399
 30
0.000000
  70
    32
  0
VERTEX
  8
0
  5
D4A8
 10
-385.962
 20
837.394
 30
0.000000
  70
    32
  0
VERTEX
  8
0
  5
D4A9
 10
-385.964
 20
837.390
 30
0.000000
  70
    32
  0
VERTEX
  8
0
  5
D4AA
 10
-385.966
 20
837.386
 30
0.000000
  70
    32
  0
VERTEX
  8
0
  5
D4AB
 10
-385.968
 20
837.381
 30
0.000000
  70
    32
  0
VERTEX
  8
0
  5
D4AC
 10
-385.970
 20
837.377
 30
0.000000
  70
    32
  0
VERTEX
  8
0
  5
D4AD
 10
-385.972
 20
837.372
 30
0.000000
  70
    32
  0
VERTEX
  8
0
  5
D4AE
 10
-385.974
 20
837.368
 30
0.000000
  70
    32
  0
VERTEX
  8
0
  5
D4AF
 10
-385.976
 20
837.364
 30
0.000000
  70
    32
  0
VERTEX
  8
0
  5
D4B0
 10
-385.977
 20
837.359
 30
0.000000
  70
    32
  0
VERTEX
  8
0
  5
D4B1
 10
-385.979
 20
837.355
 30
0.000000
  70
    32
  0
VERTEX
  8
0
  5
D4B2
 10
-385.981
 20
837.350
 30
0.000000
  70
    32
  0
VERTEX
  8
0
  5
D4B3
 10
-385.982
 20
837.346
 30
0.000000
  70
    32
  0
VERTEX
  8
0
  5
D4B4
 10
-385.984
 20
837.341
 30
0.000000
  70
    32
  0
VERTEX
  8
0
  5
D4B5
 10
-385.985
 20
837.337
 30
0.000000
  70
    32
  0
VERTEX
  8
0
  5
D4B6
 10
-385.987
 20
837.332
 30
0.000000
  70
    32
  0
VERTEX
  8
0
  5
D4B7
 10
-385.988
 20
837.328
 30
0.000000
  70
    32
  0
VERTEX
  8
0
  5
D4B8
 10
-385.989
 20
837.323
 30
0.000000
  70
    32
  0
VERTEX
  8
0
  5
D4B9
 10
-385.991
 20
837.319
 30
0.000000
  70
    32
  0
VERTEX
  8
0
  5
D4BA
 10
-385.992
 20
837.314
 30
0.000000
  70
    32
  0
SEQEND
  8
0
  5
D4BB
  0
VIEWPORT
  5
BADA
 67
     1
  8
0
 10
5.249999665167528
 20
4.016860864854312
 30
0.0
 40
16.259362384438411
 41
8.0158201110956853
 68
     2
 69
     1
1001
ACAD
1000
MVIEW
1002
{
1070
    16
1010
0.0
1020
0.0
1030
0.0
1010
0.0
1020
0.0
1030
1.0
1040
0.0
1040
8.0158201110956853
1040
5.249999665167528
1040
4.016860864854312
1040
50.0
1040
0.0
1040
0.0
1070
     0
1070
   100
1070
     1
1070
     1
1070
     0
1070
     0
1070
     0
1070
     0
1040
0.0
1040
0.0
1040
0.0
1040
0.5
1040
0.5
1040
0.5
1040
0.5
1070
     0
1002
{
1002
}
1002
}
  0
VIEWPORT
  5
BADD
 67
     1
  8
0
 10
5.249999629487192
 20
4.0166741807634683
 30
0.0
 40
10.44245679893058
 41
7.8813805131999892
 68
     1
 69
     2
1001
ACAD
1000
MVIEW
1002
{
1070
    16
1010
0.0
1020
0.0
1030
0.0
1010
0.0
1020
0.0
1030
1.0
1040
0.0
1040
7.8813805131999892
1040
-387.20985136692838
1040
838.2226040800208
1040
50.0
1040
0.0
1040
0.0
1070
     0
1070
   100
1070
     1
1070
     2
1070
     0
1070
     0
1070
     0
1070
     0
1040
0.0
1040
0.0
1040
0.0
1040
0.5
1040
0.5
1040
0.5
1040
0.5
1070
     0
1002
{
1002
}
1002
}
  0
ENDSEC
  0
EOF
