  0
SECTION
  2
HEADER
  9
$ACADVER
  1
AC1009
  9
$INSBASE
 10
0.0
 20
0.0
 30
0.0
  9
$EXTMIN
 10
-391.51728314063951
 20
835.37626998032738
 30
0.0
  9
$EXTMAX
 10
-383.46367029701781
 20
842.16543565424013
 30
0.0
  9
$LIMMIN
 10
0.0
 20
0.0
  9
$LIMMAX
 10
1500.0
 20
1500.0
  9
$ORTHOMODE
 70
     0
  9
$REGENMODE
 70
     1
  9
$FILLMODE
 70
     1
  9
$QTEXTMODE
 70
     0
  9
$MIRRTEXT
 70
     1
  9
$DRAGMODE
 70
     2
  9
$LTSCALE
 40
1.0
  9
$OSMODE
 70
    37
  9
$ATTMODE
 70
     1
  9
$TEXTSIZE
 40
1.5
  9
$TRACEWID
 40
0.05
  9
$TEXTSTYLE
  7
STANDARD
  9
$CLAYER
  8
0
  9
$CELTYPE
  6
BYLAYER
  9
$CECOLOR
 62
   256
  9
$DIMSCALE
 40
1.0
  9
$DIMASZ
 40
0.75
  9
$DIMEXO
 40
1.5
  9
$DIMDLI
 40
2.0
  9
$DIMRND
 40
0.0
  9
$DIMDLE
 40
0.0
  9
$DIMEXE
 40
1.0
  9
$DIMTP
 40
0.0
  9
$DIMTM
 40
0.0
  9
$DIMTXT
 40
1.5
  9
$DIMCEN
 40
2.0
  9
$DIMTSZ
 40
0.0
  9
$DIMTOL
 70
     0
  9
$DIMLIM
 70
     0
  9
$DIMTIH
 70
     0
  9
$DIMTOH
 70
     0
  9
$DIMSE1
 70
     0
  9
$DIMSE2
 70
     0
  9
$DIMTAD
 70
     1
  9
$DIMZIN
 70
     0
  9
$DIMBLK
  1
ARCHTICK
  9
$DIMASO
 70
     1
  9
$DIMSHO
 70
     1
  9
$DIMPOST
  1
"
  9
$DIMAPOST
  1

  9
$DIMALT
 70
     0
  9
$DIMALTD
 70
     2
  9
$DIMALTF
 40
25.399999999999999
  9
$DIMLFAC
 40
1.0
  9
$DIMTOFL
 70
     0
  9
$DIMTVP
 40
0.0
  9
$DIMTIX
 70
     1
  9
$DIMSOXD
 70
     0
  9
$DIMSAH
 70
     0
  9
$DIMBLK1
  1

  9
$DIMBLK2
  1

  9
$DIMSTYLE
  2
THREE_QUARTER_INCH_SCALE
  9
$DIMCLRD
 70
     0
  9
$DIMCLRE
 70
     0
  9
$DIMCLRT
 70
     0
  9
$DIMTFAC
 40
1.0
  9
$DIMGAP
 40
1.0
  9
$LUNITS
 70
     2
  9
$LUPREC
 70
     4
  9
$SKETCHINC
 40
0.1
  9
$FILLETRAD
 40
0.0
  9
$AUNITS
 70
     0
  9
$AUPREC
 70
     0
  9
$MENU
  1
.
  9
$ELEVATION
 40
0.0
  9
$PELEVATION
 40
0.0
  9
$THICKNESS
 40
0.0
  9
$LIMCHECK
 70
     0
  9
$BLIPMODE
 70
     0
  9
$CHAMFERA
 40
0.5
  9
$CHAMFERB
 40
0.5
  9
$SKPOLY
 70
     0
  9
$TDCREATE
 40
2452089.395738773
  9
$TDUPDATE
 40
2453613.332643229
  9
$TDINDWG
 40
1.0065289352
  9
$TDUSRTIMER
 40
1.0065287616
  9
$USRTIMER
 70
     1
  9
$ANGBASE
 50
0.0
  9
$ANGDIR
 70
     0
  9
$PDMODE
 70
     0
  9
$PDSIZE
 40
10.0
  9
$PLINEWID
 40
0.0
  9
$COORDS
 70
     1
  9
$SPLFRAME
 70
     0
  9
$SPLINETYPE
 70
     6
  9
$SPLINESEGS
 70
     8
  9
$ATTDIA
 70
     0
  9
$ATTREQ
 70
     1
  9
$HANDLING
 70
     1
  9
$HANDSEED
  5
E621
  9
$SURFTAB1
 70
     6
  9
$SURFTAB2
 70
     6
  9
$SURFTYPE
 70
     6
  9
$SURFU
 70
     6
  9
$SURFV
 70
     6
  9
$UCSNAME
  2

  9
$UCSORG
 10
0.0
 20
0.0
 30
0.0
  9
$UCSXDIR
 10
1.0
 20
0.0
 30
0.0
  9
$UCSYDIR
 10
0.0
 20
1.0
 30
0.0
  9
$PUCSNAME
  2

  9
$PUCSORG
 10
0.0
 20
0.0
 30
0.0
  9
$PUCSXDIR
 10
1.0
 20
0.0
 30
0.0
  9
$PUCSYDIR
 10
0.0
 20
1.0
 30
0.0
  9
$USERI1
 70
     0
  9
$USERI2
 70
     0
  9
$USERI3
 70
     0
  9
$USERI4
 70
     0
  9
$USERI5
 70
     0
  9
$USERR1
 40
0.0
  9
$USERR2
 40
0.0
  9
$USERR3
 40
0.0
  9
$USERR4
 40
0.0
  9
$USERR5
 40
0.0
  9
$WORLDVIEW
 70
     1
  9
$SHADEDGE
 70
     3
  9
$SHADEDIF
 70
    70
  9
$TILEMODE
 70
     0
  9
$MAXACTVP
 70
    64
  9
$PLIMCHECK
 70
     0
  9
$PEXTMIN
 10
0.0280982296770773
 20
0.0758747945053777
 30
-0.0000000349181948
  9
$PEXTMAX
 10
10.47163505903136
 20
7.9578465084694647
 30
0.0000000814935746
  9
$PLIMMIN
 10
-0.1682389550263349
 20
-0.2033427855578579
  9
$PLIMMAX
 10
10.754640548407011
 20
8.2370640492290015
  9
$UNITMODE
 70
     0
  9
$VISRETAIN
 70
     1
  9
$PLINEGEN
 70
     0
  9
$PSLTSCALE
 70
     1
  0
ENDSEC
  0
SECTION
  2
TABLES
  0
TABLE
  2
VPORT
 70
     1
  0
VPORT
  2
*ACTIVE
 70
     0
 10
0.0
 20
0.0
 11
1.0
 21
1.0
 12
-386.52380251144001
 22
838.09204166179234
 13
0.0
 23
0.0
 14
0.5
 24
0.5
 15
0.5
 25
0.5
 16
0.0
 26
0.0
 36
1.0
 17
0.0
 27
0.0
 37
0.0
 40
3.930952126162941
 41
2.0226628895184122
 42
50.0
 43
0.0
 44
0.0
 50
0.0
 51
0.0
 71
     0
 72
   100
 73
     1
 74
     2
 75
     0
 76
     0
 77
     0
 78
     0
  0
ENDTAB
  0
TABLE
  2
LTYPE
 70
     1
  0
LTYPE
  2
CONTINUOUS
 70
     0
  3
Solid line
 72
    65
 73
     0
 40
0.0
  0
ENDTAB
  0
TABLE
  2
LAYER
 70
    11
  0
LAYER
  2
0
 70
     0
 62
     7
  6
CONTINUOUS
  0
LAYER
  2
DEFPOINTS
 70
     0
 62
     7
  6
CONTINUOUS
  0
LAYER
  2
FRAME_200
 70
     0
 62
     8
  6
CONTINUOUS
  0
LAYER
  2
FRAME_070
 70
     0
 62
     5
  6
CONTINUOUS
  0
LAYER
  2
FRAME_050
 70
     0
 62
     6
  6
CONTINUOUS
  0
LAYER
  2
TITLE_BLOCK
 70
     0
 62
     7
  6
CONTINUOUS
  0
LAYER
  2
FRAME_025
 70
     0
 62
     7
  6
CONTINUOUS
  0
LAYER
  2
VIEWPORT
 70
     0
 62
     7
  6
CONTINUOUS
  0
LAYER
  2
PROF
 70
     0
 62
     7
  6
CONTINUOUS
  0
LAYER
  2
PROFILE
 70
     0
 62
     7
  6
CONTINUOUS
  0
LAYER
  2
FRAME_0500
 70
     0
 62
     6
  6
CONTINUOUS
  0
ENDTAB
  0
TABLE
  2
STYLE
 70
     2
  0
STYLE
  2
STANDARD
 70
     0
 40
0.0
 41
1.0
 50
0.0
 71
     0
 42
1.5
  3
txt
  4

  0
STYLE
  2
ISO_PROPORTIONAL
 70
     0
 40
0.0
 41
1.0
 50
0.0
 71
     0
 42
2.5
  3
isocp.shx
  4

  0
ENDTAB
  0
TABLE
  2
VIEW
 70
     0
  0
ENDTAB
  0
TABLE
  2
UCS
 70
     0
  0
ENDTAB
  0
TABLE
  2
APPID
 70
     6
  0
APPID
  2
ACAD
 70
     0
  0
APPID
  2
DCO15
 70
     0
  0
APPID
  2
ACAD_EXEMPT_FROM_CAD_STANDARDS
 70
     0
  0
APPID
  2
ACAD_PSEXT
 70
     0
  0
APPID
  2
CONTENTBLOCKDESCRIPTION
 70
     0
  0
APPID
  2
CONTENTBLOCKICON
 70
     0
  0
ENDTAB
  0
TABLE
  2
DIMSTYLE
 70
    10
  0
DIMSTYLE
  2
FULL_SCALE
 70
     0
  3
"
  4

  5

  6

  7

 40
1.0
 41
0.046875
 42
0.09375
 43
0.125
 44
0.0625
 45
0.0
 46
0.0
 47
0.0
 48
0.0
140
0.125
141
0.125
142
0.0
143
25.399999999999999
144
1.0
145
0.0
146
1.0
147
0.0625
 71
     0
 72
     0
 73
     0
 74
     0
 75
     0
 76
     0
 77
     1
 78
     0
170
     0
171
     2
172
     0
173
     0
174
     1
175
     0
176
     0
177
     0
178
     0
  0
DIMSTYLE
  2
HALF_SCALE
 70
     0
  3
"
  4

  5

  6

  7

 40
1.0
 41
0.09375
 42
0.1875
 43
0.25
 44
0.125
 45
0.0
 46
0.0
 47
0.0
 48
0.0
140
0.25
141
0.25
142
0.0
143
25.399999999999999
144
1.0
145
0.0
146
1.0
147
0.125
 71
     0
 72
     0
 73
     0
 74
     0
 75
     0
 76
     0
 77
     1
 78
     0
170
     0
171
     2
172
     0
173
     0
174
     1
175
     0
176
     0
177
     0
178
     0
  0
DIMSTYLE
  2
INCH_SCALE
 70
     0
  3
"
  4

  5

  6

  7

 40
1.0
 41
0.5625
 42
1.125
 43
1.5
 44
0.75
 45
0.0
 46
0.0
 47
0.0
 48
0.0
140
1.125
141
1.5
142
0.0
143
25.399999999999999
144
1.0
145
0.0
146
1.0
147
0.75
 71
     0
 72
     0
 73
     0
 74
     0
 75
     0
 76
     0
 77
     1
 78
     0
170
     0
171
     2
172
     0
173
     0
174
     1
175
     0
176
     0
177
     0
178
     0
  0
DIMSTYLE
  2
THREE_QUARTER_INCH_SCALE
 70
     0
  3
"
  4

  5

  6

  7

 40
1.0
 41
0.75
 42
1.5
 43
2.0
 44
1.0
 45
0.0
 46
0.0
 47
0.0
 48
0.0
140
1.5
141
2.0
142
0.0
143
25.399999999999999
144
1.0
145
0.0
146
1.0
147
1.0
 71
     0
 72
     0
 73
     0
 74
     0
 75
     0
 76
     0
 77
     1
 78
     0
170
     0
171
     2
172
     0
173
     0
174
     1
175
     0
176
     0
177
     0
178
     0
  0
DIMSTYLE
  2
ZHALF_INCH_SCALE
 70
     0
  3
"
  4

  5

  6

  7

 40
1.0
 41
1.125
 42
2.25
 43
3.0
 44
1.5
 45
0.0
 46
0.0
 47
0.0
 48
0.0
140
2.25
141
3.0
142
0.0
143
25.399999999999999
144
1.0
145
0.0
146
1.0
147
1.5
 71
     0
 72
     0
 73
     0
 74
     0
 75
     0
 76
     0
 77
     1
 78
     0
170
     0
171
     2
172
     0
173
     0
174
     1
175
     0
176
     0
177
     0
178
     0
  0
DIMSTYLE
  2
FULL_SCALE0
 70
     0
  3
"
  4

  5
ARCHTICK
  6

  7

 40
1.0
 41
0.046875
 42
0.09375
 43
0.125
 44
0.0625
 45
0.0
 46
0.0
 47
0.0
 48
0.0
140
0.125
141
0.125
142
0.0
143
25.399999999999999
144
1.0
145
0.0
146
1.0
147
0.0625
 71
     0
 72
     0
 73
     0
 74
     0
 75
     0
 76
     0
 77
     1
 78
     0
170
     0
171
     2
172
     0
173
     0
174
     1
175
     0
176
     0
177
     0
178
     0
  0
DIMSTYLE
  2
HALF_SCALE0
 70
     0
  3
"
  4

  5
ARCHTICK
  6

  7

 40
1.0
 41
0.09375
 42
0.1875
 43
0.25
 44
0.125
 45
0.0
 46
0.0
 47
0.0
 48
0.0
140
0.25
141
0.25
142
0.0
143
25.399999999999999
144
1.0
145
0.0
146
1.0
147
0.125
 71
     0
 72
     0
 73
     0
 74
     0
 75
     0
 76
     0
 77
     1
 78
     0
170
     0
171
     2
172
     0
173
     0
174
     1
175
     0
176
     0
177
     0
178
     0
  0
DIMSTYLE
  2
INCH_SCALE0
 70
     0
  3
"
  4

  5
ARCHTICK
  6

  7

 40
1.0
 41
0.5625
 42
1.125
 43
1.5
 44
0.75
 45
0.0
 46
0.0
 47
0.0
 48
0.0
140
1.125
141
1.5
142
0.0
143
25.399999999999999
144
1.0
145
0.0
146
1.0
147
0.75
 71
     0
 72
     0
 73
     0
 74
     0
 75
     0
 76
     0
 77
     1
 78
     0
170
     0
171
     2
172
     0
173
     0
174
     1
175
     0
176
     0
177
     0
178
     0
  0
DIMSTYLE
  2
THREE_QUARTER_INCH_SCALE0
 70
     0
  3
"
  4

  5
ARCHTICK
  6

  7

 40
1.0
 41
0.75
 42
1.5
 43
2.0
 44
1.0
 45
0.0
 46
0.0
 47
0.0
 48
0.0
140
1.5
141
2.0
142
0.0
143
25.399999999999999
144
1.0
145
0.0
146
1.0
147
1.0
 71
     0
 72
     0
 73
     0
 74
     0
 75
     0
 76
     0
 77
     1
 78
     0
170
     0
171
     2
172
     0
173
     0
174
     1
175
     0
176
     0
177
     0
178
     0
  0
DIMSTYLE
  2
ZHALF_INCH_SCALE0
 70
     0
  3
"
  4

  5
ARCHTICK
  6

  7

 40
1.0
 41
1.125
 42
2.25
 43
3.0
 44
1.5
 45
0.0
 46
0.0
 47
0.0
 48
0.0
140
2.25
141
3.0
142
0.0
143
25.399999999999999
144
1.0
145
0.0
146
1.0
147
1.5
 71
     0
 72
     0
 73
     0
 74
     0
 75
     0
 76
     0
 77
     1
 78
     0
170
     0
171
     2
172
     0
173
     0
174
     1
175
     0
176
     0
177
     0
178
     0
  0
ENDTAB
  0
ENDSEC
  0
SECTION
  2
BLOCKS
  0
BLOCK
  8
0
  2
$MODEL_SPACE
 70
     0
 10
0.0
 20
0.0
 30
0.0
  3
$MODEL_SPACE
  1

  0
ENDBLK
  5
C9DC
  8
0
  0
BLOCK
 67
     1
  8
0
  2
$PAPER_SPACE
 70
     0
 10
0.0
 20
0.0
 30
0.0
  3
$PAPER_SPACE
  1

  0
ENDBLK
  5
C9D8
 67
     1
  8
0
  0
BLOCK
  8
0
  2
_ARCHTICK
 70
     0
 10
0.0
 20
0.0
 30
0.0
  3
_ARCHTICK
  1

  0
POLYLINE
  5
158
  8
0
  6
BYBLOCK
 62
     0
 66
     1
 10
0.0
 20
0.0
 30
0.0
 40
0.15
 41
0.15
  0
VERTEX
  5
E228
  8
0
  6
BYBLOCK
 62
     0
 10
-0.5
 20
-0.5
 30
0.0
  0
VERTEX
  5
E229
  8
0
  6
BYBLOCK
 62
     0
 10
0.5
 20
0.5
 30
0.0
  0
SEQEND
  5
E22A
  8
0
  6
BYBLOCK
 62
     0
  0
ENDBLK
  5
15A
  8
0
  0
BLOCK
  8
0
  2
_OPEN30
 70
     0
 10
0.0
 20
0.0
 30
0.0
  3
_OPEN30
  1

  0
LINE
  5
15C
  8
0
  6
BYBLOCK
 62
     0
 10
-1.0
 20
0.26794919
 30
0.0
 11
0.0
 21
0.0
 31
0.0
  0
LINE
  5
15D
  8
0
  6
BYBLOCK
 62
     0
 10
0.0
 20
0.0
 30
0.0
 11
-1.0
 21
-0.26794919
 31
0.0
  0
LINE
  5
15E
  8
0
  6
BYBLOCK
 62
     0
 10
0.0
 20
0.0
 30
0.0
 11
-1.0
 21
0.0
 31
0.0
  0
ENDBLK
  5
160
  8
0
  0
BLOCK
  8
0
  2
ISO_A2_TITLE_BLOCK
 70
     2
 10
0.0
 20
0.0
 30
0.0
  3
ISO_A2_TITLE_BLOCK
  1

  0
LINE
  5
BDD
  8
FRAME_050
 10
299.5
 20
12.5
 30
0.0
 11
297.0
 21
7.5
 31
0.0
  0
LINE
  5
BDE
  8
FRAME_050
 10
294.5
 20
12.5
 30
0.0
 11
299.5
 21
12.5
 31
0.0
  0
LINE
  5
BDF
  8
FRAME_050
 10
247.0
 20
5.0
 30
0.0
 11
347.0
 21
5.0
 31
0.0
  0
LINE
  5
BE0
  8
FRAME_070
 10
584.0
 20
410.0
 30
0.0
 11
10.0
 21
410.0
 31
0.0
  0
LINE
  5
BE1
  8
FRAME_070
 10
10.0
 20
10.0
 30
0.0
 11
584.0
 21
10.0
 31
0.0
  0
LINE
  5
BE2
  8
FRAME_050
 10
12.5
 20
207.5
 30
0.0
 11
7.5
 21
210.0
 31
0.0
  0
LINE
  5
BE3
  8
FRAME_050
 10
12.5
 20
212.5
 30
0.0
 11
12.5
 21
207.5
 31
0.0
  0
LINE
  5
BE4
  8
FRAME_070
 10
10.0
 20
410.0
 30
0.0
 11
10.0
 21
10.0
 31
0.0
  0
LINE
  5
BE5
  8
FRAME_200
 10
0.0
 20
0.0
 30
0.0
 11
0.0
 21
10.0
 31
0.0
  0
LINE
  5
BE6
  8
FRAME_200
 10
0.0
 20
0.0
 30
0.0
 11
10.0
 21
0.0
 31
0.0
  0
TEXT
  5
BE7
  8
FRAME_050
 10
5.9000000000000004
 20
35.0
 30
0.0
 40
4.0
  1
H
  7
ISO_PROPORTIONAL
 72
     4
 11
7.5
 21
37.0
 31
0.0
  0
LINE
  5
BE8
  8
FRAME_050
 10
10.0
 20
60.0
 30
0.0
 11
5.0
 21
60.0
 31
0.0
  0
LINE
  5
BE9
  8
FRAME_050
 10
81.75
 20
5.0
 30
0.0
 11
81.75
 21
10.0
 31
0.0
  0
TEXT
  5
BEA
  8
FRAME_050
 10
44.874999999999993
 20
5.5
 30
0.0
 40
4.0
  1
1
  7
ISO_PROPORTIONAL
 72
     4
 11
45.875
 21
7.5
 31
0.0
  0
TEXT
  5
BEB
  8
FRAME_050
 10
6.0035533905932743
 20
85.0
 30
0.0
 40
4.0
  1
G
  7
ISO_PROPORTIONAL
 72
     4
 11
7.5
 21
87.0
 31
0.0
  0
LINE
  5
BEC
  8
FRAME_050
 10
10.0
 20
110.0
 30
0.0
 11
5.0
 21
110.0
 31
0.0
  0
TEXT
  5
BED
  8
FRAME_050
 10
6.0999999999999988
 20
135.0
 30
0.0
 40
4.0
  1
F
  7
ISO_PROPORTIONAL
 72
     4
 11
7.5
 21
137.0
 31
0.0
  0
LINE
  5
BEE
  8
FRAME_050
 10
10.0
 20
160.0
 30
0.0
 11
5.0
 21
160.0
 31
0.0
  0
TEXT
  5
BEF
  8
FRAME_050
 10
6.0999999999999988
 20
185.0
 30
0.0
 40
4.0
  1
E
  7
ISO_PROPORTIONAL
 72
     4
 11
7.5
 21
187.0
 31
0.0
  0
LINE
  5
BF0
  8
FRAME_050
 10
153.5
 20
5.0
 30
0.0
 11
153.5
 21
10.0
 31
0.0
  0
TEXT
  5
BF1
  8
FRAME_050
 10
116.1556692913386
 20
5.3996062992125982
 30
0.0
 40
4.0
  1
2
  7
ISO_PROPORTIONAL
 72
     4
 11
117.625
 21
7.5
 31
0.0
  0
TEXT
  5
BF2
  8
FRAME_050
 10
187.89215728752529
 20
5.5828427124746138
 30
0.0
 40
4.0
  1
3
  7
ISO_PROPORTIONAL
 72
     4
 11
189.375
 21
7.5
 31
0.0
  0
LINE
  5
BF3
  8
FRAME_050
 10
225.25
 20
5.0
 30
0.0
 11
225.25
 21
10.0
 31
0.0
  0
LINE
  5
BF4
  8
FRAME_050
 10
297.0
 20
7.5
 30
0.0
 11
294.5
 21
12.5
 31
0.0
  0
LINE
  5
BF5
  8
FRAME_050
 10
287.0
 20
5.0
 30
0.0
 11
287.0
 21
10.0
 31
0.0
  0
LINE
  5
BF6
  8
FRAME_050
 10
277.0
 20
5.0
 30
0.0
 11
277.0
 21
10.0
 31
0.0
  0
LINE
  5
BF7
  8
FRAME_050
 10
267.0
 20
5.0
 30
0.0
 11
267.0
 21
10.0
 31
0.0
  0
LINE
  5
BF8
  8
FRAME_050
 10
257.0
 20
5.0
 30
0.0
 11
257.0
 21
10.0
 31
0.0
  0
LINE
  5
BF9
  8
FRAME_050
 10
247.0
 20
5.0
 30
0.0
 11
247.0
 21
10.0
 31
0.0
  0
LINE
  5
BFA
  8
FRAME_050
 10
297.0
 20
10.0
 30
0.0
 11
297.0
 21
5.0
 31
0.0
  0
LINE
  5
BFB
  8
FRAME_050
 10
297.0
 20
10.0
 30
0.0
 11
297.0
 21
15.0
 31
0.0
  0
LINE
  5
BFC
  8
FRAME_050
 10
5.0
 20
210.0
 30
0.0
 11
15.0
 21
210.0
 31
0.0
  0
LINE
  5
BFD
  8
FRAME_050
 10
7.5
 20
210.0
 30
0.0
 11
12.5
 21
212.5
 31
0.0
  0
TEXT
  5
BFE
  8
FRAME_050
 10
5.7860912703473977
 20
235.0
 30
0.0
 40
4.0
  1
D
  7
ISO_PROPORTIONAL
 72
     4
 11
7.5
 21
237.0
 31
0.0
  0
LINE
  5
BFF
  8
FRAME_050
 10
10.0
 20
260.0
 30
0.0
 11
5.0
 21
260.0
 31
0.0
  0
TEXT
  5
C00
  8
FRAME_050
 10
6.1931980515339466
 20
285.0
 30
0.0
 40
4.0
  1
C
  7
ISO_PROPORTIONAL
 72
     4
 11
7.5
 21
287.0
 31
0.0
  0
LINE
  5
C01
  8
FRAME_050
 10
10.0
 20
310.0
 30
0.0
 11
5.0
 21
310.0
 31
0.0
  0
TEXT
  5
C02
  8
FRAME_050
 10
5.8999999999999959
 20
335.0
 30
0.0
 40
4.0
  1
B
  7
ISO_PROPORTIONAL
 72
     4
 11
7.5
 21
337.0
 31
0.0
  0
LINE
  5
C03
  8
FRAME_050
 10
10.0
 20
360.0
 30
0.0
 11
5.0
 21
360.0
 31
0.0
  0
TEXT
  5
C04
  8
FRAME_050
 10
5.6999999999999993
 20
385.0
 30
0.0
 40
4.0
  1
A
  7
ISO_PROPORTIONAL
 72
     4
 11
7.5
 21
387.0
 31
0.0
  0
LINE
  5
C05
  8
FRAME_200
 10
10.0
 20
420.0
 30
0.0
 11
0.0
 21
420.0
 31
0.0
  0
LINE
  5
C06
  8
FRAME_200
 10
0.0
 20
420.0
 30
0.0
 11
0.0
 21
410.0
 31
0.0
  0
TEXT
  5
C07
  8
FRAME_050
 10
44.874999999999993
 20
410.5
 30
0.0
 40
4.0
  1
1
  7
ISO_PROPORTIONAL
 72
     4
 11
45.875
 21
412.5
 31
0.0
  0
LINE
  5
C08
  8
FRAME_050
 10
81.75
 20
410.0
 30
0.0
 11
81.75
 21
415.0
 31
0.0
  0
TEXT
  5
C09
  8
FRAME_050
 10
116.1556692913386
 20
410.39960629921262
 30
0.0
 40
4.0
  1
2
  7
ISO_PROPORTIONAL
 72
     4
 11
117.625
 21
412.5
 31
0.0
  0
LINE
  5
C0A
  8
FRAME_050
 10
153.5
 20
410.0
 30
0.0
 11
153.5
 21
415.0
 31
0.0
  0
TEXT
  5
C0B
  8
FRAME_050
 10
187.89215728752529
 20
410.58284271247459
 30
0.0
 40
4.0
  1
3
  7
ISO_PROPORTIONAL
 72
     4
 11
189.375
 21
412.5
 31
0.0
  0
LINE
  5
C0C
  8
FRAME_050
 10
297.0
 20
405.0
 30
0.0
 11
297.0
 21
415.0
 31
0.0
  0
LINE
  5
C0D
  8
FRAME_050
 10
225.25
 20
410.0
 30
0.0
 11
225.25
 21
415.0
 31
0.0
  0
TEXT
  5
C0E
  8
FRAME_050
 10
259.52499999999998
 20
410.5
 30
0.0
 40
4.0
  1
4
  7
ISO_PROPORTIONAL
 72
     4
 11
261.125
 21
412.5
 31
0.0
  0
LINE
  5
C0F
  8
FRAME_070
 10
584.0
 20
10.0
 30
0.0
 11
584.0
 21
410.0
 31
0.0
  0
ATTDEF
  5
C10
  8
FRAME_025
 10
473.0
 20
31.75
 30
0.0
 40
2.5
  1
XXX - 00/00/00
  7
ISO_PROPORTIONAL
 11
473.0
 21
33.0
 31
0.0
  3
Approved by - Date
  2
APPROVED_BY_DATE
 70
     8
 74
     2
  0
TEXT
  5
C11
  8
FRAME_025
 10
448.0
 20
41.749999999999993
 30
0.0
 40
2.5
  1
Title/Name, designation, material, dimension etc
  7
ISO_PROPORTIONAL
 11
448.0
 21
43.0
 31
0.0
 73
     2
  0
TEXT
  5
C12
  8
FRAME_025
 10
473.0
 20
35.75
 30
0.0
 40
2.5
  1
Approved by - date
  7
ISO_PROPORTIONAL
 11
473.0
 21
37.0
 31
0.0
 73
     2
  0
LINE
  5
C13
  8
FRAME_070
 10
414.0
 20
46.0
 30
0.0
 11
584.0
 21
46.0
 31
0.0
  0
LINE
  5
C14
  8
FRAME_070
 10
414.0
 20
40.0
 30
0.0
 11
584.0
 21
40.0
 31
0.0
  0
LINE
  5
C15
  8
FRAME_070
 10
414.0
 20
30.0
 30
0.0
 11
584.0
 21
30.0
 31
0.0
  0
LINE
  5
C16
  8
FRAME_050
 10
368.75
 20
5.0
 30
0.0
 11
368.75
 21
10.0
 31
0.0
  0
LINE
  5
C17
  8
FRAME_050
 10
337.0
 20
5.0
 30
0.0
 11
337.0
 21
10.0
 31
0.0
  0
LINE
  5
C18
  8
FRAME_050
 10
327.0
 20
5.0
 30
0.0
 11
327.0
 21
10.0
 31
0.0
  0
LINE
  5
C19
  8
FRAME_050
 10
317.0
 20
5.0
 30
0.0
 11
317.0
 21
10.0
 31
0.0
  0
LINE
  5
C1A
  8
FRAME_050
 10
307.0
 20
5.0
 30
0.0
 11
307.0
 21
10.0
 31
0.0
  0
LINE
  5
C1B
  8
FRAME_050
 10
347.0
 20
5.0
 30
0.0
 11
347.0
 21
10.0
 31
0.0
  0
LINE
  5
C1C
  8
FRAME_050
 10
440.5
 20
5.0
 30
0.0
 11
440.5
 21
10.0
 31
0.0
  0
TEXT
  5
C1D
  8
FRAME_050
 10
403.24547244094481
 20
5.4102362204724406
 30
0.0
 40
4.0
  1
6
  7
ISO_PROPORTIONAL
 72
     4
 11
404.62499999999989
 21
7.5
 31
0.0
  0
TEXT
  5
C1E
  8
FRAME_050
 10
474.97499999999991
 20
5.5
 30
0.0
 40
4.0
  1
7
  7
ISO_PROPORTIONAL
 72
     4
 11
476.37499999999989
 21
7.5
 31
0.0
  0
TEXT
  5
C1F
  8
FRAME_025
 10
431.0
 20
41.749999999999993
 30
0.0
 40
2.5
  1
Quantity
  7
ISO_PROPORTIONAL
 11
431.0
 21
43.0
 31
0.0
 73
     2
  0
TEXT
  5
C20
  8
FRAME_025
 10
416.0
 20
41.749999999999993
 30
0.0
 40
2.5
  1
Itemref
  7
ISO_PROPORTIONAL
 11
416.0
 21
43.0
 31
0.0
 73
     2
  0
LINE
  5
C21
  8
FRAME_070
 10
414.0
 20
40.0
 30
0.0
 11
414.0
 21
46.0
 31
0.0
  0
LINE
  5
C22
  8
FRAME_070
 10
429.0
 20
40.0
 30
0.0
 11
429.0
 21
46.0
 31
0.0
  0
LINE
  5
C23
  8
FRAME_070
 10
414.0
 20
10.0
 30
0.0
 11
414.0
 21
40.0
 31
0.0
  0
ATTDEF
  5
C24
  8
FRAME_025
 10
416.0
 20
31.75
 30
0.0
 40
2.5
  1
XXX
  7
ISO_PROPORTIONAL
 11
416.0
 21
33.0
 31
0.0
  3
Designed by
  2
DESIGNED_BY
 70
     8
 74
     2
  0
TEXT
  5
C25
  8
FRAME_025
 10
416.0
 20
35.75
 30
0.0
 40
2.5
  1
Designed by
  7
ISO_PROPORTIONAL
 11
416.0
 21
37.0
 31
0.0
 73
     2
  0
LINE
  5
C26
  8
FRAME_070
 10
446.0
 20
40.0
 30
0.0
 11
446.0
 21
46.0
 31
0.0
  0
ATTDEF
  5
C27
  8
FRAME_025
 10
448.0
 20
31.75
 30
0.0
 40
2.5
  1
XXX
  7
ISO_PROPORTIONAL
 11
448.0
 21
33.0
 31
0.0
  3
Checked by
  2
CHECKED_BY
 70
     8
 74
     2
  0
TEXT
  5
C28
  8
FRAME_025
 10
448.0
 20
35.75
 30
0.0
 40
2.5
  1
Checked by
  7
ISO_PROPORTIONAL
 11
448.0
 21
37.0
 31
0.0
 73
     2
  0
ATTDEF
  5
C29
  8
FRAME_050
 10
444.74999999999989
 20
17.5
 30
0.0
 40
5.0
  1
XXX
  7
ISO_PROPORTIONAL
 72
     4
 11
451.49999999999989
 21
20.0
 31
0.0
  3
Owner
  2
OWNER
 70
     8
  0
LINE
  5
C2A
  8
FRAME_070
 10
446.0
 20
30.0
 30
0.0
 11
446.0
 21
40.0
 31
0.0
  0
LINE
  5
C2B
  8
FRAME_070
 10
471.0
 20
30.0
 30
0.0
 11
471.0
 21
40.0
 31
0.0
  0
LINE
  5
C2C
  8
FRAME_070
 10
489.0
 20
20.0
 30
0.0
 11
584.0
 21
20.0
 31
0.0
  0
LINE
  5
C2D
  8
FRAME_050
 10
512.25
 20
5.0
 30
0.0
 11
512.25
 21
10.0
 31
0.0
  0
TEXT
  5
C2E
  8
FRAME_050
 10
546.72499999999991
 20
5.5
 30
0.0
 40
4.0
  1
8
  7
ISO_PROPORTIONAL
 72
     4
 11
548.125
 21
7.5
 31
0.0
  0
ATTDEF
  5
C2F
  8
FRAME_050
 10
517.64999999999986
 20
13.5
 30
0.0
 40
3.0
  1
X
  7
ISO_PROPORTIONAL
 72
     4
 11
519.0
 21
15.0
 31
0.0
  3
Drawing number
  2
DRAWING_NUMBER
 70
     8
  0
ATTDEF
  5
C30
  8
FRAME_050
 10
529.75
 20
22.5
 30
0.0
 40
5.0
  1
XXX
  7
ISO_PROPORTIONAL
 72
     4
 11
536.5
 21
25.0
 31
0.0
  3
Title / Name
  2
TITLE
 70
     8
  0
LINE
  5
C31
  8
FRAME_070
 10
489.0
 20
10.0
 30
0.0
 11
489.0
 21
30.0
 31
0.0
  0
ATTDEF
  5
C32
  8
FRAME_025
 10
511.0
 20
31.75
 30
0.0
 40
2.5
  1
XXX
  7
ISO_PROPORTIONAL
 11
511.0
 21
33.0
 31
0.0
  3
Filename
  2
FILENAME
 70
     8
 74
     2
  0
TEXT
  5
C33
  8
FRAME_025
 10
511.0
 20
35.75
 30
0.0
 40
2.5
  1
Filename
  7
ISO_PROPORTIONAL
 11
511.0
 21
37.0
 31
0.0
 73
     2
  0
LINE
  5
C34
  8
FRAME_070
 10
509.0
 20
30.0
 30
0.0
 11
509.0
 21
40.0
 31
0.0
  0
TEXT
  5
C35
  8
FRAME_025
 10
536.0
 20
41.749999999999993
 30
0.0
 40
2.5
  1
Article No./Reference
  7
ISO_PROPORTIONAL
 11
536.0
 21
43.0
 31
0.0
 73
     2
  0
LINE
  5
C36
  8
FRAME_070
 10
534.0
 20
40.0
 30
0.0
 11
534.0
 21
46.0
 31
0.0
  0
ATTDEF
  5
C37
  8
FRAME_025
 10
551.0
 20
11.75
 30
0.0
 40
2.5
  1
0
  7
ISO_PROPORTIONAL
 11
551.0
 21
13.0
 31
0.0
  3
Edition
  2
EDITION
 70
     8
 74
     2
  0
TEXT
  5
C38
  8
FRAME_025
 10
551.0
 20
15.75
 30
0.0
 40
2.5
  1
Edition
  7
ISO_PROPORTIONAL
 11
551.0
 21
17.0
 31
0.0
 73
     2
  0
LINE
  5
C39
  8
FRAME_070
 10
549.0
 20
10.0
 30
0.0
 11
549.0
 21
20.0
 31
0.0
  0
ATTDEF
  5
C3A
  8
FRAME_025
 10
536.0
 20
31.75
 30
0.0
 40
2.5
  1
00/00/00
  7
ISO_PROPORTIONAL
 11
536.0
 21
33.0
 31
0.0
  3
Date
  2
DATE
 70
     8
 74
     2
  0
TEXT
  5
C3B
  8
FRAME_025
 10
536.0
 20
35.75
 30
0.0
 40
2.5
  1
Date
  7
ISO_PROPORTIONAL
 11
536.0
 21
37.0
 31
0.0
 73
     2
  0
LINE
  5
C3C
  8
FRAME_070
 10
534.0
 20
30.0
 30
0.0
 11
534.0
 21
40.0
 31
0.0
  0
ATTDEF
  5
C3D
  8
FRAME_025
 10
566.0
 20
11.75
 30
0.0
 40
2.5
  1
1/1
  7
ISO_PROPORTIONAL
 11
566.0
 21
13.0
 31
0.0
  3
Sheet
  2
SHEET
 70
     8
 74
     2
  0
TEXT
  5
C3E
  8
FRAME_025
 10
566.0
 20
15.75
 30
0.0
 40
2.5
  1
Sheet
  7
ISO_PROPORTIONAL
 11
566.0
 21
17.0
 31
0.0
 73
     2
  0
LINE
  5
C3F
  8
FRAME_070
 10
564.0
 20
10.0
 30
0.0
 11
564.0
 21
20.0
 31
0.0
  0
ATTDEF
  5
C40
  8
FRAME_025
 10
566.0
 20
31.75
 30
0.0
 40
2.5
  1
1:1
  7
ISO_PROPORTIONAL
 11
566.0
 21
33.0
 31
0.0
  3
Scale
  2
SCALE
 70
     8
 74
     2
  0
TEXT
  5
C41
  8
FRAME_025
 10
566.0
 20
35.75
 30
0.0
 40
2.5
  1
Scale
  7
ISO_PROPORTIONAL
 11
566.0
 21
37.0
 31
0.0
 73
     2
  0
LINE
  5
C42
  8
FRAME_070
 10
564.0
 20
30.0
 30
0.0
 11
564.0
 21
40.0
 31
0.0
  0
LINE
  5
C43
  8
FRAME_200
 10
594.0
 20
0.0
 30
0.0
 11
594.0
 21
10.0
 31
0.0
  0
LINE
  5
C44
  8
FRAME_200
 10
594.0
 20
0.0
 30
0.0
 11
584.0
 21
0.0
 31
0.0
  0
TEXT
  5
C45
  8
FRAME_050
 10
584.89999999999998
 20
35.0
 30
0.0
 40
4.0
  1
H
  7
ISO_PROPORTIONAL
 72
     4
 11
586.5
 21
37.0
 31
0.0
  0
LINE
  5
C46
  8
FRAME_050
 10
589.0
 20
60.0
 30
0.0
 11
584.0
 21
60.0
 31
0.0
  0
TEXT
  5
C47
  8
FRAME_050
 10
585.0035533905932
 20
85.0
 30
0.0
 40
4.0
  1
G
  7
ISO_PROPORTIONAL
 72
     4
 11
586.5
 21
87.0
 31
0.0
  0
LINE
  5
C48
  8
FRAME_050
 10
589.0
 20
110.0
 30
0.0
 11
584.0
 21
110.0
 31
0.0
  0
TEXT
  5
C49
  8
FRAME_050
 10
585.09999999999991
 20
135.0
 30
0.0
 40
4.0
  1
F
  7
ISO_PROPORTIONAL
 72
     4
 11
586.5
 21
137.0
 31
0.0
  0
LINE
  5
C4A
  8
FRAME_050
 10
589.0
 20
160.0
 30
0.0
 11
584.0
 21
160.0
 31
0.0
  0
TEXT
  5
C4B
  8
FRAME_050
 10
585.09999999999991
 20
185.0
 30
0.0
 40
4.0
  1
E
  7
ISO_PROPORTIONAL
 72
     4
 11
586.5
 21
187.0
 31
0.0
  0
LINE
  5
C4C
  8
FRAME_070
 10
414.0
 20
404.0
 30
0.0
 11
584.0
 21
404.0
 31
0.0
  0
TEXT
  5
C4D
  8
FRAME_050
 10
331.39215728752538
 20
410.58284271247459
 30
0.0
 40
4.0
  1
5
  7
ISO_PROPORTIONAL
 72
     4
 11
332.875
 21
412.5
 31
0.0
  0
LINE
  5
C4E
  8
FRAME_050
 10
368.75
 20
410.0
 30
0.0
 11
368.75
 21
415.0
 31
0.0
  0
TEXT
  5
C4F
  8
FRAME_025
 10
428.0
 20
405.75
 30
0.0
 40
2.5
  1
Revision note
  7
ISO_PROPORTIONAL
 11
428.0
 21
407.0
 31
0.0
 73
     2
  0
TEXT
  5
C50
  8
FRAME_025
 10
416.0
 20
405.75
 30
0.0
 40
2.5
  1
RevNo
  7
ISO_PROPORTIONAL
 11
416.0
 21
407.0
 31
0.0
 73
     2
  0
LINE
  5
C51
  8
FRAME_070
 10
426.0
 20
404.0
 30
0.0
 11
426.0
 21
410.0
 31
0.0
  0
LINE
  5
C52
  8
FRAME_070
 10
414.0
 20
404.0
 30
0.0
 11
414.0
 21
410.0
 31
0.0
  0
TEXT
  5
C53
  8
FRAME_050
 10
403.24547244094481
 20
410.41023622047243
 30
0.0
 40
4.0
  1
6
  7
ISO_PROPORTIONAL
 72
     4
 11
404.62499999999989
 21
412.5
 31
0.0
  0
LINE
  5
C54
  8
FRAME_050
 10
440.5
 20
410.0
 30
0.0
 11
440.5
 21
415.0
 31
0.0
  0
TEXT
  5
C55
  8
FRAME_050
 10
474.97499999999991
 20
410.5
 30
0.0
 40
4.0
  1
7
  7
ISO_PROPORTIONAL
 72
     4
 11
476.37499999999989
 21
412.5
 31
0.0
  0
LINE
  5
C56
  8
FRAME_050
 10
579.0
 20
210.0
 30
0.0
 11
589.0
 21
210.0
 31
0.0
  0
TEXT
  5
C57
  8
FRAME_050
 10
584.78609127034736
 20
235.0
 30
0.0
 40
4.0
  1
D
  7
ISO_PROPORTIONAL
 72
     4
 11
586.5
 21
237.0
 31
0.0
  0
LINE
  5
C58
  8
FRAME_050
 10
589.0
 20
260.0
 30
0.0
 11
584.0
 21
260.0
 31
0.0
  0
TEXT
  5
C59
  8
FRAME_050
 10
585.19319805153395
 20
285.0
 30
0.0
 40
4.0
  1
C
  7
ISO_PROPORTIONAL
 72
     4
 11
586.5
 21
287.0
 31
0.0
  0
LINE
  5
C5A
  8
FRAME_050
 10
589.0
 20
310.0
 30
0.0
 11
584.0
 21
310.0
 31
0.0
  0
TEXT
  5
C5B
  8
FRAME_050
 10
584.89999999999998
 20
335.0
 30
0.0
 40
4.0
  1
B
  7
ISO_PROPORTIONAL
 72
     4
 11
586.5
 21
337.0
 31
0.0
  0
TEXT
  5
C5C
  8
FRAME_025
 10
571.08299391850551
 20
405.75
 30
0.0
 40
2.5
  1
Checked
  7
ISO_PROPORTIONAL
 11
571.08299391850551
 21
407.0
 31
0.0
 73
     2
  0
TEXT
  5
C5D
  8
FRAME_025
 10
555.36099797283521
 20
405.75
 30
0.0
 40
2.5
  1
Signature
  7
ISO_PROPORTIONAL
 11
555.36099797283521
 21
407.0
 31
0.0
 73
     2
  0
TEXT
  5
C5E
  8
FRAME_025
 10
537.0
 20
405.75
 30
0.0
 40
2.5
  1
Date
  7
ISO_PROPORTIONAL
 11
537.0
 21
407.0
 31
0.0
 73
     2
  0
LINE
  5
C5F
  8
FRAME_070
 10
570.0
 20
404.0
 30
0.0
 11
570.0
 21
410.0
 31
0.0
  0
LINE
  5
C60
  8
FRAME_070
 10
555.0
 20
404.0
 30
0.0
 11
555.0
 21
410.0
 31
0.0
  0
LINE
  5
C61
  8
FRAME_070
 10
535.0
 20
404.0
 30
0.0
 11
535.0
 21
410.0
 31
0.0
  0
LINE
  5
C62
  8
FRAME_050
 10
512.25
 20
410.0
 30
0.0
 11
512.25
 21
415.0
 31
0.0
  0
TEXT
  5
C63
  8
FRAME_050
 10
546.72499999999991
 20
410.5
 30
0.0
 40
4.0
  1
8
  7
ISO_PROPORTIONAL
 72
     4
 11
548.125
 21
412.5
 31
0.0
  0
LINE
  5
C64
  8
FRAME_050
 10
589.0
 20
360.0
 30
0.0
 11
584.0
 21
360.0
 31
0.0
  0
TEXT
  5
C65
  8
FRAME_050
 10
584.70000000000005
 20
385.0
 30
0.0
 40
4.0
  1
A
  7
ISO_PROPORTIONAL
 72
     4
 11
586.5
 21
387.0
 31
0.0
  0
LINE
  5
C66
  8
FRAME_200
 10
594.0
 20
420.0
 30
0.0
 11
584.0
 21
420.0
 31
0.0
  0
LINE
  5
C67
  8
FRAME_200
 10
594.0
 20
410.0
 30
0.0
 11
594.0
 21
420.0
 31
0.0
  0
ENDBLK
  5
C69
  8
0
  0
BLOCK
  8
0
  2
WOBB001END
 70
     0
 10
0.0
 20
0.0
 30
0.0
  3
WOBB001END
  1

  0
LINE
  5
4D66
  8
0
  6
CONTINUOUS
 10
0.0
 20
0.0
 30
0.0
 11
0.8749999999999998
 21
0.0
 31
0.0
  0
ARC
  5
4D67
  8
0
  6
CONTINUOUS
 10
0.0331648379439287
 20
-0.5087238935900234
 30
0.0
 40
0.8790130605592325
 50
284.06490243660443
 51
312.19222981924361
  0
ARC
  5
4D68
  8
0
  6
CONTINUOUS
 10
0.2841534338796767
 20
-1.510548310625538
 30
0.0
 40
0.1537731892806598
 50
104.0649024366044
 51
179.4721730735024
  0
LINE
  5
4D69
  8
0
  6
CONTINUOUS
 10
0.0
 20
0.0
 30
0.0
 11
-0.0000000000000003
 21
-1.7501564476661911
 31
0.0
  0
ARC
  5
4D6A
  8
0
  6
CONTINUOUS
 10
0.1404622019506122
 20
-1.630313718354619
 30
0.0
 40
0.1198427293115722
 50
275.0
 51
85.000000000000057
  0
LINE
  5
4D6B
  8
0
  6
CONTINUOUS
 10
-0.0000000000000003
 20
-1.7501564476661911
 30
0.0
 11
0.1456946485130855
 21
-1.7501564476661911
 31
0.0
  0
LINE
  5
4D6C
  8
0
  6
CONTINUOUS
 10
0.1377603739254348
 20
-1.7508506067459131
 30
0.0
 11
0.150907184036669
 21
-1.7497004098996509
 31
0.0
  0
LINE
  5
4D6D
  8
0
  6
CONTINUOUS
 10
0.1303867696719884
 20
-1.5091317231818231
 30
0.0
 11
0.1509071840366689
 21
-1.510927026809586
 31
0.0
  0
LINE
  5
4D6E
  8
0
  6
CONTINUOUS
 10
0.8749999999999998
 20
0.0
 30
0.0
 11
0.8749999999999996
 21
-0.8649327026588228
 31
0.0
  0
LINE
  5
4D6F
  8
0
  6
CONTINUOUS
 10
0.727014513830997
 20
-0.872688293355061
 30
0.0
 11
0.727014513830997
 21
-0.9264923397184784
 31
0.0
  0
ARC
  5
4D70
  8
0
  6
CONTINUOUS
 10
0.41187090827646
 20
-0.9264923397184784
 30
0.0
 40
0.3151436055545369
 50
312.19222981924361
 51
0.0
  0
LINE
  5
4D71
  8
0
  6
CONTINUOUS
 10
0.727014513830997
 20
-0.872688293355061
 30
0.0
 11
0.8749999999999996
 21
-0.8649327026588228
 31
0.0
  0
ENDBLK
  5
4D72
  8
0
  0
BLOCK
  8
0
  2
A$C0A61123B
 70
     0
 10
0.0
 20
0.0
 30
0.0
  3
A$C0A61123B
  1

  0
LINE
  5
C0AD
  8
PROF
  6
CONTINUOUS
 10
4.9012016798694162
 20
13.325025853350891
 30
0.0000000000000002
 11
4.9012016798694162
 21
12.88585218805485
 31
0.0000000000000003
  0
INSERT
  5
C0AE
  8
0
  2
*U7
 10
0.0
 20
0.0
 30
0.0
  0
LINE
  5
C0AF
  8
PROF
 10
4.519857503186925
 20
12.72227734589444
 30
0.0000000000000001
 11
4.519857503186925
 21
12.88585218805485
 31
0.0000000000000001
  0
LINE
  5
C0B0
  8
PROF
  6
CONTINUOUS
 10
3.6306271195888362
 20
13.325025853350891
 30
0.0000000000000002
 11
4.9012016798694162
 21
13.325025853350891
 31
0.0000000000000002
  0
LINE
  5
C0B1
  8
PROF
 10
1.9750295148747341
 20
10.37671325491794
 30
0.0000000000000002
 11
1.9750295148747341
 21
10.11391186758919
 31
0.0000000000000002
  0
LINE
  5
C0B2
  8
PROF
 10
1.6079673357556299
 20
10.11391186758919
 30
0.0000000000000001
 11
1.9750295148747341
 21
10.11391186758919
 31
0.0000000000000001
  0
LINE
  5
C0B3
  8
PROF
 10
1.9750295148747341
 20
10.11391186758919
 30
0.0000000000000001
 11
1.944958486898144
 21
10.11391186758919
 31
0.0000000000000001
  0
LINE
  5
C0B4
  8
PROF
 10
1.9750295148747341
 20
10.11391186758919
 30
0.0000000000000001
 11
1.944958486898144
 21
10.11391186758919
 31
0.0000000000000001
  0
LINE
  5
C0B5
  8
PROF
 10
0.3222605517169654
 20
7.5247473351056451
 30
-0.0000000000000002
 11
-0.0000008570117416
 21
7.5247473351056451
 31
0.0
  0
LINE
  5
C0B6
  8
PROF
 10
-0.0000008570117416
 20
7.5247473351056451
 30
0.0
 11
-0.0000008570117416
 21
9.1943336957369848
 31
0.0
  0
POLYLINE
  5
C0B7
  8
PROF
 66
     1
 10
0.0
 20
0.0
 30
0.0000000000000001
 70
     4
 75
     6
  0
VERTEX
  5
C0B8
  8
PROF
 10
1.6079673357556299
 20
10.11391186758919
 30
0.0000000000000001
 70
    16
  0
VERTEX
  5
C0B9
  8
PROF
 10
1.6079673357556299
 20
10.11391186758919
 30
0.0000000000000001
 70
     8
  0
VERTEX
  5
C0BA
  8
PROF
 10
1.6468132326485809
 20
10.02198069336111
 30
0.0000000000000001
 70
     8
  0
VERTEX
  5
C0BB
  8
PROF
 10
1.67335966680929
 20
9.9344134163010231
 30
0.0000000000000001
 70
     8
  0
VERTEX
  5
C0BC
  8
PROF
 10
1.6890086400463229
 20
9.8512576644480951
 30
0.0000000000000001
 70
     8
  0
VERTEX
  5
C0BD
  8
PROF
 10
1.6951621541682571
 20
9.7725610658417281
 30
0.0000000000000001
 70
     8
  0
VERTEX
  5
C0BE
  8
PROF
 10
1.693222210983605
 20
9.6983712485214237
 30
0.0000000000000001
 70
     8
  0
VERTEX
  5
C0BF
  8
PROF
 10
1.6845908123009961
 20
9.6287358405263603
 30
0.0000000000000001
 70
     8
  0
VERTEX
  5
C0C0
  8
PROF
 10
1.670669959928885
 20
9.5637024698960431
 30
0.0000000000000001
 70
     8
  0
VERTEX
  5
C0C1
  8
PROF
 10
1.6528616556759621
 20
9.5033187646697552
 30
0.0000000000000001
 70
     8
  0
VERTEX
  5
C0C2
  8
PROF
 10
1.632356299273054
 20
9.4475843259650691
 30
0.0000000000000001
 70
     8
  0
VERTEX
  5
C0C3
  8
PROF
 10
1.609497882140658
 20
9.3963066472123273
 30
0.0000000000000001
 70
     8
  0
VERTEX
  5
C0C4
  8
PROF
 10
1.584418793621637
 20
9.3492451949202842
 30
0.0000000000000001
 70
     8
  0
VERTEX
  5
C0C5
  8
PROF
 10
1.5572514230587431
 20
9.3061594355972357
 30
0.0000000000000001
 70
     8
  0
VERTEX
  5
C0C6
  8
PROF
 10
1.5281281597949601
 20
9.2668088357519274
 30
0.0000000000000001
 70
     8
  0
VERTEX
  5
C0C7
  8
PROF
 10
1.497181393172978
 20
9.2309528618929981
 30
0.0000000000000001
 70
     8
  0
VERTEX
  5
C0C8
  8
PROF
 10
1.4645435125357249
 20
9.1983509805288541
 30
0.0000000000000001
 70
     8
  0
VERTEX
  5
C0C9
  8
PROF
 10
1.4303469072260091
 20
9.1687626581682462
 30
0.0000000000000001
 70
     8
  0
VERTEX
  5
C0CA
  8
PROF
 10
1.394736033257401
 20
9.1419547918675335
 30
0.0000000000000001
 70
     8
  0
VERTEX
  5
C0CB
  8
PROF
 10
1.3579036133264131
 20
9.1177240008747713
 30
0.0000000000000001
 70
     8
  0
VERTEX
  5
C0CC
  8
PROF
 10
1.3200544368004321
 20
9.0958743349860924
 30
0.0000000000000001
 70
     8
  0
VERTEX
  5
C0CD
  8
PROF
 10
1.281393293046676
 20
9.0762098439975034
 30
0.0000000000000001
 70
     8
  0
VERTEX
  5
C0CE
  8
PROF
 10
1.2421249714324161
 20
9.0585345777049042
 30
0.0000000000000001
 70
     8
  0
VERTEX
  5
C0CF
  8
PROF
 10
1.202454261324986
 20
9.0426525859044187
 30
0.0000000000000001
 70
     8
  0
VERTEX
  5
C0D0
  8
PROF
 10
1.162585952091659
 20
9.0283679183919503
 30
0.0000000000000001
 70
     8
  0
VERTEX
  5
C0D1
  8
PROF
 10
1.1227248330997091
 20
9.0154846249635021
 30
0.0000000000000001
 70
     8
  0
VERTEX
  5
C0D2
  8
PROF
 10
1.0829726247361
 20
9.0034643862466055
 30
0.0000000000000001
 70
     8
  0
VERTEX
  5
C0D3
  8
PROF
 10
1.043018771466222
 20
8.9903994061946833
 30
0.0000000000000001
 70
     8
  0
VERTEX
  5
C0D4
  8
PROF
 10
1.002449648775211
 20
8.9740395195925622
 30
0.0000000000000001
 70
     8
  0
VERTEX
  5
C0D5
  8
PROF
 10
0.9608516321480919
 20
8.9521345612251935
 30
0.0000000000000001
 70
     8
  0
VERTEX
  5
C0D6
  8
PROF
 10
0.9178110970699435
 20
8.9224343658775052
 30
0.0000000000000001
 70
     8
  0
VERTEX
  5
C0D7
  8
PROF
 10
0.8729144190259033
 20
8.8826887683343312
 30
0.0000000000000001
 70
     8
  0
VERTEX
  5
C0D8
  8
PROF
 10
0.8257479735009949
 20
8.8306476033806121
 30
0.0000000000000001
 70
     8
  0
VERTEX
  5
C0D9
  8
PROF
 10
0.7758981359802988
 20
8.764060705801171
 30
0.0000000000000001
 70
     8
  0
VERTEX
  5
C0DA
  8
PROF
 10
1.7292019016096549
 20
9.8629858761255491
 30
0.0000000000000001
 70
    16
  0
VERTEX
  5
C0DB
  8
PROF
 10
1.679373123114088
 20
9.4532143012734213
 30
0.0000000000000001
 70
    16
  0
VERTEX
  5
C0DC
  8
PROF
 10
1.4455611507419801
 20
9.1391837193732481
 30
0.0000000000000001
 70
    16
  0
VERTEX
  5
C0DD
  8
PROF
 10
1.1204637172738201
 20
9.0026267702428413
 30
0.0000000000000001
 70
    16
  0
VERTEX
  5
C0DE
  8
PROF
 10
0.9127765582653638
 20
8.9630202230383702
 30
0.0000000000000001
 70
    16
  0
VERTEX
  5
C0DF
  8
PROF
 10
0.7758981359802988
 20
8.764060705801171
 30
0.0000000000000001
 70
    16
  0
SEQEND
  5
C0E0
  8
PROF
  0
ARC
  5
C0E1
  8
PROF
 10
0.733429816733235
 20
8.4849506952165257
 30
0.0000000000000001
 40
0.2823224329524727
 50
269.73652020831901
 51
81.348449993176914
  0
LINE
  5
C0E2
  8
PROF
  6
CONTINUOUS
 10
-0.0000008570117416
 20
9.1943336957369848
 30
-0.0000000000000001
 11
3.6306271195888362
 21
13.325025853350891
 31
0.0000000000000002
  0
POLYLINE
  5
C0E3
  8
PROF
 66
     1
 10
0.0
 20
0.0
 30
0.0000000000000001
 70
     4
 75
     6
  0
VERTEX
  5
C0E4
  8
PROF
 10
4.519857503186925
 20
12.72227734589444
 30
0.0000000000000001
 70
    16
  0
VERTEX
  5
C0E5
  8
PROF
 10
4.519857503186925
 20
12.72227734589444
 30
0.0000000000000001
 70
     8
  0
VERTEX
  5
C0E6
  8
PROF
 10
4.4467035366886289
 20
12.741128108778071
 30
0.0000000000000001
 70
     8
  0
VERTEX
  5
C0E7
  8
PROF
 10
4.3786645761268801
 20
12.754675269913941
 30
0.0000000000000001
 70
     8
  0
VERTEX
  5
C0E8
  8
PROF
 10
4.3154364111440469
 20
12.76334314092332
 30
0.0000000000000001
 70
     8
  0
VERTEX
  5
C0E9
  8
PROF
 10
4.256714831382566
 20
12.76755603342724
 30
0.0000000000000001
 70
     8
  0
VERTEX
  5
C0EA
  8
PROF
 10
4.2021956264849791
 20
12.76773825904672
 30
0.0000000000000001
 70
     8
  0
VERTEX
  5
C0EB
  8
PROF
 10
4.1515745860935436
 20
12.764314129403139
 30
0.0000000000000001
 70
     8
  0
VERTEX
  5
C0EC
  8
PROF
 10
4.1045474998508649
 20
12.75770795611743
 30
0.0000000000000001
 70
     8
  0
VERTEX
  5
C0ED
  8
PROF
 10
4.0608101573993149
 20
12.748344050810831
 30
0.0000000000000001
 70
     8
  0
VERTEX
  5
C0EE
  8
PROF
 10
4.0200583483813261
 20
12.736646725104491
 30
0.0000000000000001
 70
     8
  0
VERTEX
  5
C0EF
  8
PROF
 10
3.981987862439381
 20
12.72304029061945
 30
0.0000000000000001
 70
     8
  0
VERTEX
  5
C0F0
  8
PROF
 10
3.946294489215858
 20
12.707949058976959
 30
0.0000000000000001
 70
     8
  0
VERTEX
  5
C0F1
  8
PROF
 10
3.912674018353242
 20
12.691797341798059
 30
0.0000000000000001
 70
     8
  0
VERTEX
  5
C0F2
  8
PROF
 10
3.8808638350742499
 20
12.67494295718654
 30
0.0000000000000001
 70
     8
  0
VERTEX
  5
C0F3
  8
PROF
 10
3.850767706922738
 20
12.65747774917668
 30
0.0000000000000001
 70
     8
  0
VERTEX
  5
C0F4
  8
PROF
 10
3.8223309970228438
 20
12.639427068285499
 30
0.0000000000000001
 70
     8
  0
VERTEX
  5
C0F5
  8
PROF
 10
3.795499068498712
 20
12.62081626503004
 30
0.0000000000000001
 70
     8
  0
VERTEX
  5
C0F6
  8
PROF
 10
3.7702172844744819
 20
12.601670689926999
 30
0.0000000000000001
 70
     8
  0
VERTEX
  5
C0F7
  8
PROF
 10
3.7464310080743521
 20
12.58201569349364
 30
0.0000000000000001
 70
     8
  0
VERTEX
  5
C0F8
  8
PROF
 10
3.7240856024224609
 20
12.56187662624666
 30
0.0000000000000001
 70
     8
  0
VERTEX
  5
C0F9
  8
PROF
 10
3.7031264306428961
 20
12.541278838703191
 30
0.0000000000000001
 70
     8
  0
VERTEX
  5
C0FA
  8
PROF
 10
3.683498855859908
 20
12.520247681380051
 30
0.0000000000000001
 70
     8
  0
VERTEX
  5
C0FB
  8
PROF
 10
3.665148241197528
 20
12.49880850479428
 30
0.0000000000000001
 70
     8
  0
VERTEX
  5
C0FC
  8
PROF
 10
3.648019949779949
 20
12.47698665946279
 30
0.0000000000000001
 70
     8
  0
VERTEX
  5
C0FD
  8
PROF
 10
3.6320593447313159
 20
12.45480749590263
 30
0.0000000000000001
 70
     8
  0
VERTEX
  5
C0FE
  8
PROF
 10
3.617189584886658
 20
12.43223790353807
 30
0.0000000000000001
 70
     8
  0
VERTEX
  5
C0FF
  8
PROF
 10
3.6032450119242849
 20
12.40901092742285
 30
0.0000000000000001
 70
     8
  0
VERTEX
  5
C100
  8
PROF
 10
3.590037763233453
 20
12.38480115151844
 30
0.0000000000000001
 70
     8
  0
VERTEX
  5
C101
  8
PROF
 10
3.5773799762033032
 20
12.35928315978594
 30
0.0000000000000001
 70
     8
  0
VERTEX
  5
C102
  8
PROF
 10
3.5650837882230899
 20
12.33213153618658
 30
0.0000000000000001
 70
     8
  0
VERTEX
  5
C103
  8
PROF
 10
3.552961336681959
 20
12.303020864681571
 30
0.0000000000000001
 70
     8
  0
VERTEX
  5
C104
  8
PROF
 10
3.540824758969165
 20
12.271625729232371
 30
0.0000000000000001
 70
     8
  0
VERTEX
  5
C105
  8
PROF
 10
3.528486192473848
 20
12.23762071379997
 30
0.0000000000000001
 70
     8
  0
VERTEX
  5
C106
  8
PROF
 10
3.5157577745852659
 20
12.200680402345711
 30
0.0000000000000001
 70
     8
  0
VERTEX
  5
C107
  8
PROF
 10
3.502451642692618
 20
12.16047937883093
 30
0.0000000000000001
 70
     8
  0
VERTEX
  5
C108
  8
PROF
 10
3.4883799341851041
 20
12.116692227216619
 30
0.0000000000000001
 70
     8
  0
VERTEX
  5
C109
  8
PROF
 10
3.4733547864519201
 20
12.06899353146423
 30
0.0000000000000001
 70
     8
  0
VERTEX
  5
C10A
  8
PROF
 10
3.45723654619428
 20
12.0172095445447
 30
0.0000000000000001
 70
     8
  0
VERTEX
  5
C10B
  8
PROF
 10
3.440078397361388
 20
11.961773195467799
 30
0.0000000000000001
 70
     8
  0
VERTEX
  5
C10C
  8
PROF
 10
3.4219817332145781
 20
11.90326908225302
 30
0.0000000000000001
 70
     8
  0
VERTEX
  5
C10D
  8
PROF
 10
3.4030479470150099
 20
11.842281802919951
 30
0.0000000000000001
 70
     8
  0
VERTEX
  5
C10E
  8
PROF
 10
3.383378432024017
 20
11.779395955487979
 30
0.0000000000000001
 70
     8
  0
VERTEX
  5
C10F
  8
PROF
 10
3.36307458150287
 20
11.7151961379768
 30
0.0000000000000001
 70
     8
  0
VERTEX
  5
C110
  8
PROF
 10
3.342237788712735
 20
11.650266948405831
 30
0.0000000000000001
 70
     8
  0
VERTEX
  5
C111
  8
PROF
 10
3.3209694469149991
 20
11.58519298479461
 30
0.0000000000000001
 70
     8
  0
VERTEX
  5
C112
  8
PROF
 10
3.299370949370767
 20
11.52055884516254
 30
0.0000000000000001
 70
     8
  0
VERTEX
  5
C113
  8
PROF
 10
3.277543689341428
 20
11.456949127529461
 30
0.0000000000000001
 70
     8
  0
VERTEX
  5
C114
  8
PROF
 10
3.2555890600881399
 20
11.3949484299145
 30
0.0000000000000001
 70
     8
  0
VERTEX
  5
C115
  8
PROF
 10
3.2336084548721811
 20
11.335141350337491
 30
0.0000000000000001
 70
     8
  0
VERTEX
  5
C116
  8
PROF
 10
3.2116715641212181
 20
11.277995447977769
 30
0.0000000000000001
 70
     8
  0
VERTEX
  5
C117
  8
PROF
 10
3.1897212669278461
 20
11.22351012665467
 30
0.0000000000000001
 70
     8
  0
VERTEX
  5
C118
  8
PROF
 10
3.1676687395512881
 20
11.17156775134765
 30
0.0000000000000001
 70
     8
  0
VERTEX
  5
C119
  8
PROF
 10
3.1454251582505321
 20
11.12205068703588
 30
0.0000000000000001
 70
     8
  0
VERTEX
  5
C11A
  8
PROF
 10
3.122901699284625
 20
11.07484129869874
 30
0.0000000000000001
 70
     8
  0
VERTEX
  5
C11B
  8
PROF
 10
3.1000095389127278
 20
11.02982195131551
 30
0.0000000000000001
 70
     8
  0
VERTEX
  5
C11C
  8
PROF
 10
3.07665985339389
 20
10.986875009865679
 30
0.0000000000000001
 70
     8
  0
VERTEX
  5
C11D
  8
PROF
 10
3.0527638189871591
 20
10.9458828393283
 30
0.0000000000000001
 70
     8
  0
VERTEX
  5
C11E
  8
PROF
 10
3.0282326119516361
 20
10.90672780468298
 30
0.0000000000000001
 70
     8
  0
VERTEX
  5
C11F
  8
PROF
 10
3.0029774085463701
 20
10.869292270908771
 30
0.0000000000000001
 70
     8
  0
VERTEX
  5
C120
  8
PROF
 10
2.9769093850304089
 20
10.833458602985161
 30
0.0000000000000001
 70
     8
  0
VERTEX
  5
C121
  8
PROF
 10
2.9499397176628559
 20
10.799109165891419
 30
0.0000000000000001
 70
     8
  0
VERTEX
  5
C122
  8
PROF
 10
2.922000609840437
 20
10.76614363969508
 30
0.0000000000000001
 70
     8
  0
VERTEX
  5
C123
  8
PROF
 10
2.8931083735102998
 20
10.7345309648158
 30
0.0000000000000001
 70
     8
  0
VERTEX
  5
C124
  8
PROF
 10
2.8633003477572729
 20
10.70425739676193
 30
0.0000000000000001
 70
     8
  0
VERTEX
  5
C125
  8
PROF
 10
2.8326138716660689
 20
10.67530919104115
 30
0.0000000000000001
 70
     8
  0
VERTEX
  5
C126
  8
PROF
 10
2.801086284321626
 20
10.647672603161711
 30
0.0000000000000001
 70
     8
  0
VERTEX
  5
C127
  8
PROF
 10
2.7687549248087162
 20
10.62133388863162
 30
0.0000000000000001
 70
     8
  0
VERTEX
  5
C128
  8
PROF
 10
2.7356571322120531
 20
10.5962793029588
 30
0.0000000000000001
 70
     8
  0
VERTEX
  5
C129
  8
PROF
 10
2.7018302456165202
 20
10.572495101651381
 30
0.0000000000000001
 70
     8
  0
VERTEX
  5
C12A
  8
PROF
 10
2.6673116041068838
 20
10.54996754021726
 30
0.0000000000000001
 70
     8
  0
VERTEX
  5
C12B
  8
PROF
 10
2.6321385467680321
 20
10.528682874164581
 30
0.0000000000000001
 70
     8
  0
VERTEX
  5
C12C
  8
PROF
 10
2.5963484126846179
 20
10.508627359001251
 30
0.0000000000000001
 70
     8
  0
VERTEX
  5
C12D
  8
PROF
 10
2.5599785409415841
 20
10.489787250235279
 30
0.0000000000000001
 70
     8
  0
VERTEX
  5
C12E
  8
PROF
 10
2.522998630314361
 20
10.472162234281081
 30
0.0000000000000001
 70
     8
  0
VERTEX
  5
C12F
  8
PROF
 10
2.4851078183409072
 20
10.455805721177621
 30
0.0000000000000001
 70
     8
  0
VERTEX
  5
C130
  8
PROF
 10
2.4459376022498982
 20
10.44078455187036
 30
0.0000000000000001
 70
     8
  0
VERTEX
  5
C131
  8
PROF
 10
2.4051194792701249
 20
10.42716556730465
 30
0.0000000000000001
 70
     8
  0
VERTEX
  5
C132
  8
PROF
 10
2.3622849466301541
 20
10.415015608425851
 30
0.0000000000000001
 70
     8
  0
VERTEX
  5
C133
  8
PROF
 10
2.317065501558714
 20
10.40440151617929
 30
0.0000000000000001
 70
     8
  0
VERTEX
  5
C134
  8
PROF
 10
2.2690926412844301
 20
10.395390131510339
 30
0.0000000000000001
 70
     8
  0
VERTEX
  5
C135
  8
PROF
 10
2.2179978630360879
 20
10.388048295364451
 30
0.0000000000000001
 70
     8
  0
VERTEX
  5
C136
  8
PROF
 10
2.1634126640422551
 20
10.38244284868688
 30
0.0000000000000001
 70
     8
  0
VERTEX
  5
C137
  8
PROF
 10
2.1049685415316031
 20
10.37864063242295
 30
0.0000000000000001
 70
     8
  0
VERTEX
  5
C138
  8
PROF
 10
2.0422969927328709
 20
10.37670848751816
 30
0.0000000000000001
 70
     8
  0
VERTEX
  5
C139
  8
PROF
 10
1.9750295148747341
 20
10.37671325491794
 30
0.0000000000000001
 70
     8
  0
VERTEX
  5
C13A
  8
PROF
 10
4.2166060115107484
 20
12.80885334975255
 30
0.0000000000000001
 70
    16
  0
VERTEX
  5
C13B
  8
PROF
 10
3.8702254102732909
 20
12.707065515763929
 30
0.0000000000000001
 70
    16
  0
VERTEX
  5
C13C
  8
PROF
 10
3.605346156896871
 20
12.46277472098552
 30
0.0000000000000001
 70
    16
  0
VERTEX
  5
C13D
  8
PROF
 10
3.500746030527238
 20
12.170680575709749
 30
0.0000000000000001
 70
    16
  0
VERTEX
  5
C13E
  8
PROF
 10
3.231798439705698
 20
11.26846416496107
 30
0.0000000000000001
 70
    16
  0
VERTEX
  5
C13F
  8
PROF
 10
2.9737109398832882
 20
10.76631086647069
 30
0.0000000000000001
 70
    16
  0
VERTEX
  5
C140
  8
PROF
 10
2.5729961067384002
 20
10.460947364504699
 30
0.0000000000000001
 70
    16
  0
VERTEX
  5
C141
  8
PROF
 10
2.2537826214546031
 20
10.372731239449759
 30
0.0000000000000001
 70
    16
  0
VERTEX
  5
C142
  8
PROF
 10
1.9750295148747341
 20
10.37671325491794
 30
0.0000000000000001
 70
    16
  0
SEQEND
  5
C143
  8
PROF
  0
LINE
  5
C144
  8
PROF
 10
4.9012016798694162
 20
12.88585218805485
 30
0.0000000000000003
 11
4.519857503186925
 21
12.88585218805485
 31
0.0000000000000003
  0
LINE
  5
C145
  8
PROF
 10
0.7321315362267457
 20
8.2026312473991556
 30
0.0000000000000006
 11
0.7321315362267457
 21
8.0511853963434952
 31
0.0000000000000006
  0
ARC
  5
C146
  8
PROF
 10
0.7977322214551919
 20
7.577333933202679
 30
0.0000000000000006
 40
0.4783708383912013
 50
97.882010168942557
 51
186.31119505698641
  0
LINE
  5
C147
  8
FRAME_050
 10
7.8016377197432121
 20
17.99371054969447
 30
0.0
 11
7.8016377197432121
 21
0.0000000000002274
 31
0.0
  0
ENDBLK
  5
C149
  8
0
  0
BLOCK
  8
0
  2
*U7
 70
     1
 10
0.0
 20
0.0
 30
0.0
  3
*U7
  1

  0
TEXT
  5
C8C3
  8
0
 10
3.5177832928899071
 20
10.38601584255777
 30
0.0
 40
0.125
  1
Crown Moulding
  0
TEXT
  5
C8C4
  8
0
 10
3.5223876585106431
 20
10.17717091304435
 30
0.0
 40
0.125
  1
TL-AB509
  0
TEXT
  5
C8C5
  8
0
 10
3.5074661032582561
 20
9.9667059289606801
 30
0.0
 40
0.125
  1
1-5/16" x 7-9/16"
  0
TEXT
  5
C8C6
  8
0
 10
3.519403347460166
 20
9.7562409448770051
 30
0.0
 40
0.125
  1
800.66.TAGUE
  0
ENDBLK
  5
C8C8
  8
0
  0
BLOCK
  8
0
  2
*U8
 70
     1
 10
0.0
 20
0.0
 30
0.0
  3
*U8
  1

  0
TEXT
  5
C8CA
  8
0
 10
5.3066868277875692
 20
1.767659498411035
 30
0.0
 40
0.125
  1
Back Band
  0
TEXT
  5
C8CB
  8
0
 10
5.3153839628489603
 20
1.55881456889762
 30
0.0
 40
0.125
  1
TL-1
  0
TEXT
  5
C8CC
  8
0
 10
5.3004624075965721
 20
1.3483495848139451
 30
0.0
 40
0.125
  1
1-3/8" x 1-9/16"
  0
TEXT
  5
C8CD
  8
0
 10
5.3123996517984811
 20
1.1378846007302701
 30
0.0
 40
0.125
  1
800.66.TAGUE
  0
ENDBLK
  5
C8CF
  8
0
  0
BLOCK
  8
0
  2
*U9
 70
     1
 10
0.0
 20
0.0
 30
0.0
  3
*U9
  1

  0
TEXT
  5
C8D1
  8
0
 10
-385.7580743253551
 20
838.2627455404056
 30
0.0
 40
0.125
  1
Back Band
  0
TEXT
  5
C8D2
  8
0
 10
-385.74937719029373
 20
838.05390061089247
 30
0.0
 40
0.125
  1
TL-1
  0
TEXT
  5
C8D3
  8
0
 10
-385.76429874554611
 20
837.84343562680851
 30
0.0
 40
0.125
  1
1-3/8" x 1-9/16"
  0
TEXT
  5
C8D4
  8
0
 10
-385.75236150134418
 20
837.63297064272513
 30
0.0
 40
0.125
  1
800.66.TAGUE
  0
ENDBLK
  5
C8D6
  8
0
  0
BLOCK
  8
0
  2
A$C34D373A9
 70
     0
 10
0.0
 20
0.0
 30
0.0
  3
A$C34D373A9
  1

  0
INSERT
  5
D39C
  8
0
  2
*U67
 10
0.0
 20
0.0
 30
0.0
  0
LINE
  5
D39D
  8
0
 10
1.4999991446591701
 20
7.1602295468413777
 30
0.0
 11
1.4999991446591701
 21
6.7227295468413777
 31
0.0
  0
LINE
  5
D39E
  8
0
 10
-0.0000008553408293
 20
6.8789795468413777
 30
0.0
 11
-0.0000008553408293
 21
7.7539795468413777
 31
0.0
  0
LINE
  5
D39F
  8
0
 10
1.4999991446591701
 20
6.7227295468413777
 30
0.0
 11
3.5885796249544342
 21
6.7227295468413777
 31
0.0
  0
LINE
  5
D3A0
  8
0
 10
-0.0000008553408293
 20
6.8789795468413777
 30
0.0
 11
1.4999991446591701
 21
7.1602295468413777
 31
0.0
  0
LINE
  5
D3A1
  8
0
 10
-0.0000008553408293
 20
7.7539795468413777
 30
0.0
 11
3.8746939987630631
 21
7.7539795468413777
 31
0.0
  0
POLYLINE
  8
0
  5
E3DD
  66
     1
 10
0.000000
 20
0.000000
 30
0.000000
  70
     8
  0
VERTEX
  8
0
  5
E3DE
 10
3.87469
 20
7.75398
 30
0.000000
  70
    32
  0
VERTEX
  8
0
  5
E3DF
 10
3.87928
 20
7.75298
 30
0.000000
  70
    32
  0
VERTEX
  8
0
  5
E3E0
 10
3.88385
 20
7.75188
 30
0.000000
  70
    32
  0
VERTEX
  8
0
  5
E3E1
 10
3.88839
 20
7.75068
 30
0.000000
  70
    32
  0
VERTEX
  8
0
  5
E3E2
 10
3.89289
 20
7.74938
 30
0.000000
  70
    32
  0
VERTEX
  8
0
  5
E3E3
 10
3.89738
 20
7.74799
 30
0.000000
  70
    32
  0
VERTEX
  8
0
  5
E3E4
 10
3.90183
 20
7.74650
 30
0.000000
  70
    32
  0
VERTEX
  8
0
  5
E3E5
 10
3.90626
 20
7.74492
 30
0.000000
  70
    32
  0
VERTEX
  8
0
  5
E3E6
 10
3.91065
 20
7.74325
 30
0.000000
  70
    32
  0
VERTEX
  8
0
  5
E3E7
 10
3.91502
 20
7.74148
 30
0.000000
  70
    32
  0
VERTEX
  8
0
  5
E3E8
 10
3.91935
 20
7.73963
 30
0.000000
  70
    32
  0
VERTEX
  8
0
  5
E3E9
 10
3.92366
 20
7.73770
 30
0.000000
  70
    32
  0
VERTEX
  8
0
  5
E3EA
 10
3.92793
 20
7.73568
 30
0.000000
  70
    32
  0
VERTEX
  8
0
  5
E3EB
 10
3.93217
 20
7.73358
 30
0.000000
  70
    32
  0
VERTEX
  8
0
  5
E3EC
 10
3.93638
 20
7.73140
 30
0.000000
  70
    32
  0
VERTEX
  8
0
  5
E3ED
 10
3.94055
 20
7.72913
 30
0.000000
  70
    32
  0
VERTEX
  8
0
  5
E3EE
 10
3.94470
 20
7.72680
 30
0.000000
  70
    32
  0
VERTEX
  8
0
  5
E3EF
 10
3.94880
 20
7.72438
 30
0.000000
  70
    32
  0
VERTEX
  8
0
  5
E3F0
 10
3.95288
 20
7.72190
 30
0.000000
  70
    32
  0
VERTEX
  8
0
  5
E3F1
 10
3.95692
 20
7.71934
 30
0.000000
  70
    32
  0
VERTEX
  8
0
  5
E3F2
 10
3.96092
 20
7.71671
 30
0.000000
  70
    32
  0
VERTEX
  8
0
  5
E3F3
 10
3.96489
 20
7.71402
 30
0.000000
  70
    32
  0
VERTEX
  8
0
  5
E3F4
 10
3.96882
 20
7.71125
 30
0.000000
  70
    32
  0
VERTEX
  8
0
  5
E3F5
 10
3.97271
 20
7.70843
 30
0.000000
  70
    32
  0
VERTEX
  8
0
  5
E3F6
 10
3.97657
 20
7.70554
 30
0.000000
  70
    32
  0
VERTEX
  8
0
  5
E3F7
 10
3.98038
 20
7.70259
 30
0.000000
  70
    32
  0
VERTEX
  8
0
  5
E3F8
 10
3.98416
 20
7.69958
 30
0.000000
  70
    32
  0
VERTEX
  8
0
  5
E3F9
 10
3.98790
 20
7.69651
 30
0.000000
  70
    32
  0
VERTEX
  8
0
  5
E3FA
 10
3.99161
 20
7.69339
 30
0.000000
  70
    32
  0
VERTEX
  8
0
  5
E3FB
 10
3.99527
 20
7.69021
 30
0.000000
  70
    32
  0
VERTEX
  8
0
  5
E3FC
 10
3.99889
 20
7.68698
 30
0.000000
  70
    32
  0
VERTEX
  8
0
  5
E3FD
 10
4.00247
 20
7.68370
 30
0.000000
  70
    32
  0
VERTEX
  8
0
  5
E3FE
 10
4.00600
 20
7.68038
 30
0.000000
  70
    32
  0
VERTEX
  8
0
  5
E3FF
 10
4.00950
 20
7.67700
 30
0.000000
  70
    32
  0
VERTEX
  8
0
  5
E400
 10
4.01295
 20
7.67358
 30
0.000000
  70
    32
  0
VERTEX
  8
0
  5
E401
 10
4.01636
 20
7.67012
 30
0.000000
  70
    32
  0
VERTEX
  8
0
  5
E402
 10
4.01973
 20
7.66661
 30
0.000000
  70
    32
  0
VERTEX
  8
0
  5
E403
 10
4.02305
 20
7.66307
 30
0.000000
  70
    32
  0
VERTEX
  8
0
  5
E404
 10
4.02633
 20
7.65949
 30
0.000000
  70
    32
  0
VERTEX
  8
0
  5
E405
 10
4.02956
 20
7.65587
 30
0.000000
  70
    32
  0
VERTEX
  8
0
  5
E406
 10
4.03274
 20
7.65222
 30
0.000000
  70
    32
  0
VERTEX
  8
0
  5
E407
 10
4.03588
 20
7.64853
 30
0.000000
  70
    32
  0
VERTEX
  8
0
  5
E408
 10
4.03898
 20
7.64481
 30
0.000000
  70
    32
  0
VERTEX
  8
0
  5
E409
 10
4.04202
 20
7.64106
 30
0.000000
  70
    32
  0
VERTEX
  8
0
  5
E40A
 10
4.04502
 20
7.63728
 30
0.000000
  70
    32
  0
VERTEX
  8
0
  5
E40B
 10
4.04797
 20
7.63347
 30
0.000000
  70
    32
  0
VERTEX
  8
0
  5
E40C
 10
4.05087
 20
7.62963
 30
0.000000
  70
    32
  0
VERTEX
  8
0
  5
E40D
 10
4.05373
 20
7.62575
 30
0.000000
  70
    32
  0
VERTEX
  8
0
  5
E40E
 10
4.05653
 20
7.62185
 30
0.000000
  70
    32
  0
VERTEX
  8
0
  5
E40F
 10
4.05928
 20
7.61792
 30
0.000000
  70
    32
  0
VERTEX
  8
0
  5
E410
 10
4.06199
 20
7.61396
 30
0.000000
  70
    32
  0
VERTEX
  8
0
  5
E411
 10
4.06464
 20
7.60997
 30
0.000000
  70
    32
  0
VERTEX
  8
0
  5
E412
 10
4.06724
 20
7.60595
 30
0.000000
  70
    32
  0
VERTEX
  8
0
  5
E413
 10
4.06979
 20
7.60190
 30
0.000000
  70
    32
  0
VERTEX
  8
0
  5
E414
 10
4.07228
 20
7.59783
 30
0.000000
  70
    32
  0
VERTEX
  8
0
  5
E415
 10
4.07473
 20
7.59373
 30
0.000000
  70
    32
  0
VERTEX
  8
0
  5
E416
 10
4.07712
 20
7.58960
 30
0.000000
  70
    32
  0
VERTEX
  8
0
  5
E417
 10
4.07946
 20
7.58545
 30
0.000000
  70
    32
  0
VERTEX
  8
0
  5
E418
 10
4.08174
 20
7.58128
 30
0.000000
  70
    32
  0
VERTEX
  8
0
  5
E419
 10
4.08397
 20
7.57707
 30
0.000000
  70
    32
  0
VERTEX
  8
0
  5
E41A
 10
4.08614
 20
7.57285
 30
0.000000
  70
    32
  0
VERTEX
  8
0
  5
E41B
 10
4.08826
 20
7.56859
 30
0.000000
  70
    32
  0
VERTEX
  8
0
  5
E41C
 10
4.09032
 20
7.56432
 30
0.000000
  70
    32
  0
VERTEX
  8
0
  5
E41D
 10
4.09233
 20
7.56002
 30
0.000000
  70
    32
  0
VERTEX
  8
0
  5
E41E
 10
4.09428
 20
7.55570
 30
0.000000
  70
    32
  0
VERTEX
  8
0
  5
E41F
 10
4.09617
 20
7.55135
 30
0.000000
  70
    32
  0
VERTEX
  8
0
  5
E420
 10
4.09800
 20
7.54699
 30
0.000000
  70
    32
  0
VERTEX
  8
0
  5
E421
 10
4.09978
 20
7.54260
 30
0.000000
  70
    32
  0
VERTEX
  8
0
  5
E422
 10
4.10149
 20
7.53819
 30
0.000000
  70
    32
  0
VERTEX
  8
0
  5
E423
 10
4.10315
 20
7.53376
 30
0.000000
  70
    32
  0
VERTEX
  8
0
  5
E424
 10
4.10475
 20
7.52931
 30
0.000000
  70
    32
  0
VERTEX
  8
0
  5
E425
 10
4.10628
 20
7.52484
 30
0.000000
  70
    32
  0
VERTEX
  8
0
  5
E426
 10
4.10776
 20
7.52035
 30
0.000000
  70
    32
  0
VERTEX
  8
0
  5
E427
 10
4.10918
 20
7.51584
 30
0.000000
  70
    32
  0
VERTEX
  8
0
  5
E428
 10
4.11053
 20
7.51131
 30
0.000000
  70
    32
  0
VERTEX
  8
0
  5
E429
 10
4.11182
 20
7.50676
 30
0.000000
  70
    32
  0
VERTEX
  8
0
  5
E42A
 10
4.11305
 20
7.50220
 30
0.000000
  70
    32
  0
VERTEX
  8
0
  5
E42B
 10
4.11422
 20
7.49761
 30
0.000000
  70
    32
  0
VERTEX
  8
0
  5
E42C
 10
4.11532
 20
7.49301
 30
0.000000
  70
    32
  0
VERTEX
  8
0
  5
E42D
 10
4.11636
 20
7.48840
 30
0.000000
  70
    32
  0
VERTEX
  8
0
  5
E42E
 10
4.11734
 20
7.48377
 30
0.000000
  70
    32
  0
VERTEX
  8
0
  5
E42F
 10
4.11825
 20
7.47912
 30
0.000000
  70
    32
  0
VERTEX
  8
0
  5
E430
 10
4.11909
 20
7.47445
 30
0.000000
  70
    32
  0
VERTEX
  8
0
  5
E431
 10
4.11987
 20
7.46977
 30
0.000000
  70
    32
  0
VERTEX
  8
0
  5
E432
 10
4.12059
 20
7.46508
 30
0.000000
  70
    32
  0
VERTEX
  8
0
  5
E433
 10
4.12123
 20
7.46037
 30
0.000000
  70
    32
  0
VERTEX
  8
0
  5
E434
 10
4.12181
 20
7.45565
 30
0.000000
  70
    32
  0
VERTEX
  8
0
  5
E435
 10
4.12233
 20
7.45092
 30
0.000000
  70
    32
  0
VERTEX
  8
0
  5
E436
 10
4.12278
 20
7.44618
 30
0.000000
  70
    32
  0
VERTEX
  8
0
  5
E437
 10
4.12316
 20
7.44142
 30
0.000000
  70
    32
  0
VERTEX
  8
0
  5
E438
 10
4.12348
 20
7.43666
 30
0.000000
  70
    32
  0
VERTEX
  8
0
  5
E439
 10
4.12374
 20
7.43189
 30
0.000000
  70
    32
  0
VERTEX
  8
0
  5
E43A
 10
4.12393
 20
7.42711
 30
0.000000
  70
    32
  0
VERTEX
  8
0
  5
E43B
 10
4.12406
 20
7.42232
 30
0.000000
  70
    32
  0
VERTEX
  8
0
  5
E43C
 10
4.12412
 20
7.41753
 30
0.000000
  70
    32
  0
VERTEX
  8
0
  5
E43D
 10
4.12412
 20
7.41273
 30
0.000000
  70
    32
  0
VERTEX
  8
0
  5
E43E
 10
4.12406
 20
7.40793
 30
0.000000
  70
    32
  0
VERTEX
  8
0
  5
E43F
 10
4.12394
 20
7.40313
 30
0.000000
  70
    32
  0
VERTEX
  8
0
  5
E440
 10
4.12375
 20
7.39832
 30
0.000000
  70
    32
  0
VERTEX
  8
0
  5
E441
 10
4.12350
 20
7.39352
 30
0.000000
  70
    32
  0
VERTEX
  8
0
  5
E442
 10
4.12319
 20
7.38871
 30
0.000000
  70
    32
  0
VERTEX
  8
0
  5
E443
 10
4.12282
 20
7.38390
 30
0.000000
  70
    32
  0
VERTEX
  8
0
  5
E444
 10
4.12238
 20
7.37910
 30
0.000000
  70
    32
  0
VERTEX
  8
0
  5
E445
 10
4.12189
 20
7.37430
 30
0.000000
  70
    32
  0
VERTEX
  8
0
  5
E446
 10
4.12134
 20
7.36950
 30
0.000000
  70
    32
  0
VERTEX
  8
0
  5
E447
 10
4.12072
 20
7.36470
 30
0.000000
  70
    32
  0
VERTEX
  8
0
  5
E448
 10
4.12005
 20
7.35991
 30
0.000000
  70
    32
  0
VERTEX
  8
0
  5
E449
 10
4.11932
 20
7.35513
 30
0.000000
  70
    32
  0
VERTEX
  8
0
  5
E44A
 10
4.11853
 20
7.35035
 30
0.000000
  70
    32
  0
VERTEX
  8
0
  5
E44B
 10
4.11767
 20
7.34559
 30
0.000000
  70
    32
  0
VERTEX
  8
0
  5
E44C
 10
4.11677
 20
7.34083
 30
0.000000
  70
    32
  0
VERTEX
  8
0
  5
E44D
 10
4.11580
 20
7.33608
 30
0.000000
  70
    32
  0
VERTEX
  8
0
  5
E44E
 10
4.11477
 20
7.33134
 30
0.000000
  70
    32
  0
VERTEX
  8
0
  5
E44F
 10
4.11369
 20
7.32661
 30
0.000000
  70
    32
  0
VERTEX
  8
0
  5
E450
 10
4.11255
 20
7.32189
 30
0.000000
  70
    32
  0
VERTEX
  8
0
  5
E451
 10
4.11136
 20
7.31719
 30
0.000000
  70
    32
  0
VERTEX
  8
0
  5
E452
 10
4.11010
 20
7.31251
 30
0.000000
  70
    32
  0
VERTEX
  8
0
  5
E453
 10
4.10879
 20
7.30783
 30
0.000000
  70
    32
  0
VERTEX
  8
0
  5
E454
 10
4.10743
 20
7.30318
 30
0.000000
  70
    32
  0
VERTEX
  8
0
  5
E455
 10
4.10601
 20
7.29854
 30
0.000000
  70
    32
  0
VERTEX
  8
0
  5
E456
 10
4.10453
 20
7.29392
 30
0.000000
  70
    32
  0
VERTEX
  8
0
  5
E457
 10
4.10300
 20
7.28932
 30
0.000000
  70
    32
  0
VERTEX
  8
0
  5
E458
 10
4.10142
 20
7.28474
 30
0.000000
  70
    32
  0
VERTEX
  8
0
  5
E459
 10
4.09978
 20
7.28017
 30
0.000000
  70
    32
  0
VERTEX
  8
0
  5
E45A
 10
4.09808
 20
7.27563
 30
0.000000
  70
    32
  0
VERTEX
  8
0
  5
E45B
 10
4.09634
 20
7.27112
 30
0.000000
  70
    32
  0
VERTEX
  8
0
  5
E45C
 10
4.09454
 20
7.26662
 30
0.000000
  70
    32
  0
VERTEX
  8
0
  5
E45D
 10
4.09268
 20
7.26216
 30
0.000000
  70
    32
  0
VERTEX
  8
0
  5
E45E
 10
4.09078
 20
7.25771
 30
0.000000
  70
    32
  0
VERTEX
  8
0
  5
E45F
 10
4.08882
 20
7.25329
 30
0.000000
  70
    32
  0
VERTEX
  8
0
  5
E460
 10
4.08681
 20
7.24890
 30
0.000000
  70
    32
  0
VERTEX
  8
0
  5
E461
 10
4.08474
 20
7.24454
 30
0.000000
  70
    32
  0
VERTEX
  8
0
  5
E462
 10
4.08263
 20
7.24021
 30
0.000000
  70
    32
  0
VERTEX
  8
0
  5
E463
 10
4.08047
 20
7.23591
 30
0.000000
  70
    32
  0
VERTEX
  8
0
  5
E464
 10
4.07825
 20
7.23163
 30
0.000000
  70
    32
  0
VERTEX
  8
0
  5
E465
 10
4.07598
 20
7.22739
 30
0.000000
  70
    32
  0
VERTEX
  8
0
  5
E466
 10
4.07367
 20
7.22318
 30
0.000000
  70
    32
  0
VERTEX
  8
0
  5
E467
 10
4.07130
 20
7.21901
 30
0.000000
  70
    32
  0
VERTEX
  8
0
  5
E468
 10
4.06889
 20
7.21487
 30
0.000000
  70
    32
  0
VERTEX
  8
0
  5
E469
 10
4.06642
 20
7.21076
 30
0.000000
  70
    32
  0
VERTEX
  8
0
  5
E46A
 10
4.06391
 20
7.20670
 30
0.000000
  70
    32
  0
VERTEX
  8
0
  5
E46B
 10
4.06135
 20
7.20266
 30
0.000000
  70
    32
  0
VERTEX
  8
0
  5
E46C
 10
4.05874
 20
7.19867
 30
0.000000
  70
    32
  0
VERTEX
  8
0
  5
E46D
 10
4.05608
 20
7.19472
 30
0.000000
  70
    32
  0
VERTEX
  8
0
  5
E46E
 10
4.05337
 20
7.19080
 30
0.000000
  70
    32
  0
VERTEX
  8
0
  5
E46F
 10
4.05062
 20
7.18693
 30
0.000000
  70
    32
  0
VERTEX
  8
0
  5
E470
 10
4.04782
 20
7.18310
 30
0.000000
  70
    32
  0
VERTEX
  8
0
  5
E471
 10
4.04497
 20
7.17931
 30
0.000000
  70
    32
  0
VERTEX
  8
0
  5
E472
 10
4.04208
 20
7.17556
 30
0.000000
  70
    32
  0
VERTEX
  8
0
  5
E473
 10
4.03914
 20
7.17185
 30
0.000000
  70
    32
  0
VERTEX
  8
0
  5
E474
 10
4.03616
 20
7.16818
 30
0.000000
  70
    32
  0
VERTEX
  8
0
  5
E475
 10
4.03314
 20
7.16455
 30
0.000000
  70
    32
  0
VERTEX
  8
0
  5
E476
 10
4.03008
 20
7.16096
 30
0.000000
  70
    32
  0
VERTEX
  8
0
  5
E477
 10
4.02697
 20
7.15741
 30
0.000000
  70
    32
  0
VERTEX
  8
0
  5
E478
 10
4.02382
 20
7.15390
 30
0.000000
  70
    32
  0
VERTEX
  8
0
  5
E479
 10
4.02063
 20
7.15043
 30
0.000000
  70
    32
  0
VERTEX
  8
0
  5
E47A
 10
4.01741
 20
7.14699
 30
0.000000
  70
    32
  0
VERTEX
  8
0
  5
E47B
 10
4.01414
 20
7.14359
 30
0.000000
  70
    32
  0
VERTEX
  8
0
  5
E47C
 10
4.01084
 20
7.14022
 30
0.000000
  70
    32
  0
VERTEX
  8
0
  5
E47D
 10
4.00750
 20
7.13690
 30
0.000000
  70
    32
  0
VERTEX
  8
0
  5
E47E
 10
4.00413
 20
7.13360
 30
0.000000
  70
    32
  0
VERTEX
  8
0
  5
E47F
 10
4.00072
 20
7.13035
 30
0.000000
  70
    32
  0
VERTEX
  8
0
  5
E480
 10
3.99728
 20
7.12712
 30
0.000000
  70
    32
  0
VERTEX
  8
0
  5
E481
 10
3.99380
 20
7.12394
 30
0.000000
  70
    32
  0
VERTEX
  8
0
  5
E482
 10
3.99029
 20
7.12078
 30
0.000000
  70
    32
  0
VERTEX
  8
0
  5
E483
 10
3.98675
 20
7.11766
 30
0.000000
  70
    32
  0
VERTEX
  8
0
  5
E484
 10
3.98318
 20
7.11457
 30
0.000000
  70
    32
  0
VERTEX
  8
0
  5
E485
 10
3.97957
 20
7.11152
 30
0.000000
  70
    32
  0
VERTEX
  8
0
  5
E486
 10
3.97594
 20
7.10849
 30
0.000000
  70
    32
  0
VERTEX
  8
0
  5
E487
 10
3.97228
 20
7.10550
 30
0.000000
  70
    32
  0
VERTEX
  8
0
  5
E488
 10
3.96859
 20
7.10254
 30
0.000000
  70
    32
  0
VERTEX
  8
0
  5
E489
 10
3.96488
 20
7.09961
 30
0.000000
  70
    32
  0
VERTEX
  8
0
  5
E48A
 10
3.96114
 20
7.09670
 30
0.000000
  70
    32
  0
VERTEX
  8
0
  5
E48B
 10
3.95737
 20
7.09383
 30
0.000000
  70
    32
  0
VERTEX
  8
0
  5
E48C
 10
3.95358
 20
7.09099
 30
0.000000
  70
    32
  0
VERTEX
  8
0
  5
E48D
 10
3.94976
 20
7.08818
 30
0.000000
  70
    32
  0
VERTEX
  8
0
  5
E48E
 10
3.94592
 20
7.08539
 30
0.000000
  70
    32
  0
VERTEX
  8
0
  5
E48F
 10
3.94206
 20
7.08263
 30
0.000000
  70
    32
  0
VERTEX
  8
0
  5
E490
 10
3.93818
 20
7.07990
 30
0.000000
  70
    32
  0
VERTEX
  8
0
  5
E491
 10
3.93428
 20
7.07720
 30
0.000000
  70
    32
  0
VERTEX
  8
0
  5
E492
 10
3.93036
 20
7.07452
 30
0.000000
  70
    32
  0
VERTEX
  8
0
  5
E493
 10
3.92641
 20
7.07187
 30
0.000000
  70
    32
  0
VERTEX
  8
0
  5
E494
 10
3.92245
 20
7.06924
 30
0.000000
  70
    32
  0
VERTEX
  8
0
  5
E495
 10
3.91848
 20
7.06664
 30
0.000000
  70
    32
  0
VERTEX
  8
0
  5
E496
 10
3.91448
 20
7.06406
 30
0.000000
  70
    32
  0
VERTEX
  8
0
  5
E497
 10
3.91047
 20
7.06151
 30
0.000000
  70
    32
  0
VERTEX
  8
0
  5
E498
 10
3.90645
 20
7.05898
 30
0.000000
  70
    32
  0
VERTEX
  8
0
  5
E499
 10
3.90241
 20
7.05647
 30
0.000000
  70
    32
  0
VERTEX
  8
0
  5
E49A
 10
3.89836
 20
7.05399
 30
0.000000
  70
    32
  0
VERTEX
  8
0
  5
E49B
 10
3.89430
 20
7.05153
 30
0.000000
  70
    32
  0
VERTEX
  8
0
  5
E49C
 10
3.89022
 20
7.04909
 30
0.000000
  70
    32
  0
VERTEX
  8
0
  5
E49D
 10
3.88613
 20
7.04667
 30
0.000000
  70
    32
  0
VERTEX
  8
0
  5
E49E
 10
3.88203
 20
7.04427
 30
0.000000
  70
    32
  0
VERTEX
  8
0
  5
E49F
 10
3.87793
 20
7.04190
 30
0.000000
  70
    32
  0
VERTEX
  8
0
  5
E4A0
 10
3.87381
 20
7.03954
 30
0.000000
  70
    32
  0
VERTEX
  8
0
  5
E4A1
 10
3.86969
 20
7.03719
 30
0.000000
  70
    32
  0
VERTEX
  8
0
  5
E4A2
 10
3.86557
 20
7.03486
 30
0.000000
  70
    32
  0
VERTEX
  8
0
  5
E4A3
 10
3.86143
 20
7.03254
 30
0.000000
  70
    32
  0
VERTEX
  8
0
  5
E4A4
 10
3.85730
 20
7.03023
 30
0.000000
  70
    32
  0
VERTEX
  8
0
  5
E4A5
 10
3.85316
 20
7.02793
 30
0.000000
  70
    32
  0
VERTEX
  8
0
  5
E4A6
 10
3.84903
 20
7.02563
 30
0.000000
  70
    32
  0
VERTEX
  8
0
  5
E4A7
 10
3.84489
 20
7.02334
 30
0.000000
  70
    32
  0
VERTEX
  8
0
  5
E4A8
 10
3.84075
 20
7.02105
 30
0.000000
  70
    32
  0
VERTEX
  8
0
  5
E4A9
 10
3.83662
 20
7.01876
 30
0.000000
  70
    32
  0
VERTEX
  8
0
  5
E4AA
 10
3.83249
 20
7.01647
 30
0.000000
  70
    32
  0
VERTEX
  8
0
  5
E4AB
 10
3.82837
 20
7.01418
 30
0.000000
  70
    32
  0
VERTEX
  8
0
  5
E4AC
 10
3.82425
 20
7.01188
 30
0.000000
  70
    32
  0
VERTEX
  8
0
  5
E4AD
 10
3.82014
 20
7.00957
 30
0.000000
  70
    32
  0
VERTEX
  8
0
  5
E4AE
 10
3.81604
 20
7.00726
 30
0.000000
  70
    32
  0
VERTEX
  8
0
  5
E4AF
 10
3.81194
 20
7.00493
 30
0.000000
  70
    32
  0
VERTEX
  8
0
  5
E4B0
 10
3.80786
 20
7.00260
 30
0.000000
  70
    32
  0
VERTEX
  8
0
  5
E4B1
 10
3.80379
 20
7.00024
 30
0.000000
  70
    32
  0
VERTEX
  8
0
  5
E4B2
 10
3.79973
 20
6.99788
 30
0.000000
  70
    32
  0
VERTEX
  8
0
  5
E4B3
 10
3.79569
 20
6.99549
 30
0.000000
  70
    32
  0
VERTEX
  8
0
  5
E4B4
 10
3.79166
 20
6.99308
 30
0.000000
  70
    32
  0
VERTEX
  8
0
  5
E4B5
 10
3.78765
 20
6.99065
 30
0.000000
  70
    32
  0
VERTEX
  8
0
  5
E4B6
 10
3.78366
 20
6.98820
 30
0.000000
  70
    32
  0
VERTEX
  8
0
  5
E4B7
 10
3.77968
 20
6.98572
 30
0.000000
  70
    32
  0
VERTEX
  8
0
  5
E4B8
 10
3.77573
 20
6.98321
 30
0.000000
  70
    32
  0
VERTEX
  8
0
  5
E4B9
 10
3.77180
 20
6.98068
 30
0.000000
  70
    32
  0
VERTEX
  8
0
  5
E4BA
 10
3.76789
 20
6.97811
 30
0.000000
  70
    32
  0
VERTEX
  8
0
  5
E4BB
 10
3.76400
 20
6.97551
 30
0.000000
  70
    32
  0
VERTEX
  8
0
  5
E4BC
 10
3.76014
 20
6.97287
 30
0.000000
  70
    32
  0
VERTEX
  8
0
  5
E4BD
 10
3.75630
 20
6.97020
 30
0.000000
  70
    32
  0
VERTEX
  8
0
  5
E4BE
 10
3.75249
 20
6.96749
 30
0.000000
  70
    32
  0
VERTEX
  8
0
  5
E4BF
 10
3.74871
 20
6.96473
 30
0.000000
  70
    32
  0
VERTEX
  8
0
  5
E4C0
 10
3.74496
 20
6.96194
 30
0.000000
  70
    32
  0
VERTEX
  8
0
  5
E4C1
 10
3.74124
 20
6.95910
 30
0.000000
  70
    32
  0
VERTEX
  8
0
  5
E4C2
 10
3.73756
 20
6.95621
 30
0.000000
  70
    32
  0
VERTEX
  8
0
  5
E4C3
 10
3.73390
 20
6.95327
 30
0.000000
  70
    32
  0
VERTEX
  8
0
  5
E4C4
 10
3.73028
 20
6.95029
 30
0.000000
  70
    32
  0
VERTEX
  8
0
  5
E4C5
 10
3.72669
 20
6.94725
 30
0.000000
  70
    32
  0
VERTEX
  8
0
  5
E4C6
 10
3.72314
 20
6.94417
 30
0.000000
  70
    32
  0
VERTEX
  8
0
  5
E4C7
 10
3.71962
 20
6.94104
 30
0.000000
  70
    32
  0
VERTEX
  8
0
  5
E4C8
 10
3.71614
 20
6.93786
 30
0.000000
  70
    32
  0
VERTEX
  8
0
  5
E4C9
 10
3.71269
 20
6.93463
 30
0.000000
  70
    32
  0
VERTEX
  8
0
  5
E4CA
 10
3.70928
 20
6.93136
 30
0.000000
  70
    32
  0
VERTEX
  8
0
  5
E4CB
 10
3.70591
 20
6.92804
 30
0.000000
  70
    32
  0
VERTEX
  8
0
  5
E4CC
 10
3.70257
 20
6.92468
 30
0.000000
  70
    32
  0
VERTEX
  8
0
  5
E4CD
 10
3.69927
 20
6.92128
 30
0.000000
  70
    32
  0
VERTEX
  8
0
  5
E4CE
 10
3.69601
 20
6.91783
 30
0.000000
  70
    32
  0
VERTEX
  8
0
  5
E4CF
 10
3.69278
 20
6.91434
 30
0.000000
  70
    32
  0
VERTEX
  8
0
  5
E4D0
 10
3.68959
 20
6.91081
 30
0.000000
  70
    32
  0
VERTEX
  8
0
  5
E4D1
 10
3.68644
 20
6.90724
 30
0.000000
  70
    32
  0
VERTEX
  8
0
  5
E4D2
 10
3.68332
 20
6.90363
 30
0.000000
  70
    32
  0
VERTEX
  8
0
  5
E4D3
 10
3.68024
 20
6.89998
 30
0.000000
  70
    32
  0
VERTEX
  8
0
  5
E4D4
 10
3.67720
 20
6.89629
 30
0.000000
  70
    32
  0
VERTEX
  8
0
  5
E4D5
 10
3.67420
 20
6.89257
 30
0.000000
  70
    32
  0
VERTEX
  8
0
  5
E4D6
 10
3.67124
 20
6.88881
 30
0.000000
  70
    32
  0
VERTEX
  8
0
  5
E4D7
 10
3.66832
 20
6.88502
 30
0.000000
  70
    32
  0
VERTEX
  8
0
  5
E4D8
 10
3.66544
 20
6.88119
 30
0.000000
  70
    32
  0
VERTEX
  8
0
  5
E4D9
 10
3.66259
 20
6.87733
 30
0.000000
  70
    32
  0
VERTEX
  8
0
  5
E4DA
 10
3.65979
 20
6.87343
 30
0.000000
  70
    32
  0
VERTEX
  8
0
  5
E4DB
 10
3.65702
 20
6.86950
 30
0.000000
  70
    32
  0
VERTEX
  8
0
  5
E4DC
 10
3.65430
 20
6.86555
 30
0.000000
  70
    32
  0
VERTEX
  8
0
  5
E4DD
 10
3.65162
 20
6.86156
 30
0.000000
  70
    32
  0
VERTEX
  8
0
  5
E4DE
 10
3.64897
 20
6.85754
 30
0.000000
  70
    32
  0
VERTEX
  8
0
  5
E4DF
 10
3.64637
 20
6.85349
 30
0.000000
  70
    32
  0
VERTEX
  8
0
  5
E4E0
 10
3.64381
 20
6.84942
 30
0.000000
  70
    32
  0
VERTEX
  8
0
  5
E4E1
 10
3.64129
 20
6.84531
 30
0.000000
  70
    32
  0
VERTEX
  8
0
  5
E4E2
 10
3.63881
 20
6.84119
 30
0.000000
  70
    32
  0
VERTEX
  8
0
  5
E4E3
 10
3.63638
 20
6.83703
 30
0.000000
  70
    32
  0
VERTEX
  8
0
  5
E4E4
 10
3.63399
 20
6.83285
 30
0.000000
  70
    32
  0
VERTEX
  8
0
  5
E4E5
 10
3.63163
 20
6.82865
 30
0.000000
  70
    32
  0
VERTEX
  8
0
  5
E4E6
 10
3.62933
 20
6.82442
 30
0.000000
  70
    32
  0
VERTEX
  8
0
  5
E4E7
 10
3.62706
 20
6.82018
 30
0.000000
  70
    32
  0
VERTEX
  8
0
  5
E4E8
 10
3.62484
 20
6.81591
 30
0.000000
  70
    32
  0
VERTEX
  8
0
  5
E4E9
 10
3.62266
 20
6.81162
 30
0.000000
  70
    32
  0
VERTEX
  8
0
  5
E4EA
 10
3.62052
 20
6.80731
 30
0.000000
  70
    32
  0
VERTEX
  8
0
  5
E4EB
 10
3.61843
 20
6.80298
 30
0.000000
  70
    32
  0
VERTEX
  8
0
  5
E4EC
 10
3.61639
 20
6.79863
 30
0.000000
  70
    32
  0
VERTEX
  8
0
  5
E4ED
 10
3.61438
 20
6.79427
 30
0.000000
  70
    32
  0
VERTEX
  8
0
  5
E4EE
 10
3.61243
 20
6.78989
 30
0.000000
  70
    32
  0
VERTEX
  8
0
  5
E4EF
 10
3.61051
 20
6.78549
 30
0.000000
  70
    32
  0
VERTEX
  8
0
  5
E4F0
 10
3.60864
 20
6.78108
 30
0.000000
  70
    32
  0
VERTEX
  8
0
  5
E4F1
 10
3.60682
 20
6.77665
 30
0.000000
  70
    32
  0
VERTEX
  8
0
  5
E4F2
 10
3.60504
 20
6.77221
 30
0.000000
  70
    32
  0
VERTEX
  8
0
  5
E4F3
 10
3.60331
 20
6.76776
 30
0.000000
  70
    32
  0
VERTEX
  8
0
  5
E4F4
 10
3.60163
 20
6.76330
 30
0.000000
  70
    32
  0
VERTEX
  8
0
  5
E4F5
 10
3.59999
 20
6.75882
 30
0.000000
  70
    32
  0
VERTEX
  8
0
  5
E4F6
 10
3.59840
 20
6.75434
 30
0.000000
  70
    32
  0
VERTEX
  8
0
  5
E4F7
 10
3.59685
 20
6.74984
 30
0.000000
  70
    32
  0
VERTEX
  8
0
  5
E4F8
 10
3.59535
 20
6.74534
 30
0.000000
  70
    32
  0
VERTEX
  8
0
  5
E4F9
 10
3.59390
 20
6.74083
 30
0.000000
  70
    32
  0
VERTEX
  8
0
  5
E4FA
 10
3.59250
 20
6.73631
 30
0.000000
  70
    32
  0
VERTEX
  8
0
  5
E4FB
 10
3.59115
 20
6.73179
 30
0.000000
  70
    32
  0
VERTEX
  8
0
  5
E4FC
 10
3.58984
 20
6.72726
 30
0.000000
  70
    32
  0
VERTEX
  8
0
  5
E4FD
 10
3.58858
 20
6.72273
 30
0.000000
  70
    32
  0
SEQEND
  8
0
  5
E4FE
  0
LINE
  5
D3A3
  8
FRAME_0500
 10
7.0314568728199438
 20
12.260003544241041
 30
0.0
 11
7.0314568728199438
 21
0.000000749505034
 31
0.0
  0
ENDBLK
  5
D3A5
  8
0
  0
BLOCK
  8
0
  2
*U42
 70
     1
 10
0.0
 20
0.0
 30
0.0
  3
*U42
  1

  0
TEXT
  5
E238
  8
0
 10
1.801309719190612
 20
0.7422271098238867
 30
0.0
 40
0.125
  1
Solid Crown
  0
TEXT
  5
E239
  8
0
 10
1.801309719190612
 20
0.5338937764905534
 30
0.0
 40
0.125
  1
TL-2182
  0
TEXT
  5
E23A
  8
0
 10
1.801309719190612
 20
0.32556044315722
 30
0.0
 40
0.125
  1
1-1/32" x 1-5/16"
  0
TEXT
  5
E23B
  8
0
 10
1.801309719190612
 20
0.1172271098238866
 30
0.0
 40
0.125
  1
800.66.TAGUE
  0
ENDBLK
  5
E23D
  8
0
  0
BLOCK
  8
0
  2
*U43
 70
     1
 10
0.0
 20
0.0
 30
0.0
  3
*U43
  1

  0
TEXT
  5
E23F
  8
0
 10
1.625113436446326
 20
0.9370028111704301
 30
0.0
 40
0.125
  1
Solid Crown
  0
TEXT
  5
E240
  8
0
 10
1.625113436446326
 20
0.7286694778370969
 30
0.0
 40
0.125
  1
TL-2157
  0
TEXT
  5
E241
  8
0
 10
1.625113436446326
 20
0.5203361445037635
 30
0.0
 40
0.125
  1
1-9/32" x 2"
  0
TEXT
  5
E242
  8
0
 10
1.625113436446326
 20
0.31200281117043
 30
0.0
 40
0.125
  1
800.66.TAGUE
  0
ENDBLK
  5
E244
  8
0
  0
BLOCK
  8
0
  2
*U44
 70
     1
 10
0.0
 20
0.0
 30
0.0
  3
*U44
  1

  0
TEXT
  5
E246
  8
0
 10
1.920486779030625
 20
0.9014428381942138
 30
0.0
 40
0.125
  1
Solid Crown
  0
TEXT
  5
E247
  8
0
 10
1.920486779030625
 20
0.6931095048608807
 30
0.0
 40
0.125
  1
TL-2188
  0
TEXT
  5
E248
  8
0
 10
1.920486779030625
 20
0.4847761715275473
 30
0.0
 40
0.125
  1
1-5/8" x 2"
  0
TEXT
  5
E249
  8
0
 10
1.920486779030625
 20
0.2764428381942139
 30
0.0
 40
0.125
  1
800.66.TAGUE
  0
ENDBLK
  5
E24B
  8
0
  0
BLOCK
  8
0
  2
*U45
 70
     1
 10
0.0
 20
0.0
 30
0.0
  3
*U45
  1

  0
TEXT
  5
E24D
  8
0
 10
1.746815334566576
 20
0.7356822575717957
 30
0.0
 40
0.125
  1
Solid Crown
  0
TEXT
  5
E24E
  8
0
 10
1.746815334566576
 20
0.5273489242384624
 30
0.0
 40
0.125
  1
TL-2235
  0
TEXT
  5
E24F
  8
0
 10
1.746815334566576
 20
0.319015590905129
 30
0.0
 40
0.125
  1
11/16" x 15/16"
  0
TEXT
  5
E250
  8
0
 10
1.746815334566576
 20
0.1106822575717956
 30
0.0
 40
0.125
  1
800.66.TAGUE
  0
ENDBLK
  5
E252
  8
0
  0
BLOCK
  8
0
  2
*U46
 70
     1
 10
0.0
 20
0.0
 30
0.0
  3
*U46
  1

  0
TEXT
  5
E254
  8
0
 10
2.0509945988744671
 20
1.365453408895575
 30
0.0
 40
0.125
  1
Solid Crown
  0
TEXT
  5
E255
  8
0
 10
2.0509945988744671
 20
1.1571200755622419
 30
0.0
 40
0.125
  1
TL-339
  0
TEXT
  5
E256
  8
0
 10
2.0509945988744671
 20
0.948786742228909
 30
0.0
 40
0.125
  1
1-5/8" x 2-5/8"
  0
TEXT
  5
E257
  8
0
 10
2.0509945988744671
 20
0.7404534088955757
 30
0.0
 40
0.125
  1
800.66.TAGUE
  0
ENDBLK
  5
E259
  8
0
  0
BLOCK
  8
0
  2
*U47
 70
     1
 10
0.0
 20
0.0
 30
0.0
  3
*U47
  1

  0
TEXT
  5
E25B
  8
0
 10
2.0562685683860868
 20
1.1925432374321749
 30
0.0
 40
0.125
  1
Solid Crown
  0
TEXT
  5
E25C
  8
0
 10
2.0562685683860868
 20
0.9842099040988426
 30
0.0
 40
0.125
  1
TL-2249
  0
TEXT
  5
E25D
  8
0
 10
2.0562685683860868
 20
0.7758765707655093
 30
0.0
 40
0.125
  1
1-1/8" x 1-7/8"
  0
TEXT
  5
E25E
  8
0
 10
2.0562685683860868
 20
0.5675432374321759
 30
0.0
 40
0.125
  1
800.66.TAGUE
  0
ENDBLK
  5
E260
  8
0
  0
BLOCK
  8
0
  2
*U48
 70
     1
 10
0.0
 20
0.0
 30
0.0
  3
*U48
  1

  0
TEXT
  5
E262
  8
0
 10
1.34401033534931
 20
0.6780822238238784
 30
0.0
 40
0.125
  1
Solid Crown
  0
TEXT
  5
E263
  8
0
 10
1.34401033534931
 20
0.4697488904905451
 30
0.0
 40
0.125
  1
TL-2258
  0
TEXT
  5
E264
  8
0
 10
1.34401033534931
 20
0.2614155571572118
 30
0.0
 40
0.125
  1
5/8" x 3/4"
  0
TEXT
  5
E265
  8
0
 10
1.34401033534931
 20
0.0530822238238784
 30
0.0
 40
0.125
  1
800.66.TAGUE
  0
ENDBLK
  5
E267
  8
0
  0
BLOCK
  8
0
  2
*U49
 70
     1
 10
0.0
 20
0.0
 30
0.0
  3
*U49
  1

  0
TEXT
  5
E269
  8
0
 10
2.0597898518844882
 20
1.5819740602258321
 30
0.0
 40
0.125
  1
Solid Crown 
  0
TEXT
  5
E26A
  8
0
 10
2.0597898518844882
 20
1.3736407268924979
 30
0.0
 40
0.125
  1
TL-2279
  0
TEXT
  5
E26B
  8
0
 10
2.0597898518844882
 20
1.1653073935591649
 30
0.0
 40
0.125
  1
1-3/4"  x 2-3/4"
  0
TEXT
  5
E26C
  8
0
 10
2.0597898518844882
 20
0.956974060225832
 30
0.0
 40
0.125
  1
800.66.TAGUE
  0
ENDBLK
  5
E26E
  8
0
  0
BLOCK
  8
0
  2
*U50
 70
     1
 10
0.0
 20
0.0
 30
0.0
  3
*U50
  1

  0
TEXT
  5
E270
  8
0
 10
0.5926592555372281
 20
0.6780822487964429
 30
0.0
 40
0.125
  1
Solid Crown
  0
TEXT
  5
E271
  8
0
 10
0.5926592555372281
 20
0.4697489154631096
 30
0.0
 40
0.125
  1
TL-2321
  0
TEXT
  5
E272
  8
0
 10
0.5926592555372281
 20
0.2614155821297762
 30
0.0
 40
0.125
  1
1-7/8" x 2-1/4"
  0
TEXT
  5
E273
  8
0
 10
0.5926592555372281
 20
0.0530822487964429
 30
0.0
 40
0.125
  1
800.66.TAGUE
  0
ENDBLK
  5
E275
  8
0
  0
BLOCK
  8
0
  2
*U51
 70
     1
 10
0.0
 20
0.0
 30
0.0
  3
*U51
  1

  0
TEXT
  5
E277
  8
0
 10
0.054571907909974
 20
0.6780827931436875
 30
0.0
 40
0.125
  1
Solid Crown
  0
TEXT
  5
E278
  8
0
 10
0.054571907909974
 20
0.4697494598103542
 30
0.0
 40
0.125
  1
TL-2322
  0
TEXT
  5
E279
  8
0
 10
0.054571907909974
 20
0.2614161264770209
 30
0.0
 40
0.125
  1
1-1/4" x 2"
  0
TEXT
  5
E27A
  8
0
 10
0.054571907909974
 20
0.0530827931436875
 30
0.0
 40
0.125
  1
800.66.TAGUE
  0
ENDBLK
  5
E27C
  8
0
  0
BLOCK
  8
0
  2
*U52
 70
     1
 10
0.0
 20
0.0
 30
0.0
  3
*U52
  1

  0
TEXT
  5
E27E
  8
0
 10
2.812997521113572
 20
1.5103095468846841
 30
0.0
 40
0.125
  1
Solid Crown
  0
TEXT
  5
E27F
  8
0
 10
2.812997521113572
 20
1.3019762135513511
 30
0.0
 40
0.125
  1
TL-2325
  0
TEXT
  5
E280
  8
0
 10
2.812997521113572
 20
1.093642880218018
 30
0.0
 40
0.125
  1
1-3/4" x 2-7/8"
  0
TEXT
  5
E281
  8
0
 10
2.812997521113572
 20
0.8853095468846846
 30
0.0
 40
0.125
  1
800.66.TAGUE
  0
ENDBLK
  5
E283
  8
0
  0
BLOCK
  8
0
  2
*U53
 70
     1
 10
0.0
 20
0.0
 30
0.0
  3
*U53
  1

  0
INSERT
  5
E285
  8
0
  6
CONTINUOUS
  2
_OPEN30
 10
4.25007583112773
 20
4.0458778811966161
 30
0.0
 41
0.046875
 42
0.046875
 43
0.046875
 50
206.86004097467
  0
POLYLINE
  5
E286
  8
0
  6
CONTINUOUS
 66
     1
 10
0.0
 20
0.0
 30
0.0
  0
VERTEX
  5
E287
  8
0
  6
CONTINUOUS
 10
4.2918936208850731
 20
4.0670565989295362
 30
0.0
  0
VERTEX
  5
E288
  8
0
  6
CONTINUOUS
 10
4.7925223938993318
 20
4.3206012155668807
 30
0.0
  0
VERTEX
  5
E289
  8
0
  6
CONTINUOUS
 10
4.8767298800405001
 20
4.3228722330817666
 30
0.0
  0
SEQEND
  5
E28A
  8
0
  6
CONTINUOUS
  0
ENDBLK
  5
E28C
  8
0
  0
BLOCK
  8
0
  2
*U54
 70
     1
 10
0.0
 20
0.0
 30
0.0
  3
*U54
  1

  0
TEXT
  5
E28E
  8
0
 10
4.9392298800405001
 20
4.2603722330817666
 30
0.0
 40
0.125
  1
TL-1169
  0
ENDBLK
  5
E290
  8
0
  0
BLOCK
  8
0
  2
*U55
 70
     1
 10
0.0
 20
0.0
 30
0.0
  3
*U55
  1

  0
INSERT
  5
E292
  8
0
  6
CONTINUOUS
  2
_OPEN30
 10
3.015727299021818
 20
3.1861523687388451
 30
0.0
 41
0.046875
 42
0.046875
 43
0.046875
 50
136.65142556006271
  0
POLYLINE
  5
E293
  8
0
  6
CONTINUOUS
 66
     1
 10
0.0
 20
0.0
 30
0.0
  0
VERTEX
  5
E294
  8
0
  6
CONTINUOUS
 10
3.0498143804479341
 20
3.1539757234064099
 30
0.0
  0
VERTEX
  5
E295
  8
0
  6
CONTINUOUS
 10
3.5070580539338598
 20
2.722358615202352
 30
0.0
  0
VERTEX
  5
E296
  8
0
  6
CONTINUOUS
 10
3.6019889170380561
 20
2.722358615202352
 30
0.0
  0
SEQEND
  5
E297
  8
0
  6
CONTINUOUS
  0
ENDBLK
  5
E299
  8
0
  0
BLOCK
  8
0
  2
*U56
 70
     1
 10
0.0
 20
0.0
 30
0.0
  3
*U56
  1

  0
TEXT
  5
E29B
  8
0
 10
3.6644889170380561
 20
2.659858615202352
 30
0.0
 40
0.125
  1
TL-100
  0
ENDBLK
  5
E29D
  8
0
  0
BLOCK
  8
0
  2
*U57
 70
     1
 10
0.0
 20
0.0
 30
0.0
  3
*U57
  1

  0
INSERT
  5
E29F
  8
0
  6
CONTINUOUS
  2
_OPEN30
 10
2.6870017865641098
 20
1.8450005331302739
 30
0.0
 41
0.046875
 42
0.046875
 43
0.046875
 50
136.3900499074297
  0
POLYLINE
  5
E2A0
  8
0
  6
CONTINUOUS
 66
     1
 10
0.0
 20
0.0
 30
0.0
  0
VERTEX
  5
E2A1
  8
0
  6
CONTINUOUS
 10
2.720941728277904
 20
1.812668722456199
 30
0.0
  0
VERTEX
  5
E2A2
  8
0
  6
CONTINUOUS
 10
3.1314267320642548
 20
1.4216331827111901
 30
0.0
  0
VERTEX
  5
E2A3
  8
0
  6
CONTINUOUS
 10
3.2316706730279061
 20
1.4132916418840571
 30
0.0
  0
SEQEND
  5
E2A4
  8
0
  6
CONTINUOUS
  0
ENDBLK
  5
E2A6
  8
0
  0
BLOCK
  8
0
  2
*U58
 70
     1
 10
0.0
 20
0.0
 30
0.0
  3
*U58
  1

  0
TEXT
  5
E2A8
  8
0
 10
3.2941706730279061
 20
1.3507916418840571
 30
0.0
 40
0.125
  1
TL-412
  0
ENDBLK
  5
E2AA
  8
0
  0
BLOCK
  8
0
  2
*U59
 70
     1
 10
0.0
 20
0.0
 30
0.0
  3
*U59
  1

  0
TEXT
  5
E2AC
  8
0
 10
0.1283225761480367
 20
1.8963519740894119
 30
0.0
 40
0.125
  1
Stool Assembly
  0
TEXT
  5
E2AD
  8
0
 10
0.1283225761480367
 20
1.6880186407560791
 30
0.0
 40
0.125
  1
TL-640
  0
TEXT
  5
E2AE
  8
0
 10
0.1283225761480367
 20
1.4796853074227461
 30
0.0
 40
0.125
  1
4-1/4" x 4-9/16"
  0
TEXT
  5
E2AF
  8
0
 10
0.1283225761480367
 20
1.2713519740894119
 30
0.0
 40
0.125
  1
800.66.TAGUE
  0
ENDBLK
  5
E2B1
  8
0
  0
BLOCK
  8
0
  2
*U60
 70
     1
 10
0.0
 20
0.0
 30
0.0
  3
*U60
  1

  0
TEXT
  5
E2B3
  8
0
 10
0.3052749355636024
 20
1.3133121278941919
 30
0.0
 40
0.125
  1
Stool Assembly
  0
TEXT
  5
E2B4
  8
0
 10
0.3052749355636024
 20
1.1049787945608589
 30
0.0
 40
0.125
  1
TL-642
  0
TEXT
  5
E2B5
  8
0
 10
0.3052749355636024
 20
0.8966454612275262
 30
0.0
 40
0.125
  1
3-9/16" x 4-1/4"
  0
TEXT
  5
E2B6
  8
0
 10
0.3052749355636024
 20
0.6883121278941929
 30
0.0
 40
0.125
  1
800.66.TAGUE
  0
ENDBLK
  5
E2B8
  8
0
  0
BLOCK
  8
0
  2
*U61
 70
     1
 10
0.0
 20
0.0
 30
0.0
  3
*U61
  1

  0
INSERT
  5
E2BA
  8
0
  6
CONTINUOUS
  2
_OPEN30
 10
4.2500004173678567
 20
3.125000325262504
 30
0.0
 41
0.046875
 42
0.046875
 43
0.046875
 50
220.9039207528615
  0
POLYLINE
  5
E2BB
  8
0
  6
CONTINUOUS
 66
     1
 10
0.0
 20
0.0
 30
0.0
  0
VERTEX
  5
E2BC
  8
0
  6
CONTINUOUS
 10
4.285428948467243
 20
3.1556937253533999
 30
0.0
  0
VERTEX
  5
E2BD
  8
0
  6
CONTINUOUS
 10
4.8218309318424408
 20
3.620403951106169
 30
0.0
  0
VERTEX
  5
E2BE
  8
0
  6
CONTINUOUS
 10
4.8826737540601917
 20
3.620403951106169
 30
0.0
  0
SEQEND
  5
E2BF
  8
0
  6
CONTINUOUS
  0
ENDBLK
  5
E2C1
  8
0
  0
BLOCK
  8
0
  2
*U62
 70
     1
 10
0.0
 20
0.0
 30
0.0
  3
*U62
  1

  0
TEXT
  5
E2C3
  8
0
 10
4.9451737540601917
 20
3.557903951106169
 30
0.0
 40
0.125
  1
1-1/16" x 1-3/4" w/
  0
TEXT
  5
E2C4
  8
0
 10
4.9451737540601917
 20
3.349570617772835
 30
0.0
 40
0.125
  1
1/4" Bead
  0
ENDBLK
  5
E2C6
  8
0
  0
BLOCK
  8
0
  2
*U63
 70
     1
 10
0.0
 20
0.0
 30
0.0
  3
*U63
  1

  0
INSERT
  5
E2C8
  8
0
  6
CONTINUOUS
  2
_OPEN30
 10
3.2579528869749188
 20
1.406250325262504
 30
0.0
 41
0.046875
 42
0.046875
 43
0.046875
 50
156.86838037646939
  0
POLYLINE
  5
E2C9
  8
0
  6
CONTINUOUS
 66
     1
 10
0.0
 20
0.0
 30
0.0
  0
VERTEX
  5
E2CA
  8
0
  6
CONTINUOUS
 10
3.3010593638282271
 20
1.387835731096593
 30
0.0
  0
VERTEX
  5
E2CB
  8
0
  6
CONTINUOUS
 10
4.0288058775305444
 20
1.0769507392405151
 30
0.0
  0
VERTEX
  5
E2CC
  8
0
  6
CONTINUOUS
 10
4.1146926397061634
 20
1.0769507392405151
 30
0.0
  0
SEQEND
  5
E2CD
  8
0
  6
CONTINUOUS
  0
ENDBLK
  5
E2CF
  8
0
  0
BLOCK
  8
0
  2
*U64
 70
     1
 10
0.0
 20
0.0
 30
0.0
  3
*U64
  1

  0
TEXT
  5
E2D1
  8
0
 10
4.1771926397061634
 20
1.0144507392405151
 30
0.0
 40
0.125
  1
3/4" x 2-1/2" w/
  0
TEXT
  5
E2D2
  8
0
 10
4.1771926397061634
 20
0.8061174059071825
 30
0.0
 40
0.125
  1
1/4" Bead
  0
ENDBLK
  5
E2D4
  8
0
  0
BLOCK
  8
0
  2
*U65
 70
     1
 10
0.0
 20
0.0
 30
0.0
  3
*U65
  1

  0
TEXT
  5
E2D6
  8
0
 10
2.2482544924862391
 20
2.450263826582272
 30
0.0
 40
0.125
  1
Stool
  0
TEXT
  5
E2D7
  8
0
 10
2.2482544924862391
 20
2.241930493248939
 30
0.0
 40
0.125
  1
TL-1159
  0
TEXT
  5
E2D8
  8
0
 10
2.2482544924862391
 20
2.0335971599156051
 30
0.0
 40
0.125
  1
1-1/16" x 5-1/2"
  0
TEXT
  5
E2D9
  8
0
 10
2.2482544924862391
 20
1.825263826582272
 30
0.0
 40
0.125
  1
800.66.TAGUE
  0
ENDBLK
  5
E2DB
  8
0
  0
BLOCK
  8
0
  2
*U66
 70
     1
 10
0.0
 20
0.0
 30
0.0
  3
*U66
  1

  0
TEXT
  5
E2DD
  8
0
 10
0.8191625160812918
 20
2.6766317664879571
 30
0.0
 40
0.125
  1
Stool
  0
TEXT
  5
E2DE
  8
0
 10
0.8191625160812918
 20
2.468298433154624
 30
0.0
 40
0.125
  1
TL-1163
  0
TEXT
  5
E2DF
  8
0
 10
0.8191625160812918
 20
2.259965099821291
 30
0.0
 40
0.125
  1
1-1/16" x 3-1/4"
  0
TEXT
  5
E2E0
  8
0
 10
0.8191625160812918
 20
2.0516317664879571
 30
0.0
 40
0.125
  1
800.66.TAGUE
  0
ENDBLK
  5
E2E2
  8
0
  0
BLOCK
  8
0
  2
*U67
 70
     1
 10
0.0
 20
0.0
 30
0.0
  3
*U67
  1

  0
TEXT
  5
E2E4
  8
0
 10
1.349062628679462
 20
9.5573777296123126
 30
0.0
 40
0.125
  1
Stool
  0
TEXT
  5
E2E5
  8
0
 10
1.349062628679462
 20
9.3490443962789787
 30
0.0
 40
0.125
  1
TL-1165
  0
TEXT
  5
E2E6
  8
0
 10
1.349062628679462
 20
9.1407110629456465
 30
0.0
 40
0.125
  1
1-1/16" x 4-3/16"
  0
TEXT
  5
E2E7
  8
0
 10
1.349062628679462
 20
8.9323777296123126
 30
0.0
 40
0.125
  1
800.66.TAGUE
  0
ENDBLK
  5
E2E9
  8
0
  0
BLOCK
  8
0
  2
*U68
 70
     1
 10
0.0
 20
0.0
 30
0.0
  3
*U68
  1

  0
TEXT
  5
E2EB
  8
0
 10
1.349062628679462
 20
2.8346475372353548
 30
0.0
 40
0.125
  1
Stool
  0
TEXT
  5
E2EC
  8
0
 10
1.349062628679462
 20
2.6263142039020209
 30
0.0
 40
0.125
  1
TL-1165
  0
TEXT
  5
E2ED
  8
0
 10
1.349062628679462
 20
2.4179808705686878
 30
0.0
 40
0.125
  1
1-1/16" x 4-3/16"
  0
TEXT
  5
E2EE
  8
0
 10
1.349062628679462
 20
2.2096475372353548
 30
0.0
 40
0.125
  1
800.66.TAGUE
  0
ENDBLK
  5
E2F0
  8
0
  0
BLOCK
  8
0
  2
*U69
 70
     1
 10
0.0
 20
0.0
 30
0.0
  3
*U69
  1

  0
TEXT
  5
E2F2
  8
0
 10
2.1131596426620258
 20
2.6458930357011918
 30
0.0
 40
0.125
  1
Stool
  0
TEXT
  5
E2F3
  8
0
 10
2.1131596426620258
 20
2.4375597023678579
 30
0.0
 40
0.125
  1
TL-1166
  0
TEXT
  5
E2F4
  8
0
 10
2.1131596426620258
 20
2.2292263690345249
 30
0.0
 40
0.125
  1
1-1/16" x 5-1/2"
  0
TEXT
  5
E2F5
  8
0
 10
2.1131596426620258
 20
2.0208930357011918
 30
0.0
 40
0.125
  1
800.66.TAGUE
  0
ENDBLK
  5
E2F7
  8
0
  0
BLOCK
  8
0
  2
*U70
 70
     1
 10
0.0
 20
0.0
 30
0.0
  3
*U70
  1

  0
TEXT
  5
E2F9
  8
0
 10
2.2456546718724431
 20
2.642895428088309
 30
0.0
 40
0.125
  1
Stool
  0
TEXT
  5
E2FA
  8
0
 10
2.2456546718724431
 20
2.4345620947549751
 30
0.0
 40
0.125
  1
TL-1167
  0
TEXT
  5
E2FB
  8
0
 10
2.2456546718724431
 20
2.2262287614216421
 30
0.0
 40
0.125
  1
1-1/16" x 5-1/2"
  0
TEXT
  5
E2FC
  8
0
 10
2.2456546718724431
 20
2.017895428088309
 30
0.0
 40
0.125
  1
800.66.TAGUE
  0
ENDBLK
  5
E2FE
  8
0
  0
BLOCK
  8
0
  2
*U71
 70
     1
 10
0.0
 20
0.0
 30
0.0
  3
*U71
  1

  0
TEXT
  5
E300
  8
0
 10
2.0133018041836972
 20
2.5882703042445878
 30
0.0
 40
0.125
  1
Stool
  0
TEXT
  5
E301
  8
0
 10
2.0133018041836972
 20
2.3799369709112539
 30
0.0
 40
0.125
  1
TL-1168
  0
TEXT
  5
E302
  8
0
 10
2.0133018041836972
 20
2.1716036375779209
 30
0.0
 40
0.125
  1
1-1/16" x 5-1/2"
  0
TEXT
  5
E303
  8
0
 10
2.0133018041836972
 20
1.963270304244588
 30
0.0
 40
0.125
  1
800.66.TAGUE
  0
ENDBLK
  5
E305
  8
0
  0
BLOCK
  8
0
  2
*U72
 70
     1
 10
0.0
 20
0.0
 30
0.0
  3
*U72
  1

  0
TEXT
  5
E307
  8
0
 10
2.055829634173278
 20
2.4805333809745198
 30
0.0
 40
0.125
  1
Stool
  0
TEXT
  5
E308
  8
0
 10
2.055829634173278
 20
2.2722000476411872
 30
0.0
 40
0.125
  1
TL-1169
  0
TEXT
  5
E309
  8
0
 10
2.055829634173278
 20
2.0638667143078542
 30
0.0
 40
0.125
  1
1-1/16" x 5-1/2"
  0
TEXT
  5
E30A
  8
0
 10
2.055829634173278
 20
1.85553338097452
 30
0.0
 40
0.125
  1
800.66.TAGUE
  0
ENDBLK
  5
E30C
  8
0
  0
BLOCK
  8
0
  2
*U73
 70
     1
 10
0.0
 20
0.0
 30
0.0
  3
*U73
  1

  0
TEXT
  5
E30E
  8
0
 10
2.2535945867782621
 20
1.42055978726475
 30
0.0
 40
0.125
  1
T-Astragal
  0
TEXT
  5
E30F
  8
0
 10
2.2535945867782621
 20
1.212226453931416
 30
0.0
 40
0.125
  1
TL-1300
  0
TEXT
  5
E310
  8
0
 10
2.2535945867782621
 20
1.003893120598083
 30
0.0
 40
0.125
  1
1-1/4" x 2-1/4"
  0
TEXT
  5
E311
  8
0
 10
2.2535945867782621
 20
0.7955597872647502
 30
0.0
 40
0.125
  1
800.66.TAGUE
  0
ENDBLK
  5
E313
  8
0
  0
BLOCK
  8
0
  2
*U74
 70
     1
 10
0.0
 20
0.0
 30
0.0
  3
*U74
  1

  0
TEXT
  5
E315
  8
0
 10
1.93660943774762
 20
1.3948922377437321
 30
0.0
 40
0.125
  1
T-Astragal
  0
TEXT
  5
E316
  8
0
 10
1.93660943774762
 20
1.186558904410399
 30
0.0
 40
0.125
  1
TL-1305
  0
TEXT
  5
E317
  8
0
 10
1.93660943774762
 20
0.9782255710770661
 30
0.0
 40
0.125
  1
1-1/4" x 2"
  0
TEXT
  5
E318
  8
0
 10
1.93660943774762
 20
0.7698922377437328
 30
0.0
 40
0.125
  1
800.66.TAGUE
  0
ENDBLK
  5
E31A
  8
0
  0
BLOCK
  8
0
  2
*U75
 70
     1
 10
0.0
 20
0.0
 30
0.0
  3
*U75
  1

  0
TEXT
  5
E31C
  8
0
 10
4.8392669093670966
 20
1.7952652163690741
 30
0.0
 40
0.125
  1
T-Astragal
  0
TEXT
  5
E31D
  8
0
 10
4.8392669093670966
 20
1.58693188303574
 30
0.0
 40
0.125
  1
TL-2089
  0
TEXT
  5
E31E
  8
0
 10
4.8392669093670966
 20
1.3785985497024069
 30
0.0
 40
0.125
  1
1-5/8" x 2-15/16"
  0
TEXT
  5
E31F
  8
0
 10
4.8392669093670966
 20
1.1702652163690741
 30
0.0
 40
0.125
  1
800.66.TAGUE
  0
ENDBLK
  5
E321
  8
0
  0
BLOCK
  8
0
  2
*U76
 70
     1
 10
0.0
 20
0.0
 30
0.0
  3
*U76
  1

  0
INSERT
  5
E323
  8
0
  6
CONTINUOUS
  2
_OPEN30
 10
2.609022505026473
 20
2.0302358065314081
 30
0.0
 41
0.046875
 42
0.046875
 43
0.046875
 50
309.7026190376086
  0
POLYLINE
  5
E324
  8
0
  6
CONTINUOUS
 66
     1
 10
0.0
 20
0.0
 30
0.0
  0
VERTEX
  5
E325
  8
0
  6
CONTINUOUS
 10
2.5790786150230298
 20
2.066300041951858
 30
0.0
  0
VERTEX
  5
E326
  8
0
  6
CONTINUOUS
 10
2.212258879372996
 20
2.5080954567035572
 30
0.0
  0
VERTEX
  5
E327
  8
0
  6
CONTINUOUS
 10
2.114728241768034
 20
2.5080954567035572
 30
0.0
  0
SEQEND
  5
E328
  8
0
  6
CONTINUOUS
  0
ENDBLK
  5
E32A
  8
0
  0
BLOCK
  8
0
  2
*U77
 70
     1
 10
0.0
 20
0.0
 30
0.0
  3
*U77
  1

  0
TEXT
  5
E32C
  8
0
 10
-0.7811050915652995
 20
2.4872621233702241
 30
0.0
 40
0.125
  1
Beige Q-Lon Weatherstrip
  0
ENDBLK
  5
E32E
  8
0
  0
BLOCK
  8
0
  2
*U78
 70
     1
 10
0.0
 20
0.0
 30
0.0
  3
*U78
  1

  0
TEXT
  5
E330
  8
0
 10
3.3201568568554189
 20
0.9248893359822716
 30
0.0
 40
0.125
  1
Wainscot Cap Assembly
  0
TEXT
  5
E331
  8
0
 10
3.3201568568554189
 20
0.7165560026489385
 30
0.0
 40
0.125
  1
TL-641
  0
TEXT
  5
E332
  8
0
 10
3.3201568568554189
 20
0.5082226693156051
 30
0.0
 40
0.125
  1
1-3/4" x 1-3/4"
  0
TEXT
  5
E333
  8
0
 10
3.3201568568554189
 20
0.2998893359822716
 30
0.0
 40
0.125
  1
800.66.TAGUE
  0
ENDBLK
  5
E335
  8
0
  0
BLOCK
  8
0
  2
*U79
 70
     1
 10
0.0
 20
0.0
 30
0.0
  3
*U79
  1

  0
INSERT
  5
E337
  8
0
  6
CONTINUOUS
  2
_OPEN30
 10
1.2463031763783761
 20
0.4857663996054101
 30
0.0
 41
0.046875
 42
0.046875
 43
0.046875
 50
138.5394374069943
  0
POLYLINE
  5
E338
  8
0
  6
CONTINUOUS
 66
     1
 10
0.0
 20
0.0
 30
0.0
  0
VERTEX
  5
E339
  8
0
  6
CONTINUOUS
 10
1.28143184667823
 20
0.4547302569977322
 30
0.0
  0
VERTEX
  5
E33A
  8
0
  6
CONTINUOUS
 10
1.6881825691150989
 20
0.0953664291166945
 30
0.0
  0
VERTEX
  5
E33B
  8
0
  6
CONTINUOUS
 10
1.7751008865690201
 20
0.1040451542178573
 30
0.0
  0
SEQEND
  5
E33C
  8
0
  6
CONTINUOUS
  0
ENDBLK
  5
E33E
  8
0
  0
BLOCK
  8
0
  2
*U80
 70
     1
 10
0.0
 20
0.0
 30
0.0
  3
*U80
  1

  0
TEXT
  5
E340
  8
0
 10
1.8376008865690201
 20
0.0415451542178573
 30
0.0
 40
0.125
  1
TL-145
  0
ENDBLK
  5
E342
  8
0
  0
BLOCK
  8
0
  2
*U81
 70
     1
 10
0.0
 20
0.0
 30
0.0
  3
*U81
  1

  0
INSERT
  5
E344
  8
0
  6
CONTINUOUS
  2
_OPEN30
 10
1.7420465172478421
 20
1.4512962814681309
 30
0.0
 41
0.046875
 42
0.046875
 43
0.046875
 50
220.9039207528615
  0
POLYLINE
  5
E345
  8
0
  6
CONTINUOUS
 66
     1
 10
0.0
 20
0.0
 30
0.0
  0
VERTEX
  5
E346
  8
0
  6
CONTINUOUS
 10
1.777475048347229
 20
1.481989681559027
 30
0.0
  0
VERTEX
  5
E347
  8
0
  6
CONTINUOUS
 10
2.3138770317224271
 20
1.9466999073117961
 30
0.0
  0
VERTEX
  5
E348
  8
0
  6
CONTINUOUS
 10
2.374719853940177
 20
1.9466999073117961
 30
0.0
  0
SEQEND
  5
E349
  8
0
  6
CONTINUOUS
  0
ENDBLK
  5
E34B
  8
0
  0
BLOCK
  8
0
  2
*U82
 70
     1
 10
0.0
 20
0.0
 30
0.0
  3
*U82
  1

  0
TEXT
  5
E34D
  8
0
 10
2.437219853940177
 20
1.8841999073117961
 30
0.0
 40
0.125
  1
1-1/16" x 1-3/4" w/
  0
TEXT
  5
E34E
  8
0
 10
2.437219853940177
 20
1.6758665739784619
 30
0.0
 40
0.125
  1
1/4" Bead
  0
ENDBLK
  5
E350
  8
0
  0
BLOCK
  8
0
  2
*U83
 70
     1
 10
0.0
 20
0.0
 30
0.0
  3
*U83
  1

  0
TEXT
  5
E352
  8
0
 10
2.133917541145478
 20
1.2502033969354041
 30
0.0
 40
0.125
  1
3/4" x 1-1/2"
  0
TEXT
  5
E353
  8
0
 10
2.133917541145478
 20
1.041870063602071
 30
0.0
 40
0.125
  1
w/ 1/4" Bead
  0
ENDBLK
  5
E355
  8
0
  0
BLOCK
  8
0
  2
*U84
 70
     1
 10
0.0
 20
0.0
 30
0.0
  3
*U84
  1

  0
INSERT
  5
E357
  8
0
  2
_OPEN30
 10
1.500499089344373
 20
1.7527654715287611
 30
0.0
 41
0.046875
 42
0.046875
 43
0.046875
 50
140.1402731310821
  0
POLYLINE
  5
E358
  8
0
 66
     1
 10
0.0
 20
0.0
 30
0.0
  0
VERTEX
  5
E359
  8
0
 10
1.5364810816755761
 20
1.7227228043223151
 30
0.0
  0
VERTEX
  5
E35A
  8
0
 10
2.0275598221502369
 20
1.3127033969354041
 30
0.0
  0
VERTEX
  5
E35B
  8
0
 10
2.071417541145478
 20
1.3127033969354041
 30
0.0
  0
SEQEND
  5
E35C
  8
0
  0
ENDBLK
  5
E35E
  8
0
  0
BLOCK
  8
0
  2
*U85
 70
     1
 10
0.0
 20
0.0
 30
0.0
  3
*U85
  1

  0
TEXT
  5
E360
  8
0
 10
1.7389030780287831
 20
0.2469771306898849
 30
0.0
 40
0.125
  1
TL-AB027
  0
TEXT
  5
E361
  8
0
 10
1.7389030780287831
 20
0.0386437973565516
 30
0.0
 40
0.125
  1
   
  0
ENDBLK
  5
E363
  8
0
  0
BLOCK
  8
0
  2
*U86
 70
     1
 10
0.0
 20
0.0
 30
0.0
  3
*U86
  1

  0
INSERT
  5
E365
  8
0
  2
_OPEN30
 10
1.044939929512736
 20
0.9313599776325247
 30
0.0
 41
0.046875
 42
0.046875
 43
0.046875
 50
133.2825755670213
  0
POLYLINE
  5
E366
  8
0
 66
     1
 10
0.0
 20
0.0
 30
0.0
  0
VERTEX
  5
E367
  8
0
 10
1.0770772886782951
 20
0.8972358546274739
 30
0.0
  0
VERTEX
  5
E368
  8
0
 10
1.6306157110745969
 20
0.3094771306898849
 30
0.0
  0
VERTEX
  5
E369
  8
0
 10
1.6764030780287831
 20
0.3094771306898849
 30
0.0
  0
SEQEND
  5
E36A
  8
0
  0
ENDBLK
  5
E36C
  8
0
  0
BLOCK
  8
0
  2
*U87
 70
     1
 10
0.0
 20
0.0
 30
0.0
  3
*U87
  1

  0
TEXT
  5
E36E
  8
0
 10
3.883321989091427
 20
0.7335451023873532
 30
0.0
 40
0.125
  1
Wainscot Cap Assembly
  0
TEXT
  5
E36F
  8
0
 10
3.883321989091427
 20
0.52521176905402
 30
0.0
 40
0.125
  1
TL-
  0
TEXT
  5
E370
  8
0
 10
3.883321989091427
 20
0.3168784357206865
 30
0.0
 40
0.125
  1
1-1/2" x 1-3/4"
  0
TEXT
  5
E371
  8
0
 10
3.883321989091427
 20
0.1085451023873531
 30
0.0
 40
0.125
  1
800.66.TAGUE
  0
ENDBLK
  5
E373
  8
0
  0
BLOCK
  8
0
  2
*U88
 70
     1
 10
0.0
 20
0.0
 30
0.0
  3
*U88
  1

  0
TEXT
  5
E375
  8
0
 10
2.2761781755017401
 20
0.6780823703752789
 30
0.0
 40
0.125
  1
Wainscot Cap
  0
TEXT
  5
E376
  8
0
 10
2.2761781755017401
 20
0.4697490370419455
 30
0.0
 40
0.125
  1
TL-289
  0
TEXT
  5
E377
  8
0
 10
2.2761781755017401
 20
0.2614157037086121
 30
0.0
 40
0.125
  1
1-1/16" x 1-11/16"
  0
TEXT
  5
E378
  8
0
 10
2.2761781755017401
 20
0.0530823703752788
 30
0.0
 40
0.125
  1
800.66.TAGUE
  0
ENDBLK
  5
E37A
  8
0
  0
BLOCK
  8
0
  2
*U89
 70
     1
 10
0.0
 20
0.0
 30
0.0
  3
*U89
  1

  0
TEXT
  5
E37C
  8
0
 10
2.6708331154061389
 20
3.219511212982666
 30
0.0
 40
0.125
  1
Wainscot Cap
  0
TEXT
  5
E37D
  8
0
 10
2.6708331154061389
 20
3.0111778796493329
 30
0.0
 40
0.125
  1
TL-2083
  0
TEXT
  5
E37E
  8
0
 10
2.6708331154061389
 20
2.8028445463159999
 30
0.0
 40
0.125
  1
2-5/8" x 4-3/4"
  0
TEXT
  5
E37F
  8
0
 10
2.6708331154061389
 20
2.594511212982666
 30
0.0
 40
0.125
  1
800.66.TAGUE
  0
ENDBLK
  5
E381
  8
0
  0
BLOCK
  8
0
  2
*U90
 70
     1
 10
0.0
 20
0.0
 30
0.0
  3
*U90
  1

  0
TEXT
  5
E387
  8
0
 10
4.2993760137185291
 20
3.330140194350661
 30
0.0
 40
0.125
  1
Wainscot Cap
  0
TEXT
  5
E388
  8
0
 10
4.2993760137185291
 20
3.121806861017328
 30
0.0
 40
0.125
  1
TL-As Noted
  0
TEXT
  5
E389
  8
0
 10
4.2993760137185291
 20
2.913473527683994
 30
0.0
 40
0.125
  1
2-3/16" x 6-3/4"
  0
TEXT
  5
E38A
  8
0
 10
4.2993760137185291
 20
2.705140194350661
 30
0.0
 40
0.125
  1
800.66.TAGUE
  0
ENDBLK
  5
E38C
  8
0
  0
BLOCK
  8
0
  2
*U91
 70
     1
 10
0.0
 20
0.0
 30
0.0
  3
*U91
  1

  0
TEXT
  5
E38E
  8
0
 10
2.3085828176867831
 20
3.1784082361857879
 30
0.0
 40
0.125
  1
Filler Piece
  0
ENDBLK
  5
E390
  8
0
  0
BLOCK
  8
0
  2
*U92
 70
     1
 10
0.0
 20
0.0
 30
0.0
  3
*U92
  1

  0
INSERT
  5
E392
  8
0
  2
_OPEN30
 10
0.3471508952655995
 20
2.4255893924655818
 30
0.0
 41
0.046875
 42
0.046875
 43
0.046875
 50
204.3207922762185
  0
POLYLINE
  5
E393
  8
0
 66
     1
 10
0.0
 20
0.0
 30
0.0
  0
VERTEX
  5
E394
  8
0
 10
0.3898659209218647
 20
2.4448946303088359
 30
0.0
  0
VERTEX
  5
E395
  8
0
 10
2.1511361976126859
 20
3.2409082361857879
 30
0.0
  0
VERTEX
  5
E396
  8
0
 10
2.2460828176867831
 20
3.2409082361857879
 30
0.0
  0
SEQEND
  5
E397
  8
0
  0
ENDBLK
  5
E399
  8
0
  0
BLOCK
  8
0
  2
*U93
 70
     1
 10
0.0
 20
0.0
 30
0.0
  3
*U93
  1

  0
TEXT
  5
E39B
  8
0
 10
2.3528350737013279
 20
2.1100929014831129
 30
0.0
 40
0.125
  1
TL-2134  7/8" x 4-1/8"
  0
ENDBLK
  5
E39D
  8
0
  0
BLOCK
  8
0
  2
*U94
 70
     1
 10
0.0
 20
0.0
 30
0.0
  3
*U94
  1

  0
INSERT
  5
E39F
  8
0
  2
_OPEN30
 10
1.5619554872444601
 20
1.8622505399803511
 30
0.0
 41
0.046875
 42
0.046875
 43
0.046875
 50
206.5627893847132
  0
POLYLINE
  5
E3A0
  8
0
 66
     1
 10
0.0
 20
0.0
 30
0.0
  0
VERTEX
  5
E3A1
  8
0
 10
1.6038825893249311
 20
1.8832120221830451
 30
0.0
  0
VERTEX
  5
E3A2
  8
0
 10
2.182701470033237
 20
2.1725929014831129
 30
0.0
  0
VERTEX
  5
E3A3
  8
0
 10
2.2903350737013279
 20
2.1725929014831129
 30
0.0
  0
SEQEND
  5
E3A4
  8
0
  0
ENDBLK
  5
E3A6
  8
0
  0
BLOCK
  8
0
  2
*U95
 70
     1
 10
0.0
 20
0.0
 30
0.0
  3
*U95
  1

  0
TEXT
  5
E3A8
  8
0
 10
2.2595573346518441
 20
4.9049436195801093
 30
0.0
 40
0.125
  1
TL-2133  1-13/16" x 2-3/16"
  0
ENDBLK
  5
E3AA
  8
0
  0
BLOCK
  8
0
  2
*U96
 70
     1
 10
0.0
 20
0.0
 30
0.0
  3
*U96
  1

  0
INSERT
  5
E3AC
  8
0
  2
_OPEN30
 10
1.4686777481949771
 20
4.6571012580773461
 30
0.0
 41
0.046875
 42
0.046875
 43
0.046875
 50
206.5627893847132
  0
POLYLINE
  5
E3AD
  8
0
 66
     1
 10
0.0
 20
0.0
 30
0.0
  0
VERTEX
  5
E3AE
  8
0
 10
1.510604850275447
 20
4.6780627402800397
 30
0.0
  0
VERTEX
  5
E3AF
  8
0
 10
2.0894237309837531
 20
4.9674436195801093
 30
0.0
  0
VERTEX
  5
E3B0
  8
0
 10
2.1970573346518441
 20
4.9674436195801093
 30
0.0
  0
SEQEND
  5
E3B1
  8
0
  0
ENDBLK
  5
E3B3
  8
0
  0
BLOCK
  8
0
  2
*U97
 70
     1
 10
0.0
 20
0.0
 30
0.0
  3
*U97
  1

  0
TEXT
  5
E3B5
  8
0
 10
1.3310546361284421
 20
6.448424812346758
 30
0.0
 40
0.125
  1
TL-2132   3/4" x 1"
  0
ENDBLK
  5
E3B7
  8
0
  0
BLOCK
  8
0
  2
*U98
 70
     1
 10
0.0
 20
0.0
 30
0.0
  3
*U98
  1

  0
INSERT
  5
E3B9
  8
0
  2
_OPEN30
 10
0.540175049671575
 20
6.2005824508439948
 30
0.0
 41
0.046875
 42
0.046875
 43
0.046875
 50
206.5627893847132
  0
POLYLINE
  5
E3BA
  8
0
 66
     1
 10
0.0
 20
0.0
 30
0.0
  0
VERTEX
  5
E3BB
  8
0
 10
0.5821021517520451
 20
6.2215439330466893
 30
0.0
  0
VERTEX
  5
E3BC
  8
0
 10
1.1609210324603501
 20
6.510924812346758
 30
0.0
  0
VERTEX
  5
E3BD
  8
0
 10
1.2685546361284421
 20
6.510924812346758
 30
0.0
  0
SEQEND
  5
E3BE
  8
0
  0
ENDBLK
  5
E3C0
  8
0
  0
BLOCK
  8
0
  2
*U99
 70
     1
 10
0.0
 20
0.0
 30
0.0
  3
*U99
  1

  0
TEXT
  5
E3C2
  8
0
 10
2.5899206558918868
 20
0.6780820183220442
 30
0.0
 40
0.125
  1
Wainscot Cap
  0
TEXT
  5
E3C3
  8
0
 10
2.5899206558918868
 20
0.4697486849887109
 30
0.0
 40
0.125
  1
TL-2191
  0
TEXT
  5
E3C4
  8
0
 10
2.5899206558918868
 20
0.2614153516553776
 30
0.0
 40
0.125
  1
3/4" x 1-3/4"
  0
TEXT
  5
E3C5
  8
0
 10
2.5899206558918868
 20
0.0530820183220442
 30
0.0
 40
0.125
  1
800.66.TAGUE
  0
ENDBLK
  5
E3C7
  8
0
  0
BLOCK
  8
0
  2
*U100
 70
     1
 10
0.0
 20
0.0
 30
0.0
  3
*U100
  1

  0
TEXT
  5
E3C9
  8
0
 10
2.311070557677112
 20
1.472337689783614
 30
0.0
 40
0.125
  1
Water Table
  0
TEXT
  5
E3CA
  8
0
 10
2.311070557677112
 20
1.264004356450281
 30
0.0
 40
0.125
  1
TL-4
  0
TEXT
  5
E3CB
  8
0
 10
2.311070557677112
 20
1.0556710231169479
 30
0.0
 40
0.125
  1
1-1/2" x 1-9/16" x 37"
  0
TEXT
  5
E3CC
  8
0
 10
2.311070557677112
 20
0.8473376897836146
 30
0.0
 40
0.125
  1
800.66.TAGUE
  0
ENDBLK
  5
E3CE
  8
0
  0
BLOCK
  8
0
  2
*U101
 70
     1
 10
0.0
 20
0.0
 30
0.0
  3
*U101
  1

  0
TEXT
  5
E3D0
  8
0
 10
3.4560014914256949
 20
3.125424213515287
 30
0.0
 40
0.125
  1
Window Sill
  0
TEXT
  5
E3D1
  8
0
 10
3.4560014914256949
 20
2.9170908801819539
 30
0.0
 40
0.125
  1
TL-1080
  0
TEXT
  5
E3D2
  8
0
 10
3.4560014914256949
 20
2.7087575468486209
 30
0.0
 40
0.125
  1
1-1/4" x 6-1/4"
  0
TEXT
  5
E3D3
  8
0
 10
3.4560014914256949
 20
2.500424213515287
 30
0.0
 40
0.125
  1
800.66.TAGUE
  0
ENDBLK
  5
E3D5
  8
0
  0
BLOCK
  8
0
  2
*U102
 70
     1
 10
0.0
 20
0.0
 30
0.0
  3
*U102
  1

  0
TEXT
  5
E3D7
  8
0
 10
-387.63452880076051
 20
840.13702604566868
 30
0.0
 40
0.125
  1
Window Sill
  0
TEXT
  5
E3D8
  8
0
 10
-387.63452880076051
 20
839.92869271233542
 30
0.0
 40
0.125
  1
TL-1080
  0
TEXT
  5
E3D9
  8
0
 10
-387.63452880076051
 20
839.72035937900205
 30
0.0
 40
0.125
  1
1-1/4" x 6-1/4"
  0
TEXT
  5
E3DA
  8
0
 10
-387.63452880076051
 20
839.51202604566868
 30
0.0
 40
0.125
  1
800.66.TAGUE
  0
ENDBLK
  5
E3DC
  8
0
  0
ENDSEC
  0
SECTION
  2
ENTITIES
  0
INSERT
  5
E20C
  8
0
  2
*U102
 10
0.0
 20
0.0
 30
0.0
  0
LINE
  5
E20D
  8
0
 10
-390.99153607274809
 20
838.31820359922961
 30
0.0
 11
-391.0905291356209
 21
839.55915442881349
 31
0.0
  0
LINE
  5
E20E
  8
0
 10
-390.22108642438582
 20
838.20705359279475
 30
0.0
 11
-390.24994561786258
 21
838.35990656649676
 31
0.0
  0
LINE
  5
E20F
  8
0
 10
-389.50768613440499
 20
838.17924118645772
 30
0.0
 11
-389.54291017806969
 21
838.03796526372525
 31
0.0
  0
LINE
  5
E210
  8
0
 10
-389.34775154172002
 20
837.98930675068664
 30
0.0
 11
-389.31252749805532
 21
838.13058267341887
 31
0.0
  0
LINE
  5
E211
  8
0
 10
-388.46886444827481
 20
837.92023385014443
 30
0.0
 11
-388.50408849193951
 21
837.77895792741208
 31
0.0
  0
LINE
  5
E212
  8
0
 10
-388.30892985558972
 20
837.73029941437358
 30
0.0
 11
-388.27370581192503
 21
837.87157533710592
 31
0.0
  0
LINE
  5
E213
  8
0
 10
-387.26026379941629
 20
837.61889586412985
 30
0.0
 11
-387.29548784308099
 21
837.47761994139717
 31
0.0
  0
LINE
  5
E214
  8
0
 10
-387.1003292067312
 20
837.42896142835855
 30
0.0
 11
-387.06510516306662
 21
837.5702373510909
 31
0.0
  0
LINE
  5
E215
  8
0
 10
-386.38182366190858
 20
837.52243064659751
 30
0.0
 11
-386.52642791064437
 21
837.28587176437622
 31
0.0
  0
LINE
  5
E216
  8
0
 10
-386.01181034976969
 20
837.15756319569516
 30
0.0
 11
-386.02843065498092
 21
837.43431987396139
 31
0.0
  0
LINE
  5
E217
  8
0
 10
-385.52701131120813
 20
837.18129988127271
 30
0.0
 11
-385.59218812144701
 21
837.15003705989068
 31
0.0
  0
LINE
  5
E218
  8
0
 10
-385.6149803640356
 20
837.05862236788403
 30
0.0
 11
-385.59218812144701
 21
837.15003705989068
 31
0.0
  0
LINE
  5
E219
  8
0
 10
-385.12738714835189
 20
837.95017514912627
 30
0.0
 11
-385.14571702522028
 21
837.09228413102323
 31
0.0
  0
LINE
  5
E21A
  8
0
 10
-386.01181034976969
 20
837.15756319569516
 30
0.0
 11
-385.6149803640356
 21
837.05862236788403
 31
0.0
  0
LINE
  5
E21B
  8
0
 10
-386.38182366190858
 20
837.52243064659751
 30
0.0
 11
-386.02843065498092
 21
837.43431987396139
 31
0.0
  0
LINE
  5
E21C
  8
0
 10
-387.1003292067312
 20
837.42896142835855
 30
0.0
 11
-386.52642791064437
 21
837.28587176437622
 31
0.0
  0
LINE
  5
E21D
  8
0
 10
-387.26026379941629
 20
837.61889586412985
 30
0.0
 11
-387.06510516306662
 21
837.5702373510909
 31
0.0
  0
LINE
  5
E21E
  8
0
 10
-388.30892985558972
 20
837.73029941437358
 30
0.0
 11
-387.29548784308099
 21
837.47761994139717
 31
0.0
  0
LINE
  5
E21F
  8
0
 10
-388.46886444827481
 20
837.92023385014443
 30
0.0
 11
-388.27370581192503
 21
837.87157533710592
 31
0.0
  0
LINE
  5
E220
  8
0
 10
-389.34775154172002
 20
837.98930675068664
 30
0.0
 11
-388.50408849193951
 21
837.77895792741208
 31
0.0
  0
LINE
  5
E221
  8
0
 10
-389.50768613440499
 20
838.17924118645772
 30
0.0
 11
-389.31252749805532
 21
838.13058267341887
 31
0.0
  0
LINE
  5
E222
  8
0
 10
-390.22108642438582
 20
838.20705359279475
 30
0.0
 11
-389.54291017806969
 21
838.03796526372525
 31
0.0
  0
LINE
  5
E223
  8
0
 10
-390.99153607274809
 20
838.31820359922961
 30
0.0
 11
-390.24994561786258
 21
838.35990656649676
 31
0.0
  0
LINE
  5
E224
  8
0
 10
-386.29027612272409
 20
838.24011593463501
 30
0.0
 11
-385.12738714835189
 21
837.95017514912627
 31
0.0
  0
LINE
  5
E225
  8
0
 10
-391.0905291356209
 20
839.55915442881349
 30
0.0
 11
-386.39737884802651
 21
838.38902064056469
 31
0.0
  0
LINE
  5
E226
  8
0
  6
CONTINUOUS
 10
-386.39737884802651
 20
838.38902064056469
 30
0.0
 11
-386.29027612272409
 21
838.24011593463501
 31
0.0
  0
POLYLINE
  8
0
  5
E4FF
  66
     1
 10
0.000000
 20
0.000000
 30
0.000000
  70
     8
  0
VERTEX
  8
0
  5
E500
 10
-385.527
 20
837.181
 30
0.000000
  70
    32
  0
VERTEX
  8
0
  5
E501
 10
-385.526
 20
837.180
 30
0.000000
  70
    32
  0
VERTEX
  8
0
  5
E502
 10
-385.525
 20
837.179
 30
0.000000
  70
    32
  0
VERTEX
  8
0
  5
E503
 10
-385.524
 20
837.178
 30
0.000000
  70
    32
  0
VERTEX
  8
0
  5
E504
 10
-385.523
 20
837.176
 30
0.000000
  70
    32
  0
VERTEX
  8
0
  5
E505
 10
-385.521
 20
837.175
 30
0.000000
  70
    32
  0
VERTEX
  8
0
  5
E506
 10
-385.520
 20
837.174
 30
0.000000
  70
    32
  0
VERTEX
  8
0
  5
E507
 10
-385.519
 20
837.173
 30
0.000000
  70
    32
  0
VERTEX
  8
0
  5
E508
 10
-385.518
 20
837.171
 30
0.000000
  70
    32
  0
VERTEX
  8
0
  5
E509
 10
-385.517
 20
837.170
 30
0.000000
  70
    32
  0
VERTEX
  8
0
  5
E50A
 10
-385.516
 20
837.169
 30
0.000000
  70
    32
  0
VERTEX
  8
0
  5
E50B
 10
-385.515
 20
837.168
 30
0.000000
  70
    32
  0
VERTEX
  8
0
  5
E50C
 10
-385.514
 20
837.166
 30
0.000000
  70
    32
  0
VERTEX
  8
0
  5
E50D
 10
-385.513
 20
837.165
 30
0.000000
  70
    32
  0
VERTEX
  8
0
  5
E50E
 10
-385.511
 20
837.164
 30
0.000000
  70
    32
  0
VERTEX
  8
0
  5
E50F
 10
-385.510
 20
837.163
 30
0.000000
  70
    32
  0
VERTEX
  8
0
  5
E510
 10
-385.509
 20
837.162
 30
0.000000
  70
    32
  0
VERTEX
  8
0
  5
E511
 10
-385.508
 20
837.160
 30
0.000000
  70
    32
  0
VERTEX
  8
0
  5
E512
 10
-385.507
 20
837.159
 30
0.000000
  70
    32
  0
VERTEX
  8
0
  5
E513
 10
-385.506
 20
837.158
 30
0.000000
  70
    32
  0
VERTEX
  8
0
  5
E514
 10
-385.505
 20
837.157
 30
0.000000
  70
    32
  0
VERTEX
  8
0
  5
E515
 10
-385.504
 20
837.155
 30
0.000000
  70
    32
  0
VERTEX
  8
0
  5
E516
 10
-385.503
 20
837.154
 30
0.000000
  70
    32
  0
VERTEX
  8
0
  5
E517
 10
-385.501
 20
837.153
 30
0.000000
  70
    32
  0
VERTEX
  8
0
  5
E518
 10
-385.500
 20
837.152
 30
0.000000
  70
    32
  0
VERTEX
  8
0
  5
E519
 10
-385.499
 20
837.150
 30
0.000000
  70
    32
  0
VERTEX
  8
0
  5
E51A
 10
-385.498
 20
837.149
 30
0.000000
  70
    32
  0
VERTEX
  8
0
  5
E51B
 10
-385.497
 20
837.148
 30
0.000000
  70
    32
  0
VERTEX
  8
0
  5
E51C
 10
-385.496
 20
837.147
 30
0.000000
  70
    32
  0
VERTEX
  8
0
  5
E51D
 10
-385.495
 20
837.146
 30
0.000000
  70
    32
  0
VERTEX
  8
0
  5
E51E
 10
-385.494
 20
837.144
 30
0.000000
  70
    32
  0
VERTEX
  8
0
  5
E51F
 10
-385.492
 20
837.143
 30
0.000000
  70
    32
  0
VERTEX
  8
0
  5
E520
 10
-385.491
 20
837.142
 30
0.000000
  70
    32
  0
VERTEX
  8
0
  5
E521
 10
-385.490
 20
837.141
 30
0.000000
  70
    32
  0
VERTEX
  8
0
  5
E522
 10
-385.489
 20
837.139
 30
0.000000
  70
    32
  0
VERTEX
  8
0
  5
E523
 10
-385.488
 20
837.138
 30
0.000000
  70
    32
  0
VERTEX
  8
0
  5
E524
 10
-385.487
 20
837.137
 30
0.000000
  70
    32
  0
VERTEX
  8
0
  5
E525
 10
-385.486
 20
837.136
 30
0.000000
  70
    32
  0
VERTEX
  8
0
  5
E526
 10
-385.485
 20
837.135
 30
0.000000
  70
    32
  0
VERTEX
  8
0
  5
E527
 10
-385.483
 20
837.133
 30
0.000000
  70
    32
  0
VERTEX
  8
0
  5
E528
 10
-385.482
 20
837.132
 30
0.000000
  70
    32
  0
VERTEX
  8
0
  5
E529
 10
-385.481
 20
837.131
 30
0.000000
  70
    32
  0
VERTEX
  8
0
  5
E52A
 10
-385.480
 20
837.130
 30
0.000000
  70
    32
  0
VERTEX
  8
0
  5
E52B
 10
-385.479
 20
837.128
 30
0.000000
  70
    32
  0
VERTEX
  8
0
  5
E52C
 10
-385.478
 20
837.127
 30
0.000000
  70
    32
  0
VERTEX
  8
0
  5
E52D
 10
-385.477
 20
837.126
 30
0.000000
  70
    32
  0
VERTEX
  8
0
  5
E52E
 10
-385.475
 20
837.125
 30
0.000000
  70
    32
  0
VERTEX
  8
0
  5
E52F
 10
-385.474
 20
837.124
 30
0.000000
  70
    32
  0
VERTEX
  8
0
  5
E530
 10
-385.473
 20
837.122
 30
0.000000
  70
    32
  0
VERTEX
  8
0
  5
E531
 10
-385.472
 20
837.121
 30
0.000000
  70
    32
  0
VERTEX
  8
0
  5
E532
 10
-385.471
 20
837.120
 30
0.000000
  70
    32
  0
VERTEX
  8
0
  5
E533
 10
-385.470
 20
837.119
 30
0.000000
  70
    32
  0
VERTEX
  8
0
  5
E534
 10
-385.469
 20
837.117
 30
0.000000
  70
    32
  0
VERTEX
  8
0
  5
E535
 10
-385.467
 20
837.116
 30
0.000000
  70
    32
  0
VERTEX
  8
0
  5
E536
 10
-385.466
 20
837.115
 30
0.000000
  70
    32
  0
VERTEX
  8
0
  5
E537
 10
-385.465
 20
837.114
 30
0.000000
  70
    32
  0
VERTEX
  8
0
  5
E538
 10
-385.464
 20
837.113
 30
0.000000
  70
    32
  0
VERTEX
  8
0
  5
E539
 10
-385.463
 20
837.111
 30
0.000000
  70
    32
  0
VERTEX
  8
0
  5
E53A
 10
-385.462
 20
837.110
 30
0.000000
  70
    32
  0
VERTEX
  8
0
  5
E53B
 10
-385.460
 20
837.109
 30
0.000000
  70
    32
  0
VERTEX
  8
0
  5
E53C
 10
-385.459
 20
837.108
 30
0.000000
  70
    32
  0
VERTEX
  8
0
  5
E53D
 10
-385.458
 20
837.107
 30
0.000000
  70
    32
  0
VERTEX
  8
0
  5
E53E
 10
-385.457
 20
837.105
 30
0.000000
  70
    32
  0
VERTEX
  8
0
  5
E53F
 10
-385.456
 20
837.104
 30
0.000000
  70
    32
  0
VERTEX
  8
0
  5
E540
 10
-385.455
 20
837.103
 30
0.000000
  70
    32
  0
VERTEX
  8
0
  5
E541
 10
-385.453
 20
837.102
 30
0.000000
  70
    32
  0
VERTEX
  8
0
  5
E542
 10
-385.452
 20
837.101
 30
0.000000
  70
    32
  0
VERTEX
  8
0
  5
E543
 10
-385.451
 20
837.099
 30
0.000000
  70
    32
  0
VERTEX
  8
0
  5
E544
 10
-385.450
 20
837.098
 30
0.000000
  70
    32
  0
VERTEX
  8
0
  5
E545
 10
-385.449
 20
837.097
 30
0.000000
  70
    32
  0
VERTEX
  8
0
  5
E546
 10
-385.447
 20
837.096
 30
0.000000
  70
    32
  0
VERTEX
  8
0
  5
E547
 10
-385.446
 20
837.095
 30
0.000000
  70
    32
  0
VERTEX
  8
0
  5
E548
 10
-385.445
 20
837.094
 30
0.000000
  70
    32
  0
VERTEX
  8
0
  5
E549
 10
-385.444
 20
837.092
 30
0.000000
  70
    32
  0
VERTEX
  8
0
  5
E54A
 10
-385.443
 20
837.091
 30
0.000000
  70
    32
  0
VERTEX
  8
0
  5
E54B
 10
-385.441
 20
837.090
 30
0.000000
  70
    32
  0
VERTEX
  8
0
  5
E54C
 10
-385.440
 20
837.089
 30
0.000000
  70
    32
  0
VERTEX
  8
0
  5
E54D
 10
-385.439
 20
837.088
 30
0.000000
  70
    32
  0
VERTEX
  8
0
  5
E54E
 10
-385.438
 20
837.087
 30
0.000000
  70
    32
  0
VERTEX
  8
0
  5
E54F
 10
-385.437
 20
837.086
 30
0.000000
  70
    32
  0
VERTEX
  8
0
  5
E550
 10
-385.435
 20
837.084
 30
0.000000
  70
    32
  0
VERTEX
  8
0
  5
E551
 10
-385.434
 20
837.083
 30
0.000000
  70
    32
  0
VERTEX
  8
0
  5
E552
 10
-385.433
 20
837.082
 30
0.000000
  70
    32
  0
VERTEX
  8
0
  5
E553
 10
-385.432
 20
837.081
 30
0.000000
  70
    32
  0
VERTEX
  8
0
  5
E554
 10
-385.430
 20
837.080
 30
0.000000
  70
    32
  0
VERTEX
  8
0
  5
E555
 10
-385.429
 20
837.079
 30
0.000000
  70
    32
  0
VERTEX
  8
0
  5
E556
 10
-385.428
 20
837.078
 30
0.000000
  70
    32
  0
VERTEX
  8
0
  5
E557
 10
-385.427
 20
837.077
 30
0.000000
  70
    32
  0
VERTEX
  8
0
  5
E558
 10
-385.425
 20
837.076
 30
0.000000
  70
    32
  0
VERTEX
  8
0
  5
E559
 10
-385.424
 20
837.074
 30
0.000000
  70
    32
  0
VERTEX
  8
0
  5
E55A
 10
-385.423
 20
837.073
 30
0.000000
  70
    32
  0
VERTEX
  8
0
  5
E55B
 10
-385.422
 20
837.072
 30
0.000000
  70
    32
  0
VERTEX
  8
0
  5
E55C
 10
-385.420
 20
837.071
 30
0.000000
  70
    32
  0
VERTEX
  8
0
  5
E55D
 10
-385.419
 20
837.070
 30
0.000000
  70
    32
  0
VERTEX
  8
0
  5
E55E
 10
-385.418
 20
837.069
 30
0.000000
  70
    32
  0
VERTEX
  8
0
  5
E55F
 10
-385.417
 20
837.068
 30
0.000000
  70
    32
  0
VERTEX
  8
0
  5
E560
 10
-385.415
 20
837.067
 30
0.000000
  70
    32
  0
VERTEX
  8
0
  5
E561
 10
-385.414
 20
837.066
 30
0.000000
  70
    32
  0
VERTEX
  8
0
  5
E562
 10
-385.413
 20
837.065
 30
0.000000
  70
    32
  0
VERTEX
  8
0
  5
E563
 10
-385.411
 20
837.064
 30
0.000000
  70
    32
  0
VERTEX
  8
0
  5
E564
 10
-385.410
 20
837.063
 30
0.000000
  70
    32
  0
VERTEX
  8
0
  5
E565
 10
-385.409
 20
837.062
 30
0.000000
  70
    32
  0
VERTEX
  8
0
  5
E566
 10
-385.407
 20
837.061
 30
0.000000
  70
    32
  0
VERTEX
  8
0
  5
E567
 10
-385.406
 20
837.060
 30
0.000000
  70
    32
  0
VERTEX
  8
0
  5
E568
 10
-385.405
 20
837.059
 30
0.000000
  70
    32
  0
VERTEX
  8
0
  5
E569
 10
-385.403
 20
837.058
 30
0.000000
  70
    32
  0
VERTEX
  8
0
  5
E56A
 10
-385.402
 20
837.057
 30
0.000000
  70
    32
  0
VERTEX
  8
0
  5
E56B
 10
-385.401
 20
837.056
 30
0.000000
  70
    32
  0
VERTEX
  8
0
  5
E56C
 10
-385.399
 20
837.055
 30
0.000000
  70
    32
  0
VERTEX
  8
0
  5
E56D
 10
-385.398
 20
837.054
 30
0.000000
  70
    32
  0
VERTEX
  8
0
  5
E56E
 10
-385.397
 20
837.053
 30
0.000000
  70
    32
  0
VERTEX
  8
0
  5
E56F
 10
-385.395
 20
837.052
 30
0.000000
  70
    32
  0
VERTEX
  8
0
  5
E570
 10
-385.394
 20
837.051
 30
0.000000
  70
    32
  0
VERTEX
  8
0
  5
E571
 10
-385.393
 20
837.050
 30
0.000000
  70
    32
  0
VERTEX
  8
0
  5
E572
 10
-385.391
 20
837.049
 30
0.000000
  70
    32
  0
VERTEX
  8
0
  5
E573
 10
-385.390
 20
837.048
 30
0.000000
  70
    32
  0
VERTEX
  8
0
  5
E574
 10
-385.389
 20
837.047
 30
0.000000
  70
    32
  0
VERTEX
  8
0
  5
E575
 10
-385.387
 20
837.047
 30
0.000000
  70
    32
  0
VERTEX
  8
0
  5
E576
 10
-385.386
 20
837.046
 30
0.000000
  70
    32
  0
VERTEX
  8
0
  5
E577
 10
-385.384
 20
837.045
 30
0.000000
  70
    32
  0
VERTEX
  8
0
  5
E578
 10
-385.383
 20
837.044
 30
0.000000
  70
    32
  0
VERTEX
  8
0
  5
E579
 10
-385.382
 20
837.043
 30
0.000000
  70
    32
  0
VERTEX
  8
0
  5
E57A
 10
-385.380
 20
837.042
 30
0.000000
  70
    32
  0
VERTEX
  8
0
  5
E57B
 10
-385.379
 20
837.041
 30
0.000000
  70
    32
  0
VERTEX
  8
0
  5
E57C
 10
-385.377
 20
837.040
 30
0.000000
  70
    32
  0
VERTEX
  8
0
  5
E57D
 10
-385.376
 20
837.040
 30
0.000000
  70
    32
  0
VERTEX
  8
0
  5
E57E
 10
-385.374
 20
837.039
 30
0.000000
  70
    32
  0
VERTEX
  8
0
  5
E57F
 10
-385.373
 20
837.038
 30
0.000000
  70
    32
  0
VERTEX
  8
0
  5
E580
 10
-385.371
 20
837.037
 30
0.000000
  70
    32
  0
VERTEX
  8
0
  5
E581
 10
-385.370
 20
837.036
 30
0.000000
  70
    32
  0
VERTEX
  8
0
  5
E582
 10
-385.369
 20
837.036
 30
0.000000
  70
    32
  0
VERTEX
  8
0
  5
E583
 10
-385.367
 20
837.035
 30
0.000000
  70
    32
  0
VERTEX
  8
0
  5
E584
 10
-385.366
 20
837.034
 30
0.000000
  70
    32
  0
VERTEX
  8
0
  5
E585
 10
-385.364
 20
837.033
 30
0.000000
  70
    32
  0
VERTEX
  8
0
  5
E586
 10
-385.363
 20
837.033
 30
0.000000
  70
    32
  0
VERTEX
  8
0
  5
E587
 10
-385.361
 20
837.032
 30
0.000000
  70
    32
  0
VERTEX
  8
0
  5
E588
 10
-385.360
 20
837.031
 30
0.000000
  70
    32
  0
VERTEX
  8
0
  5
E589
 10
-385.358
 20
837.030
 30
0.000000
  70
    32
  0
VERTEX
  8
0
  5
E58A
 10
-385.357
 20
837.030
 30
0.000000
  70
    32
  0
VERTEX
  8
0
  5
E58B
 10
-385.355
 20
837.029
 30
0.000000
  70
    32
  0
VERTEX
  8
0
  5
E58C
 10
-385.354
 20
837.028
 30
0.000000
  70
    32
  0
VERTEX
  8
0
  5
E58D
 10
-385.352
 20
837.028
 30
0.000000
  70
    32
  0
VERTEX
  8
0
  5
E58E
 10
-385.351
 20
837.027
 30
0.000000
  70
    32
  0
VERTEX
  8
0
  5
E58F
 10
-385.349
 20
837.026
 30
0.000000
  70
    32
  0
VERTEX
  8
0
  5
E590
 10
-385.348
 20
837.026
 30
0.000000
  70
    32
  0
VERTEX
  8
0
  5
E591
 10
-385.346
 20
837.025
 30
0.000000
  70
    32
  0
VERTEX
  8
0
  5
E592
 10
-385.345
 20
837.024
 30
0.000000
  70
    32
  0
VERTEX
  8
0
  5
E593
 10
-385.343
 20
837.024
 30
0.000000
  70
    32
  0
VERTEX
  8
0
  5
E594
 10
-385.341
 20
837.023
 30
0.000000
  70
    32
  0
VERTEX
  8
0
  5
E595
 10
-385.340
 20
837.022
 30
0.000000
  70
    32
  0
VERTEX
  8
0
  5
E596
 10
-385.338
 20
837.022
 30
0.000000
  70
    32
  0
VERTEX
  8
0
  5
E597
 10
-385.337
 20
837.021
 30
0.000000
  70
    32
  0
VERTEX
  8
0
  5
E598
 10
-385.335
 20
837.021
 30
0.000000
  70
    32
  0
VERTEX
  8
0
  5
E599
 10
-385.334
 20
837.020
 30
0.000000
  70
    32
  0
VERTEX
  8
0
  5
E59A
 10
-385.332
 20
837.019
 30
0.000000
  70
    32
  0
VERTEX
  8
0
  5
E59B
 10
-385.330
 20
837.019
 30
0.000000
  70
    32
  0
VERTEX
  8
0
  5
E59C
 10
-385.329
 20
837.018
 30
0.000000
  70
    32
  0
VERTEX
  8
0
  5
E59D
 10
-385.327
 20
837.018
 30
0.000000
  70
    32
  0
VERTEX
  8
0
  5
E59E
 10
-385.326
 20
837.017
 30
0.000000
  70
    32
  0
VERTEX
  8
0
  5
E59F
 10
-385.324
 20
837.017
 30
0.000000
  70
    32
  0
VERTEX
  8
0
  5
E5A0
 10
-385.322
 20
837.016
 30
0.000000
  70
    32
  0
VERTEX
  8
0
  5
E5A1
 10
-385.321
 20
837.016
 30
0.000000
  70
    32
  0
VERTEX
  8
0
  5
E5A2
 10
-385.319
 20
837.015
 30
0.000000
  70
    32
  0
VERTEX
  8
0
  5
E5A3
 10
-385.318
 20
837.015
 30
0.000000
  70
    32
  0
VERTEX
  8
0
  5
E5A4
 10
-385.316
 20
837.014
 30
0.000000
  70
    32
  0
VERTEX
  8
0
  5
E5A5
 10
-385.314
 20
837.014
 30
0.000000
  70
    32
  0
VERTEX
  8
0
  5
E5A6
 10
-385.313
 20
837.014
 30
0.000000
  70
    32
  0
VERTEX
  8
0
  5
E5A7
 10
-385.311
 20
837.013
 30
0.000000
  70
    32
  0
VERTEX
  8
0
  5
E5A8
 10
-385.309
 20
837.013
 30
0.000000
  70
    32
  0
VERTEX
  8
0
  5
E5A9
 10
-385.308
 20
837.012
 30
0.000000
  70
    32
  0
VERTEX
  8
0
  5
E5AA
 10
-385.306
 20
837.012
 30
0.000000
  70
    32
  0
VERTEX
  8
0
  5
E5AB
 10
-385.304
 20
837.012
 30
0.000000
  70
    32
  0
VERTEX
  8
0
  5
E5AC
 10
-385.303
 20
837.011
 30
0.000000
  70
    32
  0
VERTEX
  8
0
  5
E5AD
 10
-385.301
 20
837.011
 30
0.000000
  70
    32
  0
VERTEX
  8
0
  5
E5AE
 10
-385.299
 20
837.010
 30
0.000000
  70
    32
  0
VERTEX
  8
0
  5
E5AF
 10
-385.298
 20
837.010
 30
0.000000
  70
    32
  0
VERTEX
  8
0
  5
E5B0
 10
-385.296
 20
837.010
 30
0.000000
  70
    32
  0
VERTEX
  8
0
  5
E5B1
 10
-385.294
 20
837.010
 30
0.000000
  70
    32
  0
VERTEX
  8
0
  5
E5B2
 10
-385.293
 20
837.009
 30
0.000000
  70
    32
  0
VERTEX
  8
0
  5
E5B3
 10
-385.291
 20
837.009
 30
0.000000
  70
    32
  0
VERTEX
  8
0
  5
E5B4
 10
-385.289
 20
837.009
 30
0.000000
  70
    32
  0
VERTEX
  8
0
  5
E5B5
 10
-385.288
 20
837.008
 30
0.000000
  70
    32
  0
VERTEX
  8
0
  5
E5B6
 10
-385.286
 20
837.008
 30
0.000000
  70
    32
  0
VERTEX
  8
0
  5
E5B7
 10
-385.284
 20
837.008
 30
0.000000
  70
    32
  0
VERTEX
  8
0
  5
E5B8
 10
-385.282
 20
837.008
 30
0.000000
  70
    32
  0
VERTEX
  8
0
  5
E5B9
 10
-385.281
 20
837.008
 30
0.000000
  70
    32
  0
VERTEX
  8
0
  5
E5BA
 10
-385.279
 20
837.007
 30
0.000000
  70
    32
  0
VERTEX
  8
0
  5
E5BB
 10
-385.277
 20
837.007
 30
0.000000
  70
    32
  0
VERTEX
  8
0
  5
E5BC
 10
-385.276
 20
837.007
 30
0.000000
  70
    32
  0
VERTEX
  8
0
  5
E5BD
 10
-385.274
 20
837.007
 30
0.000000
  70
    32
  0
VERTEX
  8
0
  5
E5BE
 10
-385.272
 20
837.007
 30
0.000000
  70
    32
  0
VERTEX
  8
0
  5
E5BF
 10
-385.271
 20
837.007
 30
0.000000
  70
    32
  0
VERTEX
  8
0
  5
E5C0
 10
-385.269
 20
837.007
 30
0.000000
  70
    32
  0
VERTEX
  8
0
  5
E5C1
 10
-385.267
 20
837.007
 30
0.000000
  70
    32
  0
VERTEX
  8
0
  5
E5C2
 10
-385.266
 20
837.007
 30
0.000000
  70
    32
  0
VERTEX
  8
0
  5
E5C3
 10
-385.264
 20
837.007
 30
0.000000
  70
    32
  0
VERTEX
  8
0
  5
E5C4
 10
-385.262
 20
837.007
 30
0.000000
  70
    32
  0
VERTEX
  8
0
  5
E5C5
 10
-385.261
 20
837.007
 30
0.000000
  70
    32
  0
VERTEX
  8
0
  5
E5C6
 10
-385.259
 20
837.007
 30
0.000000
  70
    32
  0
VERTEX
  8
0
  5
E5C7
 10
-385.257
 20
837.007
 30
0.000000
  70
    32
  0
VERTEX
  8
0
  5
E5C8
 10
-385.256
 20
837.007
 30
0.000000
  70
    32
  0
VERTEX
  8
0
  5
E5C9
 10
-385.254
 20
837.007
 30
0.000000
  70
    32
  0
VERTEX
  8
0
  5
E5CA
 10
-385.252
 20
837.007
 30
0.000000
  70
    32
  0
VERTEX
  8
0
  5
E5CB
 10
-385.251
 20
837.007
 30
0.000000
  70
    32
  0
VERTEX
  8
0
  5
E5CC
 10
-385.249
 20
837.008
 30
0.000000
  70
    32
  0
VERTEX
  8
0
  5
E5CD
 10
-385.247
 20
837.008
 30
0.000000
  70
    32
  0
VERTEX
  8
0
  5
E5CE
 10
-385.246
 20
837.008
 30
0.000000
  70
    32
  0
VERTEX
  8
0
  5
E5CF
 10
-385.244
 20
837.008
 30
0.000000
  70
    32
  0
VERTEX
  8
0
  5
E5D0
 10
-385.242
 20
837.009
 30
0.000000
  70
    32
  0
VERTEX
  8
0
  5
E5D1
 10
-385.241
 20
837.009
 30
0.000000
  70
    32
  0
VERTEX
  8
0
  5
E5D2
 10
-385.239
 20
837.009
 30
0.000000
  70
    32
  0
VERTEX
  8
0
  5
E5D3
 10
-385.238
 20
837.010
 30
0.000000
  70
    32
  0
VERTEX
  8
0
  5
E5D4
 10
-385.236
 20
837.010
 30
0.000000
  70
    32
  0
VERTEX
  8
0
  5
E5D5
 10
-385.234
 20
837.011
 30
0.000000
  70
    32
  0
VERTEX
  8
0
  5
E5D6
 10
-385.233
 20
837.011
 30
0.000000
  70
    32
  0
VERTEX
  8
0
  5
E5D7
 10
-385.231
 20
837.011
 30
0.000000
  70
    32
  0
VERTEX
  8
0
  5
E5D8
 10
-385.230
 20
837.012
 30
0.000000
  70
    32
  0
VERTEX
  8
0
  5
E5D9
 10
-385.228
 20
837.013
 30
0.000000
  70
    32
  0
VERTEX
  8
0
  5
E5DA
 10
-385.227
 20
837.013
 30
0.000000
  70
    32
  0
VERTEX
  8
0
  5
E5DB
 10
-385.225
 20
837.014
 30
0.000000
  70
    32
  0
VERTEX
  8
0
  5
E5DC
 10
-385.224
 20
837.014
 30
0.000000
  70
    32
  0
VERTEX
  8
0
  5
E5DD
 10
-385.222
 20
837.015
 30
0.000000
  70
    32
  0
VERTEX
  8
0
  5
E5DE
 10
-385.221
 20
837.016
 30
0.000000
  70
    32
  0
VERTEX
  8
0
  5
E5DF
 10
-385.219
 20
837.016
 30
0.000000
  70
    32
  0
VERTEX
  8
0
  5
E5E0
 10
-385.218
 20
837.017
 30
0.000000
  70
    32
  0
VERTEX
  8
0
  5
E5E1
 10
-385.216
 20
837.018
 30
0.000000
  70
    32
  0
VERTEX
  8
0
  5
E5E2
 10
-385.215
 20
837.018
 30
0.000000
  70
    32
  0
VERTEX
  8
0
  5
E5E3
 10
-385.213
 20
837.019
 30
0.000000
  70
    32
  0
VERTEX
  8
0
  5
E5E4
 10
-385.212
 20
837.020
 30
0.000000
  70
    32
  0
VERTEX
  8
0
  5
E5E5
 10
-385.210
 20
837.021
 30
0.000000
  70
    32
  0
VERTEX
  8
0
  5
E5E6
 10
-385.209
 20
837.022
 30
0.000000
  70
    32
  0
VERTEX
  8
0
  5
E5E7
 10
-385.207
 20
837.023
 30
0.000000
  70
    32
  0
VERTEX
  8
0
  5
E5E8
 10
-385.206
 20
837.023
 30
0.000000
  70
    32
  0
VERTEX
  8
0
  5
E5E9
 10
-385.205
 20
837.024
 30
0.000000
  70
    32
  0
VERTEX
  8
0
  5
E5EA
 10
-385.203
 20
837.025
 30
0.000000
  70
    32
  0
VERTEX
  8
0
  5
E5EB
 10
-385.202
 20
837.026
 30
0.000000
  70
    32
  0
VERTEX
  8
0
  5
E5EC
 10
-385.200
 20
837.027
 30
0.000000
  70
    32
  0
VERTEX
  8
0
  5
E5ED
 10
-385.199
 20
837.028
 30
0.000000
  70
    32
  0
VERTEX
  8
0
  5
E5EE
 10
-385.198
 20
837.029
 30
0.000000
  70
    32
  0
VERTEX
  8
0
  5
E5EF
 10
-385.196
 20
837.030
 30
0.000000
  70
    32
  0
VERTEX
  8
0
  5
E5F0
 10
-385.195
 20
837.031
 30
0.000000
  70
    32
  0
VERTEX
  8
0
  5
E5F1
 10
-385.194
 20
837.032
 30
0.000000
  70
    32
  0
VERTEX
  8
0
  5
E5F2
 10
-385.192
 20
837.033
 30
0.000000
  70
    32
  0
VERTEX
  8
0
  5
E5F3
 10
-385.191
 20
837.034
 30
0.000000
  70
    32
  0
VERTEX
  8
0
  5
E5F4
 10
-385.190
 20
837.036
 30
0.000000
  70
    32
  0
VERTEX
  8
0
  5
E5F5
 10
-385.188
 20
837.037
 30
0.000000
  70
    32
  0
VERTEX
  8
0
  5
E5F6
 10
-385.187
 20
837.038
 30
0.000000
  70
    32
  0
VERTEX
  8
0
  5
E5F7
 10
-385.186
 20
837.039
 30
0.000000
  70
    32
  0
VERTEX
  8
0
  5
E5F8
 10
-385.185
 20
837.040
 30
0.000000
  70
    32
  0
VERTEX
  8
0
  5
E5F9
 10
-385.183
 20
837.041
 30
0.000000
  70
    32
  0
VERTEX
  8
0
  5
E5FA
 10
-385.182
 20
837.042
 30
0.000000
  70
    32
  0
VERTEX
  8
0
  5
E5FB
 10
-385.181
 20
837.044
 30
0.000000
  70
    32
  0
VERTEX
  8
0
  5
E5FC
 10
-385.180
 20
837.045
 30
0.000000
  70
    32
  0
VERTEX
  8
0
  5
E5FD
 10
-385.178
 20
837.046
 30
0.000000
  70
    32
  0
VERTEX
  8
0
  5
E5FE
 10
-385.177
 20
837.047
 30
0.000000
  70
    32
  0
VERTEX
  8
0
  5
E5FF
 10
-385.176
 20
837.048
 30
0.000000
  70
    32
  0
VERTEX
  8
0
  5
E600
 10
-385.175
 20
837.050
 30
0.000000
  70
    32
  0
VERTEX
  8
0
  5
E601
 10
-385.174
 20
837.051
 30
0.000000
  70
    32
  0
VERTEX
  8
0
  5
E602
 10
-385.172
 20
837.052
 30
0.000000
  70
    32
  0
VERTEX
  8
0
  5
E603
 10
-385.171
 20
837.053
 30
0.000000
  70
    32
  0
VERTEX
  8
0
  5
E604
 10
-385.170
 20
837.055
 30
0.000000
  70
    32
  0
VERTEX
  8
0
  5
E605
 10
-385.169
 20
837.056
 30
0.000000
  70
    32
  0
VERTEX
  8
0
  5
E606
 10
-385.168
 20
837.057
 30
0.000000
  70
    32
  0
VERTEX
  8
0
  5
E607
 10
-385.167
 20
837.058
 30
0.000000
  70
    32
  0
VERTEX
  8
0
  5
E608
 10
-385.166
 20
837.060
 30
0.000000
  70
    32
  0
VERTEX
  8
0
  5
E609
 10
-385.165
 20
837.061
 30
0.000000
  70
    32
  0
VERTEX
  8
0
  5
E60A
 10
-385.163
 20
837.062
 30
0.000000
  70
    32
  0
VERTEX
  8
0
  5
E60B
 10
-385.162
 20
837.064
 30
0.000000
  70
    32
  0
VERTEX
  8
0
  5
E60C
 10
-385.161
 20
837.065
 30
0.000000
  70
    32
  0
VERTEX
  8
0
  5
E60D
 10
-385.160
 20
837.066
 30
0.000000
  70
    32
  0
VERTEX
  8
0
  5
E60E
 10
-385.159
 20
837.068
 30
0.000000
  70
    32
  0
VERTEX
  8
0
  5
E60F
 10
-385.158
 20
837.069
 30
0.000000
  70
    32
  0
VERTEX
  8
0
  5
E610
 10
-385.157
 20
837.070
 30
0.000000
  70
    32
  0
VERTEX
  8
0
  5
E611
 10
-385.156
 20
837.072
 30
0.000000
  70
    32
  0
VERTEX
  8
0
  5
E612
 10
-385.156
 20
837.073
 30
0.000000
  70
    32
  0
VERTEX
  8
0
  5
E613
 10
-385.155
 20
837.075
 30
0.000000
  70
    32
  0
VERTEX
  8
0
  5
E614
 10
-385.154
 20
837.076
 30
0.000000
  70
    32
  0
VERTEX
  8
0
  5
E615
 10
-385.153
 20
837.077
 30
0.000000
  70
    32
  0
VERTEX
  8
0
  5
E616
 10
-385.152
 20
837.079
 30
0.000000
  70
    32
  0
VERTEX
  8
0
  5
E617
 10
-385.151
 20
837.080
 30
0.000000
  70
    32
  0
VERTEX
  8
0
  5
E618
 10
-385.150
 20
837.082
 30
0.000000
  70
    32
  0
VERTEX
  8
0
  5
E619
 10
-385.150
 20
837.083
 30
0.000000
  70
    32
  0
VERTEX
  8
0
  5
E61A
 10
-385.149
 20
837.085
 30
0.000000
  70
    32
  0
VERTEX
  8
0
  5
E61B
 10
-385.148
 20
837.086
 30
0.000000
  70
    32
  0
VERTEX
  8
0
  5
E61C
 10
-385.148
 20
837.088
 30
0.000000
  70
    32
  0
VERTEX
  8
0
  5
E61D
 10
-385.147
 20
837.089
 30
0.000000
  70
    32
  0
VERTEX
  8
0
  5
E61E
 10
-385.146
 20
837.091
 30
0.000000
  70
    32
  0
VERTEX
  8
0
  5
E61F
 10
-385.146
 20
837.092
 30
0.000000
  70
    32
  0
SEQEND
  8
0
  5
E620
  0
VIEWPORT
  5
BADA
 67
     1
  8
0
 10
5.2498666443542197
 20
4.0168606514874199
 30
0.0
 40
16.259611459837419
 41
8.0159429045697088
 68
     1
 69
     1
1001
ACAD
1000
MVIEW
1002
{
1070
    16
1010
0.0
1020
0.0
1030
0.0
1010
0.0
1020
0.0
1030
1.0
1040
0.0
1040
8.0159429045697088
1040
5.2498666443542197
1040
4.0168606514874199
1040
50.0
1040
0.0
1040
0.0
1070
     0
1070
   100
1070
     1
1070
     1
1070
     0
1070
     0
1070
     0
1070
     0
1040
0.0
1040
0.0
1040
0.0
1040
0.5
1040
0.5
1040
0.5
1040
0.5
1070
     0
1002
{
1002
}
1002
}
  0
VIEWPORT
  5
BADD
 67
     1
  8
0
 10
5.249999629487192
 20
4.0166741807634683
 30
0.0
 40
10.44245679893058
 41
7.8813805131999892
 68
     2
 69
     2
1001
ACAD
1000
MVIEW
1002
{
1070
    16
1010
0.0
1020
0.0
1030
0.0
1010
0.0
1020
0.0
1030
1.0
1040
0.0
1040
7.8813805131999892
1040
-387.7689582771269
1040
838.57879471859985
1040
50.0
1040
0.0
1040
0.0
1070
     0
1070
   100
1070
     1
1070
     2
1070
     0
1070
     0
1070
     0
1070
     0
1040
0.0
1040
0.0
1040
0.0
1040
0.5
1040
0.5
1040
0.5
1040
0.5
1070
     0
1002
{
1002
}
1002
}
  0
ENDSEC
  0
EOF
