  0
SECTION
  2
HEADER
  9
$ACADVER
  1
AC1009
  9
$INSBASE
 10
0.0
 20
0.0
 30
0.0
  9
$EXTMIN
 10
-389.93991053657271
 20
834.65667183693085
 30
0.0
  9
$EXTMAX
 10
-383.9430257495203
 20
843.05086629103664
 30
0.0
  9
$LIMMIN
 10
0.0
 20
0.0
  9
$LIMMAX
 10
1500.0
 20
1500.0
  9
$ORTHOMODE
 70
     0
  9
$REGENMODE
 70
     1
  9
$FILLMODE
 70
     1
  9
$QTEXTMODE
 70
     0
  9
$MIRRTEXT
 70
     1
  9
$DRAGMODE
 70
     2
  9
$LTSCALE
 40
1.0
  9
$OSMODE
 70
    37
  9
$ATTMODE
 70
     1
  9
$TEXTSIZE
 40
1.5
  9
$TRACEWID
 40
0.05
  9
$TEXTSTYLE
  7
STANDARD
  9
$CLAYER
  8
0
  9
$CELTYPE
  6
BYLAYER
  9
$CECOLOR
 62
   256
  9
$DIMSCALE
 40
1.0
  9
$DIMASZ
 40
0.75
  9
$DIMEXO
 40
1.5
  9
$DIMDLI
 40
2.0
  9
$DIMRND
 40
0.0
  9
$DIMDLE
 40
0.0
  9
$DIMEXE
 40
1.0
  9
$DIMTP
 40
0.0
  9
$DIMTM
 40
0.0
  9
$DIMTXT
 40
1.5
  9
$DIMCEN
 40
2.0
  9
$DIMTSZ
 40
0.0
  9
$DIMTOL
 70
     0
  9
$DIMLIM
 70
     0
  9
$DIMTIH
 70
     0
  9
$DIMTOH
 70
     0
  9
$DIMSE1
 70
     0
  9
$DIMSE2
 70
     0
  9
$DIMTAD
 70
     1
  9
$DIMZIN
 70
     0
  9
$DIMBLK
  1
ARCHTICK
  9
$DIMASO
 70
     1
  9
$DIMSHO
 70
     1
  9
$DIMPOST
  1
"
  9
$DIMAPOST
  1

  9
$DIMALT
 70
     0
  9
$DIMALTD
 70
     2
  9
$DIMALTF
 40
25.399999999999999
  9
$DIMLFAC
 40
1.0
  9
$DIMTOFL
 70
     0
  9
$DIMTVP
 40
0.0
  9
$DIMTIX
 70
     1
  9
$DIMSOXD
 70
     0
  9
$DIMSAH
 70
     0
  9
$DIMBLK1
  1

  9
$DIMBLK2
  1

  9
$DIMSTYLE
  2
THREE_QUARTER_INCH_SCALE
  9
$DIMCLRD
 70
     0
  9
$DIMCLRE
 70
     0
  9
$DIMCLRT
 70
     0
  9
$DIMTFAC
 40
1.0
  9
$DIMGAP
 40
1.0
  9
$LUNITS
 70
     2
  9
$LUPREC
 70
     4
  9
$SKETCHINC
 40
0.1
  9
$FILLETRAD
 40
0.0
  9
$AUNITS
 70
     0
  9
$AUPREC
 70
     0
  9
$MENU
  1
.
  9
$ELEVATION
 40
0.0
  9
$PELEVATION
 40
0.0
  9
$THICKNESS
 40
0.0
  9
$LIMCHECK
 70
     0
  9
$BLIPMODE
 70
     0
  9
$CHAMFERA
 40
0.5
  9
$CHAMFERB
 40
0.5
  9
$SKPOLY
 70
     0
  9
$TDCREATE
 40
2452089.395738773
  9
$TDUPDATE
 40
2453612.3480613432
  9
$TDINDWG
 40
1.0294304051000001
  9
$TDUSRTIMER
 40
1.0294300462999999
  9
$USRTIMER
 70
     1
  9
$ANGBASE
 50
0.0
  9
$ANGDIR
 70
     0
  9
$PDMODE
 70
     0
  9
$PDSIZE
 40
10.0
  9
$PLINEWID
 40
0.0
  9
$COORDS
 70
     1
  9
$SPLFRAME
 70
     0
  9
$SPLINETYPE
 70
     6
  9
$SPLINESEGS
 70
     8
  9
$ATTDIA
 70
     0
  9
$ATTREQ
 70
     1
  9
$HANDLING
 70
     1
  9
$HANDSEED
  5
106BF
  9
$SURFTAB1
 70
     6
  9
$SURFTAB2
 70
     6
  9
$SURFTYPE
 70
     6
  9
$SURFU
 70
     6
  9
$SURFV
 70
     6
  9
$UCSNAME
  2

  9
$UCSORG
 10
0.0
 20
0.0
 30
0.0
  9
$UCSXDIR
 10
1.0
 20
0.0
 30
0.0
  9
$UCSYDIR
 10
0.0
 20
1.0
 30
0.0
  9
$PUCSNAME
  2

  9
$PUCSORG
 10
0.0
 20
0.0
 30
0.0
  9
$PUCSXDIR
 10
1.0
 20
0.0
 30
0.0
  9
$PUCSYDIR
 10
0.0
 20
1.0
 30
0.0
  9
$USERI1
 70
     0
  9
$USERI2
 70
     0
  9
$USERI3
 70
     0
  9
$USERI4
 70
     0
  9
$USERI5
 70
     0
  9
$USERR1
 40
0.0
  9
$USERR2
 40
0.0
  9
$USERR3
 40
0.0
  9
$USERR4
 40
0.0
  9
$USERR5
 40
0.0
  9
$WORLDVIEW
 70
     1
  9
$SHADEDGE
 70
     3
  9
$SHADEDIF
 70
    70
  9
$TILEMODE
 70
     0
  9
$MAXACTVP
 70
    64
  9
$PLIMCHECK
 70
     0
  9
$PEXTMIN
 10
0.0282895744820628
 20
0.0759353784799721
 30
-0.0015258207003583
  9
$PEXTMAX
 10
10.47170975585299
 20
7.9577863512286546
 30
0.0000000349246037
  9
$PLIMMIN
 10
-0.1682389550263349
 20
-0.2033427855578579
  9
$PLIMMAX
 10
10.754640548407011
 20
8.2370640492290015
  9
$UNITMODE
 70
     0
  9
$VISRETAIN
 70
     1
  9
$PLINEGEN
 70
     0
  9
$PSLTSCALE
 70
     1
  0
ENDSEC
  0
SECTION
  2
TABLES
  0
TABLE
  2
VPORT
 70
     1
  0
VPORT
  2
*ACTIVE
 70
     0
 10
0.0
 20
0.0
 11
1.0
 21
1.0
 12
-386.52380251144001
 22
838.09204166179234
 13
0.0
 23
0.0
 14
0.5
 24
0.5
 15
0.5
 25
0.5
 16
0.0
 26
0.0
 36
1.0
 17
0.0
 27
0.0
 37
0.0
 40
3.930952126162941
 41
2.0226628895184122
 42
50.0
 43
0.0
 44
0.0
 50
0.0
 51
0.0
 71
     0
 72
   100
 73
     1
 74
     2
 75
     0
 76
     0
 77
     0
 78
     0
  0
ENDTAB
  0
TABLE
  2
LTYPE
 70
     1
  0
LTYPE
  2
CONTINUOUS
 70
     0
  3
Solid line
 72
    65
 73
     0
 40
0.0
  0
ENDTAB
  0
TABLE
  2
LAYER
 70
    10
  0
LAYER
  2
0
 70
     0
 62
     7
  6
CONTINUOUS
  0
LAYER
  2
DEFPOINTS
 70
     0
 62
     7
  6
CONTINUOUS
  0
LAYER
  2
FRAME_200
 70
     0
 62
     8
  6
CONTINUOUS
  0
LAYER
  2
FRAME_070
 70
     0
 62
     5
  6
CONTINUOUS
  0
LAYER
  2
FRAME_050
 70
     0
 62
     6
  6
CONTINUOUS
  0
LAYER
  2
TITLE_BLOCK
 70
     0
 62
     7
  6
CONTINUOUS
  0
LAYER
  2
FRAME_025
 70
     0
 62
     7
  6
CONTINUOUS
  0
LAYER
  2
VIEWPORT
 70
     0
 62
     7
  6
CONTINUOUS
  0
LAYER
  2
PROF
 70
     0
 62
     7
  6
CONTINUOUS
  0
LAYER
  2
PROFILE
 70
     0
 62
     7
  6
CONTINUOUS
  0
ENDTAB
  0
TABLE
  2
STYLE
 70
     2
  0
STYLE
  2
STANDARD
 70
     0
 40
0.0
 41
1.0
 50
0.0
 71
     0
 42
1.5
  3
txt
  4

  0
STYLE
  2
ISO_PROPORTIONAL
 70
     0
 40
0.0
 41
1.0
 50
0.0
 71
     0
 42
2.5
  3
isocp.shx
  4

  0
ENDTAB
  0
TABLE
  2
VIEW
 70
     0
  0
ENDTAB
  0
TABLE
  2
UCS
 70
     0
  0
ENDTAB
  0
TABLE
  2
APPID
 70
     6
  0
APPID
  2
ACAD
 70
     0
  0
APPID
  2
DCO15
 70
     0
  0
APPID
  2
ACAD_EXEMPT_FROM_CAD_STANDARDS
 70
     0
  0
APPID
  2
ACAD_PSEXT
 70
     0
  0
APPID
  2
CONTENTBLOCKDESCRIPTION
 70
     0
  0
APPID
  2
CONTENTBLOCKICON
 70
     0
  0
ENDTAB
  0
TABLE
  2
DIMSTYLE
 70
    10
  0
DIMSTYLE
  2
FULL_SCALE
 70
     0
  3
"
  4

  5

  6

  7

 40
1.0
 41
0.046875
 42
0.09375
 43
0.125
 44
0.0625
 45
0.0
 46
0.0
 47
0.0
 48
0.0
140
0.125
141
0.125
142
0.0
143
25.399999999999999
144
1.0
145
0.0
146
1.0
147
0.0625
 71
     0
 72
     0
 73
     0
 74
     0
 75
     0
 76
     0
 77
     1
 78
     0
170
     0
171
     2
172
     0
173
     0
174
     1
175
     0
176
     0
177
     0
178
     0
  0
DIMSTYLE
  2
HALF_SCALE
 70
     0
  3
"
  4

  5

  6

  7

 40
1.0
 41
0.09375
 42
0.1875
 43
0.25
 44
0.125
 45
0.0
 46
0.0
 47
0.0
 48
0.0
140
0.25
141
0.25
142
0.0
143
25.399999999999999
144
1.0
145
0.0
146
1.0
147
0.125
 71
     0
 72
     0
 73
     0
 74
     0
 75
     0
 76
     0
 77
     1
 78
     0
170
     0
171
     2
172
     0
173
     0
174
     1
175
     0
176
     0
177
     0
178
     0
  0
DIMSTYLE
  2
INCH_SCALE
 70
     0
  3
"
  4

  5

  6

  7

 40
1.0
 41
0.5625
 42
1.125
 43
1.5
 44
0.75
 45
0.0
 46
0.0
 47
0.0
 48
0.0
140
1.125
141
1.5
142
0.0
143
25.399999999999999
144
1.0
145
0.0
146
1.0
147
0.75
 71
     0
 72
     0
 73
     0
 74
     0
 75
     0
 76
     0
 77
     1
 78
     0
170
     0
171
     2
172
     0
173
     0
174
     1
175
     0
176
     0
177
     0
178
     0
  0
DIMSTYLE
  2
THREE_QUARTER_INCH_SCALE
 70
     0
  3
"
  4

  5

  6

  7

 40
1.0
 41
0.75
 42
1.5
 43
2.0
 44
1.0
 45
0.0
 46
0.0
 47
0.0
 48
0.0
140
1.5
141
2.0
142
0.0
143
25.399999999999999
144
1.0
145
0.0
146
1.0
147
1.0
 71
     0
 72
     0
 73
     0
 74
     0
 75
     0
 76
     0
 77
     1
 78
     0
170
     0
171
     2
172
     0
173
     0
174
     1
175
     0
176
     0
177
     0
178
     0
  0
DIMSTYLE
  2
ZHALF_INCH_SCALE
 70
     0
  3
"
  4

  5

  6

  7

 40
1.0
 41
1.125
 42
2.25
 43
3.0
 44
1.5
 45
0.0
 46
0.0
 47
0.0
 48
0.0
140
2.25
141
3.0
142
0.0
143
25.399999999999999
144
1.0
145
0.0
146
1.0
147
1.5
 71
     0
 72
     0
 73
     0
 74
     0
 75
     0
 76
     0
 77
     1
 78
     0
170
     0
171
     2
172
     0
173
     0
174
     1
175
     0
176
     0
177
     0
178
     0
  0
DIMSTYLE
  2
FULL_SCALE0
 70
     0
  3
"
  4

  5
ARCHTICK
  6

  7

 40
1.0
 41
0.046875
 42
0.09375
 43
0.125
 44
0.0625
 45
0.0
 46
0.0
 47
0.0
 48
0.0
140
0.125
141
0.125
142
0.0
143
25.399999999999999
144
1.0
145
0.0
146
1.0
147
0.0625
 71
     0
 72
     0
 73
     0
 74
     0
 75
     0
 76
     0
 77
     1
 78
     0
170
     0
171
     2
172
     0
173
     0
174
     1
175
     0
176
     0
177
     0
178
     0
  0
DIMSTYLE
  2
HALF_SCALE0
 70
     0
  3
"
  4

  5
ARCHTICK
  6

  7

 40
1.0
 41
0.09375
 42
0.1875
 43
0.25
 44
0.125
 45
0.0
 46
0.0
 47
0.0
 48
0.0
140
0.25
141
0.25
142
0.0
143
25.399999999999999
144
1.0
145
0.0
146
1.0
147
0.125
 71
     0
 72
     0
 73
     0
 74
     0
 75
     0
 76
     0
 77
     1
 78
     0
170
     0
171
     2
172
     0
173
     0
174
     1
175
     0
176
     0
177
     0
178
     0
  0
DIMSTYLE
  2
INCH_SCALE0
 70
     0
  3
"
  4

  5
ARCHTICK
  6

  7

 40
1.0
 41
0.5625
 42
1.125
 43
1.5
 44
0.75
 45
0.0
 46
0.0
 47
0.0
 48
0.0
140
1.125
141
1.5
142
0.0
143
25.399999999999999
144
1.0
145
0.0
146
1.0
147
0.75
 71
     0
 72
     0
 73
     0
 74
     0
 75
     0
 76
     0
 77
     1
 78
     0
170
     0
171
     2
172
     0
173
     0
174
     1
175
     0
176
     0
177
     0
178
     0
  0
DIMSTYLE
  2
THREE_QUARTER_INCH_SCALE0
 70
     0
  3
"
  4

  5
ARCHTICK
  6

  7

 40
1.0
 41
0.75
 42
1.5
 43
2.0
 44
1.0
 45
0.0
 46
0.0
 47
0.0
 48
0.0
140
1.5
141
2.0
142
0.0
143
25.399999999999999
144
1.0
145
0.0
146
1.0
147
1.0
 71
     0
 72
     0
 73
     0
 74
     0
 75
     0
 76
     0
 77
     1
 78
     0
170
     0
171
     2
172
     0
173
     0
174
     1
175
     0
176
     0
177
     0
178
     0
  0
DIMSTYLE
  2
ZHALF_INCH_SCALE0
 70
     0
  3
"
  4

  5
ARCHTICK
  6

  7

 40
1.0
 41
1.125
 42
2.25
 43
3.0
 44
1.5
 45
0.0
 46
0.0
 47
0.0
 48
0.0
140
2.25
141
3.0
142
0.0
143
25.399999999999999
144
1.0
145
0.0
146
1.0
147
1.5
 71
     0
 72
     0
 73
     0
 74
     0
 75
     0
 76
     0
 77
     1
 78
     0
170
     0
171
     2
172
     0
173
     0
174
     1
175
     0
176
     0
177
     0
178
     0
  0
ENDTAB
  0
ENDSEC
  0
SECTION
  2
BLOCKS
  0
BLOCK
  8
0
  2
$MODEL_SPACE
 70
     0
 10
0.0
 20
0.0
 30
0.0
  3
$MODEL_SPACE
  1

  0
ENDBLK
  5
C9DC
  8
0
  0
BLOCK
 67
     1
  8
0
  2
$PAPER_SPACE
 70
     0
 10
0.0
 20
0.0
 30
0.0
  3
$PAPER_SPACE
  1

  0
ENDBLK
  5
C9D8
 67
     1
  8
0
  0
BLOCK
  8
0
  2
_ARCHTICK
 70
     0
 10
0.0
 20
0.0
 30
0.0
  3
_ARCHTICK
  1

  0
POLYLINE
  5
158
  8
0
  6
BYBLOCK
 62
     0
 66
     1
 10
0.0
 20
0.0
 30
0.0
 40
0.15
 41
0.15
  0
VERTEX
  5
10227
  8
0
  6
BYBLOCK
 62
     0
 10
-0.5
 20
-0.5
 30
0.0
  0
VERTEX
  5
10228
  8
0
  6
BYBLOCK
 62
     0
 10
0.5
 20
0.5
 30
0.0
  0
SEQEND
  5
10229
  8
0
  6
BYBLOCK
 62
     0
  0
ENDBLK
  5
15A
  8
0
  0
BLOCK
  8
0
  2
_OPEN30
 70
     0
 10
0.0
 20
0.0
 30
0.0
  3
_OPEN30
  1

  0
LINE
  5
15C
  8
0
  6
BYBLOCK
 62
     0
 10
-1.0
 20
0.26794919
 30
0.0
 11
0.0
 21
0.0
 31
0.0
  0
LINE
  5
15D
  8
0
  6
BYBLOCK
 62
     0
 10
0.0
 20
0.0
 30
0.0
 11
-1.0
 21
-0.26794919
 31
0.0
  0
LINE
  5
15E
  8
0
  6
BYBLOCK
 62
     0
 10
0.0
 20
0.0
 30
0.0
 11
-1.0
 21
0.0
 31
0.0
  0
ENDBLK
  5
160
  8
0
  0
BLOCK
  8
0
  2
ISO_A2_TITLE_BLOCK
 70
     2
 10
0.0
 20
0.0
 30
0.0
  3
ISO_A2_TITLE_BLOCK
  1

  0
LINE
  5
BDD
  8
FRAME_050
 10
299.5
 20
12.5
 30
0.0
 11
297.0
 21
7.5
 31
0.0
  0
LINE
  5
BDE
  8
FRAME_050
 10
294.5
 20
12.5
 30
0.0
 11
299.5
 21
12.5
 31
0.0
  0
LINE
  5
BDF
  8
FRAME_050
 10
247.0
 20
5.0
 30
0.0
 11
347.0
 21
5.0
 31
0.0
  0
LINE
  5
BE0
  8
FRAME_070
 10
584.0
 20
410.0
 30
0.0
 11
10.0
 21
410.0
 31
0.0
  0
LINE
  5
BE1
  8
FRAME_070
 10
10.0
 20
10.0
 30
0.0
 11
584.0
 21
10.0
 31
0.0
  0
LINE
  5
BE2
  8
FRAME_050
 10
12.5
 20
207.5
 30
0.0
 11
7.5
 21
210.0
 31
0.0
  0
LINE
  5
BE3
  8
FRAME_050
 10
12.5
 20
212.5
 30
0.0
 11
12.5
 21
207.5
 31
0.0
  0
LINE
  5
BE4
  8
FRAME_070
 10
10.0
 20
410.0
 30
0.0
 11
10.0
 21
10.0
 31
0.0
  0
LINE
  5
BE5
  8
FRAME_200
 10
0.0
 20
0.0
 30
0.0
 11
0.0
 21
10.0
 31
0.0
  0
LINE
  5
BE6
  8
FRAME_200
 10
0.0
 20
0.0
 30
0.0
 11
10.0
 21
0.0
 31
0.0
  0
TEXT
  5
BE7
  8
FRAME_050
 10
5.9000000000000004
 20
35.0
 30
0.0
 40
4.0
  1
H
  7
ISO_PROPORTIONAL
 72
     4
 11
7.5
 21
37.0
 31
0.0
  0
LINE
  5
BE8
  8
FRAME_050
 10
10.0
 20
60.0
 30
0.0
 11
5.0
 21
60.0
 31
0.0
  0
LINE
  5
BE9
  8
FRAME_050
 10
81.75
 20
5.0
 30
0.0
 11
81.75
 21
10.0
 31
0.0
  0
TEXT
  5
BEA
  8
FRAME_050
 10
44.874999999999993
 20
5.5
 30
0.0
 40
4.0
  1
1
  7
ISO_PROPORTIONAL
 72
     4
 11
45.875
 21
7.5
 31
0.0
  0
TEXT
  5
BEB
  8
FRAME_050
 10
6.0035533905932743
 20
85.0
 30
0.0
 40
4.0
  1
G
  7
ISO_PROPORTIONAL
 72
     4
 11
7.5
 21
87.0
 31
0.0
  0
LINE
  5
BEC
  8
FRAME_050
 10
10.0
 20
110.0
 30
0.0
 11
5.0
 21
110.0
 31
0.0
  0
TEXT
  5
BED
  8
FRAME_050
 10
6.0999999999999988
 20
135.0
 30
0.0
 40
4.0
  1
F
  7
ISO_PROPORTIONAL
 72
     4
 11
7.5
 21
137.0
 31
0.0
  0
LINE
  5
BEE
  8
FRAME_050
 10
10.0
 20
160.0
 30
0.0
 11
5.0
 21
160.0
 31
0.0
  0
TEXT
  5
BEF
  8
FRAME_050
 10
6.0999999999999988
 20
185.0
 30
0.0
 40
4.0
  1
E
  7
ISO_PROPORTIONAL
 72
     4
 11
7.5
 21
187.0
 31
0.0
  0
LINE
  5
BF0
  8
FRAME_050
 10
153.5
 20
5.0
 30
0.0
 11
153.5
 21
10.0
 31
0.0
  0
TEXT
  5
BF1
  8
FRAME_050
 10
116.1556692913386
 20
5.3996062992125982
 30
0.0
 40
4.0
  1
2
  7
ISO_PROPORTIONAL
 72
     4
 11
117.625
 21
7.5
 31
0.0
  0
TEXT
  5
BF2
  8
FRAME_050
 10
187.89215728752529
 20
5.5828427124746138
 30
0.0
 40
4.0
  1
3
  7
ISO_PROPORTIONAL
 72
     4
 11
189.375
 21
7.5
 31
0.0
  0
LINE
  5
BF3
  8
FRAME_050
 10
225.25
 20
5.0
 30
0.0
 11
225.25
 21
10.0
 31
0.0
  0
LINE
  5
BF4
  8
FRAME_050
 10
297.0
 20
7.5
 30
0.0
 11
294.5
 21
12.5
 31
0.0
  0
LINE
  5
BF5
  8
FRAME_050
 10
287.0
 20
5.0
 30
0.0
 11
287.0
 21
10.0
 31
0.0
  0
LINE
  5
BF6
  8
FRAME_050
 10
277.0
 20
5.0
 30
0.0
 11
277.0
 21
10.0
 31
0.0
  0
LINE
  5
BF7
  8
FRAME_050
 10
267.0
 20
5.0
 30
0.0
 11
267.0
 21
10.0
 31
0.0
  0
LINE
  5
BF8
  8
FRAME_050
 10
257.0
 20
5.0
 30
0.0
 11
257.0
 21
10.0
 31
0.0
  0
LINE
  5
BF9
  8
FRAME_050
 10
247.0
 20
5.0
 30
0.0
 11
247.0
 21
10.0
 31
0.0
  0
LINE
  5
BFA
  8
FRAME_050
 10
297.0
 20
10.0
 30
0.0
 11
297.0
 21
5.0
 31
0.0
  0
LINE
  5
BFB
  8
FRAME_050
 10
297.0
 20
10.0
 30
0.0
 11
297.0
 21
15.0
 31
0.0
  0
LINE
  5
BFC
  8
FRAME_050
 10
5.0
 20
210.0
 30
0.0
 11
15.0
 21
210.0
 31
0.0
  0
LINE
  5
BFD
  8
FRAME_050
 10
7.5
 20
210.0
 30
0.0
 11
12.5
 21
212.5
 31
0.0
  0
TEXT
  5
BFE
  8
FRAME_050
 10
5.7860912703473977
 20
235.0
 30
0.0
 40
4.0
  1
D
  7
ISO_PROPORTIONAL
 72
     4
 11
7.5
 21
237.0
 31
0.0
  0
LINE
  5
BFF
  8
FRAME_050
 10
10.0
 20
260.0
 30
0.0
 11
5.0
 21
260.0
 31
0.0
  0
TEXT
  5
C00
  8
FRAME_050
 10
6.1931980515339466
 20
285.0
 30
0.0
 40
4.0
  1
C
  7
ISO_PROPORTIONAL
 72
     4
 11
7.5
 21
287.0
 31
0.0
  0
LINE
  5
C01
  8
FRAME_050
 10
10.0
 20
310.0
 30
0.0
 11
5.0
 21
310.0
 31
0.0
  0
TEXT
  5
C02
  8
FRAME_050
 10
5.8999999999999959
 20
335.0
 30
0.0
 40
4.0
  1
B
  7
ISO_PROPORTIONAL
 72
     4
 11
7.5
 21
337.0
 31
0.0
  0
LINE
  5
C03
  8
FRAME_050
 10
10.0
 20
360.0
 30
0.0
 11
5.0
 21
360.0
 31
0.0
  0
TEXT
  5
C04
  8
FRAME_050
 10
5.6999999999999993
 20
385.0
 30
0.0
 40
4.0
  1
A
  7
ISO_PROPORTIONAL
 72
     4
 11
7.5
 21
387.0
 31
0.0
  0
LINE
  5
C05
  8
FRAME_200
 10
10.0
 20
420.0
 30
0.0
 11
0.0
 21
420.0
 31
0.0
  0
LINE
  5
C06
  8
FRAME_200
 10
0.0
 20
420.0
 30
0.0
 11
0.0
 21
410.0
 31
0.0
  0
TEXT
  5
C07
  8
FRAME_050
 10
44.874999999999993
 20
410.5
 30
0.0
 40
4.0
  1
1
  7
ISO_PROPORTIONAL
 72
     4
 11
45.875
 21
412.5
 31
0.0
  0
LINE
  5
C08
  8
FRAME_050
 10
81.75
 20
410.0
 30
0.0
 11
81.75
 21
415.0
 31
0.0
  0
TEXT
  5
C09
  8
FRAME_050
 10
116.1556692913386
 20
410.39960629921262
 30
0.0
 40
4.0
  1
2
  7
ISO_PROPORTIONAL
 72
     4
 11
117.625
 21
412.5
 31
0.0
  0
LINE
  5
C0A
  8
FRAME_050
 10
153.5
 20
410.0
 30
0.0
 11
153.5
 21
415.0
 31
0.0
  0
TEXT
  5
C0B
  8
FRAME_050
 10
187.89215728752529
 20
410.58284271247459
 30
0.0
 40
4.0
  1
3
  7
ISO_PROPORTIONAL
 72
     4
 11
189.375
 21
412.5
 31
0.0
  0
LINE
  5
C0C
  8
FRAME_050
 10
297.0
 20
405.0
 30
0.0
 11
297.0
 21
415.0
 31
0.0
  0
LINE
  5
C0D
  8
FRAME_050
 10
225.25
 20
410.0
 30
0.0
 11
225.25
 21
415.0
 31
0.0
  0
TEXT
  5
C0E
  8
FRAME_050
 10
259.52499999999998
 20
410.5
 30
0.0
 40
4.0
  1
4
  7
ISO_PROPORTIONAL
 72
     4
 11
261.125
 21
412.5
 31
0.0
  0
LINE
  5
C0F
  8
FRAME_070
 10
584.0
 20
10.0
 30
0.0
 11
584.0
 21
410.0
 31
0.0
  0
ATTDEF
  5
C10
  8
FRAME_025
 10
473.0
 20
31.75
 30
0.0
 40
2.5
  1
XXX - 00/00/00
  7
ISO_PROPORTIONAL
 11
473.0
 21
33.0
 31
0.0
  3
Approved by - Date
  2
APPROVED_BY_DATE
 70
     8
 74
     2
  0
TEXT
  5
C11
  8
FRAME_025
 10
448.0
 20
41.749999999999993
 30
0.0
 40
2.5
  1
Title/Name, designation, material, dimension etc
  7
ISO_PROPORTIONAL
 11
448.0
 21
43.0
 31
0.0
 73
     2
  0
TEXT
  5
C12
  8
FRAME_025
 10
473.0
 20
35.75
 30
0.0
 40
2.5
  1
Approved by - date
  7
ISO_PROPORTIONAL
 11
473.0
 21
37.0
 31
0.0
 73
     2
  0
LINE
  5
C13
  8
FRAME_070
 10
414.0
 20
46.0
 30
0.0
 11
584.0
 21
46.0
 31
0.0
  0
LINE
  5
C14
  8
FRAME_070
 10
414.0
 20
40.0
 30
0.0
 11
584.0
 21
40.0
 31
0.0
  0
LINE
  5
C15
  8
FRAME_070
 10
414.0
 20
30.0
 30
0.0
 11
584.0
 21
30.0
 31
0.0
  0
LINE
  5
C16
  8
FRAME_050
 10
368.75
 20
5.0
 30
0.0
 11
368.75
 21
10.0
 31
0.0
  0
LINE
  5
C17
  8
FRAME_050
 10
337.0
 20
5.0
 30
0.0
 11
337.0
 21
10.0
 31
0.0
  0
LINE
  5
C18
  8
FRAME_050
 10
327.0
 20
5.0
 30
0.0
 11
327.0
 21
10.0
 31
0.0
  0
LINE
  5
C19
  8
FRAME_050
 10
317.0
 20
5.0
 30
0.0
 11
317.0
 21
10.0
 31
0.0
  0
LINE
  5
C1A
  8
FRAME_050
 10
307.0
 20
5.0
 30
0.0
 11
307.0
 21
10.0
 31
0.0
  0
LINE
  5
C1B
  8
FRAME_050
 10
347.0
 20
5.0
 30
0.0
 11
347.0
 21
10.0
 31
0.0
  0
LINE
  5
C1C
  8
FRAME_050
 10
440.5
 20
5.0
 30
0.0
 11
440.5
 21
10.0
 31
0.0
  0
TEXT
  5
C1D
  8
FRAME_050
 10
403.24547244094481
 20
5.4102362204724406
 30
0.0
 40
4.0
  1
6
  7
ISO_PROPORTIONAL
 72
     4
 11
404.62499999999989
 21
7.5
 31
0.0
  0
TEXT
  5
C1E
  8
FRAME_050
 10
474.97499999999991
 20
5.5
 30
0.0
 40
4.0
  1
7
  7
ISO_PROPORTIONAL
 72
     4
 11
476.37499999999989
 21
7.5
 31
0.0
  0
TEXT
  5
C1F
  8
FRAME_025
 10
431.0
 20
41.749999999999993
 30
0.0
 40
2.5
  1
Quantity
  7
ISO_PROPORTIONAL
 11
431.0
 21
43.0
 31
0.0
 73
     2
  0
TEXT
  5
C20
  8
FRAME_025
 10
416.0
 20
41.749999999999993
 30
0.0
 40
2.5
  1
Itemref
  7
ISO_PROPORTIONAL
 11
416.0
 21
43.0
 31
0.0
 73
     2
  0
LINE
  5
C21
  8
FRAME_070
 10
414.0
 20
40.0
 30
0.0
 11
414.0
 21
46.0
 31
0.0
  0
LINE
  5
C22
  8
FRAME_070
 10
429.0
 20
40.0
 30
0.0
 11
429.0
 21
46.0
 31
0.0
  0
LINE
  5
C23
  8
FRAME_070
 10
414.0
 20
10.0
 30
0.0
 11
414.0
 21
40.0
 31
0.0
  0
ATTDEF
  5
C24
  8
FRAME_025
 10
416.0
 20
31.75
 30
0.0
 40
2.5
  1
XXX
  7
ISO_PROPORTIONAL
 11
416.0
 21
33.0
 31
0.0
  3
Designed by
  2
DESIGNED_BY
 70
     8
 74
     2
  0
TEXT
  5
C25
  8
FRAME_025
 10
416.0
 20
35.75
 30
0.0
 40
2.5
  1
Designed by
  7
ISO_PROPORTIONAL
 11
416.0
 21
37.0
 31
0.0
 73
     2
  0
LINE
  5
C26
  8
FRAME_070
 10
446.0
 20
40.0
 30
0.0
 11
446.0
 21
46.0
 31
0.0
  0
ATTDEF
  5
C27
  8
FRAME_025
 10
448.0
 20
31.75
 30
0.0
 40
2.5
  1
XXX
  7
ISO_PROPORTIONAL
 11
448.0
 21
33.0
 31
0.0
  3
Checked by
  2
CHECKED_BY
 70
     8
 74
     2
  0
TEXT
  5
C28
  8
FRAME_025
 10
448.0
 20
35.75
 30
0.0
 40
2.5
  1
Checked by
  7
ISO_PROPORTIONAL
 11
448.0
 21
37.0
 31
0.0
 73
     2
  0
ATTDEF
  5
C29
  8
FRAME_050
 10
444.74999999999989
 20
17.5
 30
0.0
 40
5.0
  1
XXX
  7
ISO_PROPORTIONAL
 72
     4
 11
451.49999999999989
 21
20.0
 31
0.0
  3
Owner
  2
OWNER
 70
     8
  0
LINE
  5
C2A
  8
FRAME_070
 10
446.0
 20
30.0
 30
0.0
 11
446.0
 21
40.0
 31
0.0
  0
LINE
  5
C2B
  8
FRAME_070
 10
471.0
 20
30.0
 30
0.0
 11
471.0
 21
40.0
 31
0.0
  0
LINE
  5
C2C
  8
FRAME_070
 10
489.0
 20
20.0
 30
0.0
 11
584.0
 21
20.0
 31
0.0
  0
LINE
  5
C2D
  8
FRAME_050
 10
512.25
 20
5.0
 30
0.0
 11
512.25
 21
10.0
 31
0.0
  0
TEXT
  5
C2E
  8
FRAME_050
 10
546.72499999999991
 20
5.5
 30
0.0
 40
4.0
  1
8
  7
ISO_PROPORTIONAL
 72
     4
 11
548.125
 21
7.5
 31
0.0
  0
ATTDEF
  5
C2F
  8
FRAME_050
 10
517.64999999999986
 20
13.5
 30
0.0
 40
3.0
  1
X
  7
ISO_PROPORTIONAL
 72
     4
 11
519.0
 21
15.0
 31
0.0
  3
Drawing number
  2
DRAWING_NUMBER
 70
     8
  0
ATTDEF
  5
C30
  8
FRAME_050
 10
529.75
 20
22.5
 30
0.0
 40
5.0
  1
XXX
  7
ISO_PROPORTIONAL
 72
     4
 11
536.5
 21
25.0
 31
0.0
  3
Title / Name
  2
TITLE
 70
     8
  0
LINE
  5
C31
  8
FRAME_070
 10
489.0
 20
10.0
 30
0.0
 11
489.0
 21
30.0
 31
0.0
  0
ATTDEF
  5
C32
  8
FRAME_025
 10
511.0
 20
31.75
 30
0.0
 40
2.5
  1
XXX
  7
ISO_PROPORTIONAL
 11
511.0
 21
33.0
 31
0.0
  3
Filename
  2
FILENAME
 70
     8
 74
     2
  0
TEXT
  5
C33
  8
FRAME_025
 10
511.0
 20
35.75
 30
0.0
 40
2.5
  1
Filename
  7
ISO_PROPORTIONAL
 11
511.0
 21
37.0
 31
0.0
 73
     2
  0
LINE
  5
C34
  8
FRAME_070
 10
509.0
 20
30.0
 30
0.0
 11
509.0
 21
40.0
 31
0.0
  0
TEXT
  5
C35
  8
FRAME_025
 10
536.0
 20
41.749999999999993
 30
0.0
 40
2.5
  1
Article No./Reference
  7
ISO_PROPORTIONAL
 11
536.0
 21
43.0
 31
0.0
 73
     2
  0
LINE
  5
C36
  8
FRAME_070
 10
534.0
 20
40.0
 30
0.0
 11
534.0
 21
46.0
 31
0.0
  0
ATTDEF
  5
C37
  8
FRAME_025
 10
551.0
 20
11.75
 30
0.0
 40
2.5
  1
0
  7
ISO_PROPORTIONAL
 11
551.0
 21
13.0
 31
0.0
  3
Edition
  2
EDITION
 70
     8
 74
     2
  0
TEXT
  5
C38
  8
FRAME_025
 10
551.0
 20
15.75
 30
0.0
 40
2.5
  1
Edition
  7
ISO_PROPORTIONAL
 11
551.0
 21
17.0
 31
0.0
 73
     2
  0
LINE
  5
C39
  8
FRAME_070
 10
549.0
 20
10.0
 30
0.0
 11
549.0
 21
20.0
 31
0.0
  0
ATTDEF
  5
C3A
  8
FRAME_025
 10
536.0
 20
31.75
 30
0.0
 40
2.5
  1
00/00/00
  7
ISO_PROPORTIONAL
 11
536.0
 21
33.0
 31
0.0
  3
Date
  2
DATE
 70
     8
 74
     2
  0
TEXT
  5
C3B
  8
FRAME_025
 10
536.0
 20
35.75
 30
0.0
 40
2.5
  1
Date
  7
ISO_PROPORTIONAL
 11
536.0
 21
37.0
 31
0.0
 73
     2
  0
LINE
  5
C3C
  8
FRAME_070
 10
534.0
 20
30.0
 30
0.0
 11
534.0
 21
40.0
 31
0.0
  0
ATTDEF
  5
C3D
  8
FRAME_025
 10
566.0
 20
11.75
 30
0.0
 40
2.5
  1
1/1
  7
ISO_PROPORTIONAL
 11
566.0
 21
13.0
 31
0.0
  3
Sheet
  2
SHEET
 70
     8
 74
     2
  0
TEXT
  5
C3E
  8
FRAME_025
 10
566.0
 20
15.75
 30
0.0
 40
2.5
  1
Sheet
  7
ISO_PROPORTIONAL
 11
566.0
 21
17.0
 31
0.0
 73
     2
  0
LINE
  5
C3F
  8
FRAME_070
 10
564.0
 20
10.0
 30
0.0
 11
564.0
 21
20.0
 31
0.0
  0
ATTDEF
  5
C40
  8
FRAME_025
 10
566.0
 20
31.75
 30
0.0
 40
2.5
  1
1:1
  7
ISO_PROPORTIONAL
 11
566.0
 21
33.0
 31
0.0
  3
Scale
  2
SCALE
 70
     8
 74
     2
  0
TEXT
  5
C41
  8
FRAME_025
 10
566.0
 20
35.75
 30
0.0
 40
2.5
  1
Scale
  7
ISO_PROPORTIONAL
 11
566.0
 21
37.0
 31
0.0
 73
     2
  0
LINE
  5
C42
  8
FRAME_070
 10
564.0
 20
30.0
 30
0.0
 11
564.0
 21
40.0
 31
0.0
  0
LINE
  5
C43
  8
FRAME_200
 10
594.0
 20
0.0
 30
0.0
 11
594.0
 21
10.0
 31
0.0
  0
LINE
  5
C44
  8
FRAME_200
 10
594.0
 20
0.0
 30
0.0
 11
584.0
 21
0.0
 31
0.0
  0
TEXT
  5
C45
  8
FRAME_050
 10
584.89999999999998
 20
35.0
 30
0.0
 40
4.0
  1
H
  7
ISO_PROPORTIONAL
 72
     4
 11
586.5
 21
37.0
 31
0.0
  0
LINE
  5
C46
  8
FRAME_050
 10
589.0
 20
60.0
 30
0.0
 11
584.0
 21
60.0
 31
0.0
  0
TEXT
  5
C47
  8
FRAME_050
 10
585.0035533905932
 20
85.0
 30
0.0
 40
4.0
  1
G
  7
ISO_PROPORTIONAL
 72
     4
 11
586.5
 21
87.0
 31
0.0
  0
LINE
  5
C48
  8
FRAME_050
 10
589.0
 20
110.0
 30
0.0
 11
584.0
 21
110.0
 31
0.0
  0
TEXT
  5
C49
  8
FRAME_050
 10
585.09999999999991
 20
135.0
 30
0.0
 40
4.0
  1
F
  7
ISO_PROPORTIONAL
 72
     4
 11
586.5
 21
137.0
 31
0.0
  0
LINE
  5
C4A
  8
FRAME_050
 10
589.0
 20
160.0
 30
0.0
 11
584.0
 21
160.0
 31
0.0
  0
TEXT
  5
C4B
  8
FRAME_050
 10
585.09999999999991
 20
185.0
 30
0.0
 40
4.0
  1
E
  7
ISO_PROPORTIONAL
 72
     4
 11
586.5
 21
187.0
 31
0.0
  0
LINE
  5
C4C
  8
FRAME_070
 10
414.0
 20
404.0
 30
0.0
 11
584.0
 21
404.0
 31
0.0
  0
TEXT
  5
C4D
  8
FRAME_050
 10
331.39215728752538
 20
410.58284271247459
 30
0.0
 40
4.0
  1
5
  7
ISO_PROPORTIONAL
 72
     4
 11
332.875
 21
412.5
 31
0.0
  0
LINE
  5
C4E
  8
FRAME_050
 10
368.75
 20
410.0
 30
0.0
 11
368.75
 21
415.0
 31
0.0
  0
TEXT
  5
C4F
  8
FRAME_025
 10
428.0
 20
405.75
 30
0.0
 40
2.5
  1
Revision note
  7
ISO_PROPORTIONAL
 11
428.0
 21
407.0
 31
0.0
 73
     2
  0
TEXT
  5
C50
  8
FRAME_025
 10
416.0
 20
405.75
 30
0.0
 40
2.5
  1
RevNo
  7
ISO_PROPORTIONAL
 11
416.0
 21
407.0
 31
0.0
 73
     2
  0
LINE
  5
C51
  8
FRAME_070
 10
426.0
 20
404.0
 30
0.0
 11
426.0
 21
410.0
 31
0.0
  0
LINE
  5
C52
  8
FRAME_070
 10
414.0
 20
404.0
 30
0.0
 11
414.0
 21
410.0
 31
0.0
  0
TEXT
  5
C53
  8
FRAME_050
 10
403.24547244094481
 20
410.41023622047243
 30
0.0
 40
4.0
  1
6
  7
ISO_PROPORTIONAL
 72
     4
 11
404.62499999999989
 21
412.5
 31
0.0
  0
LINE
  5
C54
  8
FRAME_050
 10
440.5
 20
410.0
 30
0.0
 11
440.5
 21
415.0
 31
0.0
  0
TEXT
  5
C55
  8
FRAME_050
 10
474.97499999999991
 20
410.5
 30
0.0
 40
4.0
  1
7
  7
ISO_PROPORTIONAL
 72
     4
 11
476.37499999999989
 21
412.5
 31
0.0
  0
LINE
  5
C56
  8
FRAME_050
 10
579.0
 20
210.0
 30
0.0
 11
589.0
 21
210.0
 31
0.0
  0
TEXT
  5
C57
  8
FRAME_050
 10
584.78609127034736
 20
235.0
 30
0.0
 40
4.0
  1
D
  7
ISO_PROPORTIONAL
 72
     4
 11
586.5
 21
237.0
 31
0.0
  0
LINE
  5
C58
  8
FRAME_050
 10
589.0
 20
260.0
 30
0.0
 11
584.0
 21
260.0
 31
0.0
  0
TEXT
  5
C59
  8
FRAME_050
 10
585.19319805153395
 20
285.0
 30
0.0
 40
4.0
  1
C
  7
ISO_PROPORTIONAL
 72
     4
 11
586.5
 21
287.0
 31
0.0
  0
LINE
  5
C5A
  8
FRAME_050
 10
589.0
 20
310.0
 30
0.0
 11
584.0
 21
310.0
 31
0.0
  0
TEXT
  5
C5B
  8
FRAME_050
 10
584.89999999999998
 20
335.0
 30
0.0
 40
4.0
  1
B
  7
ISO_PROPORTIONAL
 72
     4
 11
586.5
 21
337.0
 31
0.0
  0
TEXT
  5
C5C
  8
FRAME_025
 10
571.08299391850551
 20
405.75
 30
0.0
 40
2.5
  1
Checked
  7
ISO_PROPORTIONAL
 11
571.08299391850551
 21
407.0
 31
0.0
 73
     2
  0
TEXT
  5
C5D
  8
FRAME_025
 10
555.36099797283521
 20
405.75
 30
0.0
 40
2.5
  1
Signature
  7
ISO_PROPORTIONAL
 11
555.36099797283521
 21
407.0
 31
0.0
 73
     2
  0
TEXT
  5
C5E
  8
FRAME_025
 10
537.0
 20
405.75
 30
0.0
 40
2.5
  1
Date
  7
ISO_PROPORTIONAL
 11
537.0
 21
407.0
 31
0.0
 73
     2
  0
LINE
  5
C5F
  8
FRAME_070
 10
570.0
 20
404.0
 30
0.0
 11
570.0
 21
410.0
 31
0.0
  0
LINE
  5
C60
  8
FRAME_070
 10
555.0
 20
404.0
 30
0.0
 11
555.0
 21
410.0
 31
0.0
  0
LINE
  5
C61
  8
FRAME_070
 10
535.0
 20
404.0
 30
0.0
 11
535.0
 21
410.0
 31
0.0
  0
LINE
  5
C62
  8
FRAME_050
 10
512.25
 20
410.0
 30
0.0
 11
512.25
 21
415.0
 31
0.0
  0
TEXT
  5
C63
  8
FRAME_050
 10
546.72499999999991
 20
410.5
 30
0.0
 40
4.0
  1
8
  7
ISO_PROPORTIONAL
 72
     4
 11
548.125
 21
412.5
 31
0.0
  0
LINE
  5
C64
  8
FRAME_050
 10
589.0
 20
360.0
 30
0.0
 11
584.0
 21
360.0
 31
0.0
  0
TEXT
  5
C65
  8
FRAME_050
 10
584.70000000000005
 20
385.0
 30
0.0
 40
4.0
  1
A
  7
ISO_PROPORTIONAL
 72
     4
 11
586.5
 21
387.0
 31
0.0
  0
LINE
  5
C66
  8
FRAME_200
 10
594.0
 20
420.0
 30
0.0
 11
584.0
 21
420.0
 31
0.0
  0
LINE
  5
C67
  8
FRAME_200
 10
594.0
 20
410.0
 30
0.0
 11
594.0
 21
420.0
 31
0.0
  0
ENDBLK
  5
C69
  8
0
  0
BLOCK
  8
0
  2
WOBB001END
 70
     0
 10
0.0
 20
0.0
 30
0.0
  3
WOBB001END
  1

  0
LINE
  5
4D66
  8
0
  6
CONTINUOUS
 10
0.0
 20
0.0
 30
0.0
 11
0.8749999999999998
 21
0.0
 31
0.0
  0
ARC
  5
4D67
  8
0
  6
CONTINUOUS
 10
0.0331648379439287
 20
-0.5087238935900234
 30
0.0
 40
0.8790130605592325
 50
284.06490243660443
 51
312.19222981924361
  0
ARC
  5
4D68
  8
0
  6
CONTINUOUS
 10
0.2841534338796767
 20
-1.510548310625538
 30
0.0
 40
0.1537731892806598
 50
104.0649024366044
 51
179.4721730735024
  0
LINE
  5
4D69
  8
0
  6
CONTINUOUS
 10
0.0
 20
0.0
 30
0.0
 11
-0.0000000000000003
 21
-1.7501564476661911
 31
0.0
  0
ARC
  5
4D6A
  8
0
  6
CONTINUOUS
 10
0.1404622019506122
 20
-1.630313718354619
 30
0.0
 40
0.1198427293115722
 50
275.0
 51
85.000000000000057
  0
LINE
  5
4D6B
  8
0
  6
CONTINUOUS
 10
-0.0000000000000003
 20
-1.7501564476661911
 30
0.0
 11
0.1456946485130855
 21
-1.7501564476661911
 31
0.0
  0
LINE
  5
4D6C
  8
0
  6
CONTINUOUS
 10
0.1377603739254348
 20
-1.7508506067459131
 30
0.0
 11
0.150907184036669
 21
-1.7497004098996509
 31
0.0
  0
LINE
  5
4D6D
  8
0
  6
CONTINUOUS
 10
0.1303867696719884
 20
-1.5091317231818231
 30
0.0
 11
0.1509071840366689
 21
-1.510927026809586
 31
0.0
  0
LINE
  5
4D6E
  8
0
  6
CONTINUOUS
 10
0.8749999999999998
 20
0.0
 30
0.0
 11
0.8749999999999996
 21
-0.8649327026588228
 31
0.0
  0
LINE
  5
4D6F
  8
0
  6
CONTINUOUS
 10
0.727014513830997
 20
-0.872688293355061
 30
0.0
 11
0.727014513830997
 21
-0.9264923397184784
 31
0.0
  0
ARC
  5
4D70
  8
0
  6
CONTINUOUS
 10
0.41187090827646
 20
-0.9264923397184784
 30
0.0
 40
0.3151436055545369
 50
312.19222981924361
 51
0.0
  0
LINE
  5
4D71
  8
0
  6
CONTINUOUS
 10
0.727014513830997
 20
-0.872688293355061
 30
0.0
 11
0.8749999999999996
 21
-0.8649327026588228
 31
0.0
  0
ENDBLK
  5
4D72
  8
0
  0
BLOCK
  8
0
  2
A$C0A61123B
 70
     0
 10
0.0
 20
0.0
 30
0.0
  3
A$C0A61123B
  1

  0
LINE
  5
C0AD
  8
PROF
  6
CONTINUOUS
 10
4.9012016798694162
 20
13.325025853350891
 30
0.0000000000000002
 11
4.9012016798694162
 21
12.88585218805485
 31
0.0000000000000003
  0
INSERT
  5
C0AE
  8
0
  2
*U7
 10
0.0
 20
0.0
 30
0.0
  0
LINE
  5
C0AF
  8
PROF
 10
4.519857503186925
 20
12.72227734589444
 30
0.0000000000000001
 11
4.519857503186925
 21
12.88585218805485
 31
0.0000000000000001
  0
LINE
  5
C0B0
  8
PROF
  6
CONTINUOUS
 10
3.6306271195888362
 20
13.325025853350891
 30
0.0000000000000002
 11
4.9012016798694162
 21
13.325025853350891
 31
0.0000000000000002
  0
LINE
  5
C0B1
  8
PROF
 10
1.9750295148747341
 20
10.37671325491794
 30
0.0000000000000002
 11
1.9750295148747341
 21
10.11391186758919
 31
0.0000000000000002
  0
LINE
  5
C0B2
  8
PROF
 10
1.6079673357556299
 20
10.11391186758919
 30
0.0000000000000001
 11
1.9750295148747341
 21
10.11391186758919
 31
0.0000000000000001
  0
LINE
  5
C0B3
  8
PROF
 10
1.9750295148747341
 20
10.11391186758919
 30
0.0000000000000001
 11
1.944958486898144
 21
10.11391186758919
 31
0.0000000000000001
  0
LINE
  5
C0B4
  8
PROF
 10
1.9750295148747341
 20
10.11391186758919
 30
0.0000000000000001
 11
1.944958486898144
 21
10.11391186758919
 31
0.0000000000000001
  0
LINE
  5
C0B5
  8
PROF
 10
0.3222605517169654
 20
7.5247473351056451
 30
-0.0000000000000002
 11
-0.0000008570117416
 21
7.5247473351056451
 31
0.0
  0
LINE
  5
C0B6
  8
PROF
 10
-0.0000008570117416
 20
7.5247473351056451
 30
0.0
 11
-0.0000008570117416
 21
9.1943336957369848
 31
0.0
  0
POLYLINE
  5
C0B7
  8
PROF
 66
     1
 10
0.0
 20
0.0
 30
0.0000000000000001
 70
     4
 75
     6
  0
VERTEX
  5
C0B8
  8
PROF
 10
1.6079673357556299
 20
10.11391186758919
 30
0.0000000000000001
 70
    16
  0
VERTEX
  5
C0B9
  8
PROF
 10
1.6079673357556299
 20
10.11391186758919
 30
0.0000000000000001
 70
     8
  0
VERTEX
  5
C0BA
  8
PROF
 10
1.6468132326485809
 20
10.02198069336111
 30
0.0000000000000001
 70
     8
  0
VERTEX
  5
C0BB
  8
PROF
 10
1.67335966680929
 20
9.9344134163010231
 30
0.0000000000000001
 70
     8
  0
VERTEX
  5
C0BC
  8
PROF
 10
1.6890086400463229
 20
9.8512576644480951
 30
0.0000000000000001
 70
     8
  0
VERTEX
  5
C0BD
  8
PROF
 10
1.6951621541682571
 20
9.7725610658417281
 30
0.0000000000000001
 70
     8
  0
VERTEX
  5
C0BE
  8
PROF
 10
1.693222210983605
 20
9.6983712485214237
 30
0.0000000000000001
 70
     8
  0
VERTEX
  5
C0BF
  8
PROF
 10
1.6845908123009961
 20
9.6287358405263603
 30
0.0000000000000001
 70
     8
  0
VERTEX
  5
C0C0
  8
PROF
 10
1.670669959928885
 20
9.5637024698960431
 30
0.0000000000000001
 70
     8
  0
VERTEX
  5
C0C1
  8
PROF
 10
1.6528616556759621
 20
9.5033187646697552
 30
0.0000000000000001
 70
     8
  0
VERTEX
  5
C0C2
  8
PROF
 10
1.632356299273054
 20
9.4475843259650691
 30
0.0000000000000001
 70
     8
  0
VERTEX
  5
C0C3
  8
PROF
 10
1.609497882140658
 20
9.3963066472123273
 30
0.0000000000000001
 70
     8
  0
VERTEX
  5
C0C4
  8
PROF
 10
1.584418793621637
 20
9.3492451949202842
 30
0.0000000000000001
 70
     8
  0
VERTEX
  5
C0C5
  8
PROF
 10
1.5572514230587431
 20
9.3061594355972357
 30
0.0000000000000001
 70
     8
  0
VERTEX
  5
C0C6
  8
PROF
 10
1.5281281597949601
 20
9.2668088357519274
 30
0.0000000000000001
 70
     8
  0
VERTEX
  5
C0C7
  8
PROF
 10
1.497181393172978
 20
9.2309528618929981
 30
0.0000000000000001
 70
     8
  0
VERTEX
  5
C0C8
  8
PROF
 10
1.4645435125357249
 20
9.1983509805288541
 30
0.0000000000000001
 70
     8
  0
VERTEX
  5
C0C9
  8
PROF
 10
1.4303469072260091
 20
9.1687626581682462
 30
0.0000000000000001
 70
     8
  0
VERTEX
  5
C0CA
  8
PROF
 10
1.394736033257401
 20
9.1419547918675335
 30
0.0000000000000001
 70
     8
  0
VERTEX
  5
C0CB
  8
PROF
 10
1.3579036133264131
 20
9.1177240008747713
 30
0.0000000000000001
 70
     8
  0
VERTEX
  5
C0CC
  8
PROF
 10
1.3200544368004321
 20
9.0958743349860924
 30
0.0000000000000001
 70
     8
  0
VERTEX
  5
C0CD
  8
PROF
 10
1.281393293046676
 20
9.0762098439975034
 30
0.0000000000000001
 70
     8
  0
VERTEX
  5
C0CE
  8
PROF
 10
1.2421249714324161
 20
9.0585345777049042
 30
0.0000000000000001
 70
     8
  0
VERTEX
  5
C0CF
  8
PROF
 10
1.202454261324986
 20
9.0426525859044187
 30
0.0000000000000001
 70
     8
  0
VERTEX
  5
C0D0
  8
PROF
 10
1.162585952091659
 20
9.0283679183919503
 30
0.0000000000000001
 70
     8
  0
VERTEX
  5
C0D1
  8
PROF
 10
1.1227248330997091
 20
9.0154846249635021
 30
0.0000000000000001
 70
     8
  0
VERTEX
  5
C0D2
  8
PROF
 10
1.0829726247361
 20
9.0034643862466055
 30
0.0000000000000001
 70
     8
  0
VERTEX
  5
C0D3
  8
PROF
 10
1.043018771466222
 20
8.9903994061946833
 30
0.0000000000000001
 70
     8
  0
VERTEX
  5
C0D4
  8
PROF
 10
1.002449648775211
 20
8.9740395195925622
 30
0.0000000000000001
 70
     8
  0
VERTEX
  5
C0D5
  8
PROF
 10
0.9608516321480919
 20
8.9521345612251935
 30
0.0000000000000001
 70
     8
  0
VERTEX
  5
C0D6
  8
PROF
 10
0.9178110970699435
 20
8.9224343658775052
 30
0.0000000000000001
 70
     8
  0
VERTEX
  5
C0D7
  8
PROF
 10
0.8729144190259033
 20
8.8826887683343312
 30
0.0000000000000001
 70
     8
  0
VERTEX
  5
C0D8
  8
PROF
 10
0.8257479735009949
 20
8.8306476033806121
 30
0.0000000000000001
 70
     8
  0
VERTEX
  5
C0D9
  8
PROF
 10
0.7758981359802988
 20
8.764060705801171
 30
0.0000000000000001
 70
     8
  0
VERTEX
  5
C0DA
  8
PROF
 10
1.7292019016096549
 20
9.8629858761255491
 30
0.0000000000000001
 70
    16
  0
VERTEX
  5
C0DB
  8
PROF
 10
1.679373123114088
 20
9.4532143012734213
 30
0.0000000000000001
 70
    16
  0
VERTEX
  5
C0DC
  8
PROF
 10
1.4455611507419801
 20
9.1391837193732481
 30
0.0000000000000001
 70
    16
  0
VERTEX
  5
C0DD
  8
PROF
 10
1.1204637172738201
 20
9.0026267702428413
 30
0.0000000000000001
 70
    16
  0
VERTEX
  5
C0DE
  8
PROF
 10
0.9127765582653638
 20
8.9630202230383702
 30
0.0000000000000001
 70
    16
  0
VERTEX
  5
C0DF
  8
PROF
 10
0.7758981359802988
 20
8.764060705801171
 30
0.0000000000000001
 70
    16
  0
SEQEND
  5
C0E0
  8
PROF
  0
ARC
  5
C0E1
  8
PROF
 10
0.733429816733235
 20
8.4849506952165257
 30
0.0000000000000001
 40
0.2823224329524727
 50
269.73652020831901
 51
81.348449993176914
  0
LINE
  5
C0E2
  8
PROF
  6
CONTINUOUS
 10
-0.0000008570117416
 20
9.1943336957369848
 30
-0.0000000000000001
 11
3.6306271195888362
 21
13.325025853350891
 31
0.0000000000000002
  0
POLYLINE
  5
C0E3
  8
PROF
 66
     1
 10
0.0
 20
0.0
 30
0.0000000000000001
 70
     4
 75
     6
  0
VERTEX
  5
C0E4
  8
PROF
 10
4.519857503186925
 20
12.72227734589444
 30
0.0000000000000001
 70
    16
  0
VERTEX
  5
C0E5
  8
PROF
 10
4.519857503186925
 20
12.72227734589444
 30
0.0000000000000001
 70
     8
  0
VERTEX
  5
C0E6
  8
PROF
 10
4.4467035366886289
 20
12.741128108778071
 30
0.0000000000000001
 70
     8
  0
VERTEX
  5
C0E7
  8
PROF
 10
4.3786645761268801
 20
12.754675269913941
 30
0.0000000000000001
 70
     8
  0
VERTEX
  5
C0E8
  8
PROF
 10
4.3154364111440469
 20
12.76334314092332
 30
0.0000000000000001
 70
     8
  0
VERTEX
  5
C0E9
  8
PROF
 10
4.256714831382566
 20
12.76755603342724
 30
0.0000000000000001
 70
     8
  0
VERTEX
  5
C0EA
  8
PROF
 10
4.2021956264849791
 20
12.76773825904672
 30
0.0000000000000001
 70
     8
  0
VERTEX
  5
C0EB
  8
PROF
 10
4.1515745860935436
 20
12.764314129403139
 30
0.0000000000000001
 70
     8
  0
VERTEX
  5
C0EC
  8
PROF
 10
4.1045474998508649
 20
12.75770795611743
 30
0.0000000000000001
 70
     8
  0
VERTEX
  5
C0ED
  8
PROF
 10
4.0608101573993149
 20
12.748344050810831
 30
0.0000000000000001
 70
     8
  0
VERTEX
  5
C0EE
  8
PROF
 10
4.0200583483813261
 20
12.736646725104491
 30
0.0000000000000001
 70
     8
  0
VERTEX
  5
C0EF
  8
PROF
 10
3.981987862439381
 20
12.72304029061945
 30
0.0000000000000001
 70
     8
  0
VERTEX
  5
C0F0
  8
PROF
 10
3.946294489215858
 20
12.707949058976959
 30
0.0000000000000001
 70
     8
  0
VERTEX
  5
C0F1
  8
PROF
 10
3.912674018353242
 20
12.691797341798059
 30
0.0000000000000001
 70
     8
  0
VERTEX
  5
C0F2
  8
PROF
 10
3.8808638350742499
 20
12.67494295718654
 30
0.0000000000000001
 70
     8
  0
VERTEX
  5
C0F3
  8
PROF
 10
3.850767706922738
 20
12.65747774917668
 30
0.0000000000000001
 70
     8
  0
VERTEX
  5
C0F4
  8
PROF
 10
3.8223309970228438
 20
12.639427068285499
 30
0.0000000000000001
 70
     8
  0
VERTEX
  5
C0F5
  8
PROF
 10
3.795499068498712
 20
12.62081626503004
 30
0.0000000000000001
 70
     8
  0
VERTEX
  5
C0F6
  8
PROF
 10
3.7702172844744819
 20
12.601670689926999
 30
0.0000000000000001
 70
     8
  0
VERTEX
  5
C0F7
  8
PROF
 10
3.7464310080743521
 20
12.58201569349364
 30
0.0000000000000001
 70
     8
  0
VERTEX
  5
C0F8
  8
PROF
 10
3.7240856024224609
 20
12.56187662624666
 30
0.0000000000000001
 70
     8
  0
VERTEX
  5
C0F9
  8
PROF
 10
3.7031264306428961
 20
12.541278838703191
 30
0.0000000000000001
 70
     8
  0
VERTEX
  5
C0FA
  8
PROF
 10
3.683498855859908
 20
12.520247681380051
 30
0.0000000000000001
 70
     8
  0
VERTEX
  5
C0FB
  8
PROF
 10
3.665148241197528
 20
12.49880850479428
 30
0.0000000000000001
 70
     8
  0
VERTEX
  5
C0FC
  8
PROF
 10
3.648019949779949
 20
12.47698665946279
 30
0.0000000000000001
 70
     8
  0
VERTEX
  5
C0FD
  8
PROF
 10
3.6320593447313159
 20
12.45480749590263
 30
0.0000000000000001
 70
     8
  0
VERTEX
  5
C0FE
  8
PROF
 10
3.617189584886658
 20
12.43223790353807
 30
0.0000000000000001
 70
     8
  0
VERTEX
  5
C0FF
  8
PROF
 10
3.6032450119242849
 20
12.40901092742285
 30
0.0000000000000001
 70
     8
  0
VERTEX
  5
C100
  8
PROF
 10
3.590037763233453
 20
12.38480115151844
 30
0.0000000000000001
 70
     8
  0
VERTEX
  5
C101
  8
PROF
 10
3.5773799762033032
 20
12.35928315978594
 30
0.0000000000000001
 70
     8
  0
VERTEX
  5
C102
  8
PROF
 10
3.5650837882230899
 20
12.33213153618658
 30
0.0000000000000001
 70
     8
  0
VERTEX
  5
C103
  8
PROF
 10
3.552961336681959
 20
12.303020864681571
 30
0.0000000000000001
 70
     8
  0
VERTEX
  5
C104
  8
PROF
 10
3.540824758969165
 20
12.271625729232371
 30
0.0000000000000001
 70
     8
  0
VERTEX
  5
C105
  8
PROF
 10
3.528486192473848
 20
12.23762071379997
 30
0.0000000000000001
 70
     8
  0
VERTEX
  5
C106
  8
PROF
 10
3.5157577745852659
 20
12.200680402345711
 30
0.0000000000000001
 70
     8
  0
VERTEX
  5
C107
  8
PROF
 10
3.502451642692618
 20
12.16047937883093
 30
0.0000000000000001
 70
     8
  0
VERTEX
  5
C108
  8
PROF
 10
3.4883799341851041
 20
12.116692227216619
 30
0.0000000000000001
 70
     8
  0
VERTEX
  5
C109
  8
PROF
 10
3.4733547864519201
 20
12.06899353146423
 30
0.0000000000000001
 70
     8
  0
VERTEX
  5
C10A
  8
PROF
 10
3.45723654619428
 20
12.0172095445447
 30
0.0000000000000001
 70
     8
  0
VERTEX
  5
C10B
  8
PROF
 10
3.440078397361388
 20
11.961773195467799
 30
0.0000000000000001
 70
     8
  0
VERTEX
  5
C10C
  8
PROF
 10
3.4219817332145781
 20
11.90326908225302
 30
0.0000000000000001
 70
     8
  0
VERTEX
  5
C10D
  8
PROF
 10
3.4030479470150099
 20
11.842281802919951
 30
0.0000000000000001
 70
     8
  0
VERTEX
  5
C10E
  8
PROF
 10
3.383378432024017
 20
11.779395955487979
 30
0.0000000000000001
 70
     8
  0
VERTEX
  5
C10F
  8
PROF
 10
3.36307458150287
 20
11.7151961379768
 30
0.0000000000000001
 70
     8
  0
VERTEX
  5
C110
  8
PROF
 10
3.342237788712735
 20
11.650266948405831
 30
0.0000000000000001
 70
     8
  0
VERTEX
  5
C111
  8
PROF
 10
3.3209694469149991
 20
11.58519298479461
 30
0.0000000000000001
 70
     8
  0
VERTEX
  5
C112
  8
PROF
 10
3.299370949370767
 20
11.52055884516254
 30
0.0000000000000001
 70
     8
  0
VERTEX
  5
C113
  8
PROF
 10
3.277543689341428
 20
11.456949127529461
 30
0.0000000000000001
 70
     8
  0
VERTEX
  5
C114
  8
PROF
 10
3.2555890600881399
 20
11.3949484299145
 30
0.0000000000000001
 70
     8
  0
VERTEX
  5
C115
  8
PROF
 10
3.2336084548721811
 20
11.335141350337491
 30
0.0000000000000001
 70
     8
  0
VERTEX
  5
C116
  8
PROF
 10
3.2116715641212181
 20
11.277995447977769
 30
0.0000000000000001
 70
     8
  0
VERTEX
  5
C117
  8
PROF
 10
3.1897212669278461
 20
11.22351012665467
 30
0.0000000000000001
 70
     8
  0
VERTEX
  5
C118
  8
PROF
 10
3.1676687395512881
 20
11.17156775134765
 30
0.0000000000000001
 70
     8
  0
VERTEX
  5
C119
  8
PROF
 10
3.1454251582505321
 20
11.12205068703588
 30
0.0000000000000001
 70
     8
  0
VERTEX
  5
C11A
  8
PROF
 10
3.122901699284625
 20
11.07484129869874
 30
0.0000000000000001
 70
     8
  0
VERTEX
  5
C11B
  8
PROF
 10
3.1000095389127278
 20
11.02982195131551
 30
0.0000000000000001
 70
     8
  0
VERTEX
  5
C11C
  8
PROF
 10
3.07665985339389
 20
10.986875009865679
 30
0.0000000000000001
 70
     8
  0
VERTEX
  5
C11D
  8
PROF
 10
3.0527638189871591
 20
10.9458828393283
 30
0.0000000000000001
 70
     8
  0
VERTEX
  5
C11E
  8
PROF
 10
3.0282326119516361
 20
10.90672780468298
 30
0.0000000000000001
 70
     8
  0
VERTEX
  5
C11F
  8
PROF
 10
3.0029774085463701
 20
10.869292270908771
 30
0.0000000000000001
 70
     8
  0
VERTEX
  5
C120
  8
PROF
 10
2.9769093850304089
 20
10.833458602985161
 30
0.0000000000000001
 70
     8
  0
VERTEX
  5
C121
  8
PROF
 10
2.9499397176628559
 20
10.799109165891419
 30
0.0000000000000001
 70
     8
  0
VERTEX
  5
C122
  8
PROF
 10
2.922000609840437
 20
10.76614363969508
 30
0.0000000000000001
 70
     8
  0
VERTEX
  5
C123
  8
PROF
 10
2.8931083735102998
 20
10.7345309648158
 30
0.0000000000000001
 70
     8
  0
VERTEX
  5
C124
  8
PROF
 10
2.8633003477572729
 20
10.70425739676193
 30
0.0000000000000001
 70
     8
  0
VERTEX
  5
C125
  8
PROF
 10
2.8326138716660689
 20
10.67530919104115
 30
0.0000000000000001
 70
     8
  0
VERTEX
  5
C126
  8
PROF
 10
2.801086284321626
 20
10.647672603161711
 30
0.0000000000000001
 70
     8
  0
VERTEX
  5
C127
  8
PROF
 10
2.7687549248087162
 20
10.62133388863162
 30
0.0000000000000001
 70
     8
  0
VERTEX
  5
C128
  8
PROF
 10
2.7356571322120531
 20
10.5962793029588
 30
0.0000000000000001
 70
     8
  0
VERTEX
  5
C129
  8
PROF
 10
2.7018302456165202
 20
10.572495101651381
 30
0.0000000000000001
 70
     8
  0
VERTEX
  5
C12A
  8
PROF
 10
2.6673116041068838
 20
10.54996754021726
 30
0.0000000000000001
 70
     8
  0
VERTEX
  5
C12B
  8
PROF
 10
2.6321385467680321
 20
10.528682874164581
 30
0.0000000000000001
 70
     8
  0
VERTEX
  5
C12C
  8
PROF
 10
2.5963484126846179
 20
10.508627359001251
 30
0.0000000000000001
 70
     8
  0
VERTEX
  5
C12D
  8
PROF
 10
2.5599785409415841
 20
10.489787250235279
 30
0.0000000000000001
 70
     8
  0
VERTEX
  5
C12E
  8
PROF
 10
2.522998630314361
 20
10.472162234281081
 30
0.0000000000000001
 70
     8
  0
VERTEX
  5
C12F
  8
PROF
 10
2.4851078183409072
 20
10.455805721177621
 30
0.0000000000000001
 70
     8
  0
VERTEX
  5
C130
  8
PROF
 10
2.4459376022498982
 20
10.44078455187036
 30
0.0000000000000001
 70
     8
  0
VERTEX
  5
C131
  8
PROF
 10
2.4051194792701249
 20
10.42716556730465
 30
0.0000000000000001
 70
     8
  0
VERTEX
  5
C132
  8
PROF
 10
2.3622849466301541
 20
10.415015608425851
 30
0.0000000000000001
 70
     8
  0
VERTEX
  5
C133
  8
PROF
 10
2.317065501558714
 20
10.40440151617929
 30
0.0000000000000001
 70
     8
  0
VERTEX
  5
C134
  8
PROF
 10
2.2690926412844301
 20
10.395390131510339
 30
0.0000000000000001
 70
     8
  0
VERTEX
  5
C135
  8
PROF
 10
2.2179978630360879
 20
10.388048295364451
 30
0.0000000000000001
 70
     8
  0
VERTEX
  5
C136
  8
PROF
 10
2.1634126640422551
 20
10.38244284868688
 30
0.0000000000000001
 70
     8
  0
VERTEX
  5
C137
  8
PROF
 10
2.1049685415316031
 20
10.37864063242295
 30
0.0000000000000001
 70
     8
  0
VERTEX
  5
C138
  8
PROF
 10
2.0422969927328709
 20
10.37670848751816
 30
0.0000000000000001
 70
     8
  0
VERTEX
  5
C139
  8
PROF
 10
1.9750295148747341
 20
10.37671325491794
 30
0.0000000000000001
 70
     8
  0
VERTEX
  5
C13A
  8
PROF
 10
4.2166060115107484
 20
12.80885334975255
 30
0.0000000000000001
 70
    16
  0
VERTEX
  5
C13B
  8
PROF
 10
3.8702254102732909
 20
12.707065515763929
 30
0.0000000000000001
 70
    16
  0
VERTEX
  5
C13C
  8
PROF
 10
3.605346156896871
 20
12.46277472098552
 30
0.0000000000000001
 70
    16
  0
VERTEX
  5
C13D
  8
PROF
 10
3.500746030527238
 20
12.170680575709749
 30
0.0000000000000001
 70
    16
  0
VERTEX
  5
C13E
  8
PROF
 10
3.231798439705698
 20
11.26846416496107
 30
0.0000000000000001
 70
    16
  0
VERTEX
  5
C13F
  8
PROF
 10
2.9737109398832882
 20
10.76631086647069
 30
0.0000000000000001
 70
    16
  0
VERTEX
  5
C140
  8
PROF
 10
2.5729961067384002
 20
10.460947364504699
 30
0.0000000000000001
 70
    16
  0
VERTEX
  5
C141
  8
PROF
 10
2.2537826214546031
 20
10.372731239449759
 30
0.0000000000000001
 70
    16
  0
VERTEX
  5
C142
  8
PROF
 10
1.9750295148747341
 20
10.37671325491794
 30
0.0000000000000001
 70
    16
  0
SEQEND
  5
C143
  8
PROF
  0
LINE
  5
C144
  8
PROF
 10
4.9012016798694162
 20
12.88585218805485
 30
0.0000000000000003
 11
4.519857503186925
 21
12.88585218805485
 31
0.0000000000000003
  0
LINE
  5
C145
  8
PROF
 10
0.7321315362267457
 20
8.2026312473991556
 30
0.0000000000000006
 11
0.7321315362267457
 21
8.0511853963434952
 31
0.0000000000000006
  0
ARC
  5
C146
  8
PROF
 10
0.7977322214551919
 20
7.577333933202679
 30
0.0000000000000006
 40
0.4783708383912013
 50
97.882010168942557
 51
186.31119505698641
  0
LINE
  5
C147
  8
FRAME_050
 10
7.8016377197432121
 20
17.99371054969447
 30
0.0
 11
7.8016377197432121
 21
0.0000000000002274
 31
0.0
  0
ENDBLK
  5
C149
  8
0
  0
BLOCK
  8
0
  2
*U7
 70
     1
 10
0.0
 20
0.0
 30
0.0
  3
*U7
  1

  0
TEXT
  5
C8C3
  8
0
 10
3.5177832928899071
 20
10.38601584255777
 30
0.0
 40
0.125
  1
Crown Moulding
  0
TEXT
  5
C8C4
  8
0
 10
3.5223876585106431
 20
10.17717091304435
 30
0.0
 40
0.125
  1
TL-AB509
  0
TEXT
  5
C8C5
  8
0
 10
3.5074661032582561
 20
9.9667059289606801
 30
0.0
 40
0.125
  1
1-5/16" x 7-9/16"
  0
TEXT
  5
C8C6
  8
0
 10
3.519403347460166
 20
9.7562409448770051
 30
0.0
 40
0.125
  1
800.66.TAGUE
  0
ENDBLK
  5
C8C8
  8
0
  0
BLOCK
  8
0
  2
*U8
 70
     1
 10
0.0
 20
0.0
 30
0.0
  3
*U8
  1

  0
TEXT
  5
C8CA
  8
0
 10
5.3066868277875692
 20
1.767659498411035
 30
0.0
 40
0.125
  1
Back Band
  0
TEXT
  5
C8CB
  8
0
 10
5.3153839628489603
 20
1.55881456889762
 30
0.0
 40
0.125
  1
TL-1
  0
TEXT
  5
C8CC
  8
0
 10
5.3004624075965721
 20
1.3483495848139451
 30
0.0
 40
0.125
  1
1-3/8" x 1-9/16"
  0
TEXT
  5
C8CD
  8
0
 10
5.3123996517984811
 20
1.1378846007302701
 30
0.0
 40
0.125
  1
800.66.TAGUE
  0
ENDBLK
  5
C8CF
  8
0
  0
BLOCK
  8
0
  2
*U9
 70
     1
 10
0.0
 20
0.0
 30
0.0
  3
*U9
  1

  0
TEXT
  5
C8D1
  8
0
 10
-385.7580743253551
 20
838.2627455404056
 30
0.0
 40
0.125
  1
Back Band
  0
TEXT
  5
C8D2
  8
0
 10
-385.74937719029373
 20
838.05390061089247
 30
0.0
 40
0.125
  1
TL-1
  0
TEXT
  5
C8D3
  8
0
 10
-385.76429874554611
 20
837.84343562680851
 30
0.0
 40
0.125
  1
1-3/8" x 1-9/16"
  0
TEXT
  5
C8D4
  8
0
 10
-385.75236150134418
 20
837.63297064272513
 30
0.0
 40
0.125
  1
800.66.TAGUE
  0
ENDBLK
  5
C8D6
  8
0
  0
BLOCK
  8
0
  2
*D21
 70
     1
 10
0.0
 20
0.0
 30
0.0
  3
*D21
  1

  0
LINE
  5
CDAB
  8
0
 62
     0
 10
-346.64573732984462
 20
509.42191863586828
 30
0.0
 11
-346.03266106471222
 21
509.42191863586828
 31
0.0
  0
LINE
  5
CDAC
  8
0
 62
     0
 10
-347.59461414974379
 20
507.61166709199199
 30
0.0
 11
-346.03266106471222
 21
507.61166709199199
 31
0.0
  0
LINE
  5
CDAD
  8
0
 62
     0
 10
-346.09516106471222
 20
509.42191863586828
 30
0.0
 11
-346.09516106471222
 21
507.61166709199199
 31
0.0
  0
INSERT
  5
CDAE
  8
0
 62
     0
  2
_ARCHTICK
 10
-346.09516106471222
 20
509.42191863586828
 30
0.0
 41
0.046875
 42
0.046875
 43
0.046875
 50
90.0
  0
INSERT
  5
CDAF
  8
0
 62
     0
  2
_ARCHTICK
 10
-346.09516106471222
 20
507.61166709199199
 30
0.0
 41
0.046875
 42
0.046875
 43
0.046875
 50
270.0
  0
INSERT
  5
CDB0
  8
0
  2
*U81
 10
0.0
 20
0.0
 30
0.0
  0
POINT
  5
CDB1
  8
DEFPOINTS
 62
     0
 10
-346.73948732984462
 20
509.42191863586828
 30
0.0
  0
POINT
  5
CDB2
  8
DEFPOINTS
 62
     0
 10
-347.68836414974379
 20
507.61166709199199
 30
0.0
  0
POINT
  5
CDB3
  8
DEFPOINTS
 62
     0
 10
-346.09516106471222
 20
507.61166709199199
 30
0.0
  0
ENDBLK
  5
CDB4
  8
0
  0
BLOCK
  8
0
  2
*D23
 70
     1
 10
0.0
 20
0.0
 30
0.0
  3
*D23
  1

  0
LINE
  5
CDEB
  8
0
 62
     0
 10
-387.02714157709249
 20
839.57969957928674
 30
0.0
 11
-386.41406531196009
 21
839.57969957928674
 31
0.0
  0
LINE
  5
CDEC
  8
0
 62
     0
 10
-387.97601839699172
 20
837.76944803541039
 30
0.0
 11
-386.41406531196009
 21
837.76944803541039
 31
0.0
  0
LINE
  5
CDED
  8
0
 62
     0
 10
-386.47656531196009
 20
839.57969957928674
 30
0.0
 11
-386.47656531196009
 21
837.76944803541039
 31
0.0
  0
INSERT
  5
CDEE
  8
0
 62
     0
  2
_ARCHTICK
 10
-386.47656531196009
 20
839.57969957928674
 30
0.0
 41
0.046875
 42
0.046875
 43
0.046875
 50
90.0
  0
INSERT
  5
CDEF
  8
0
 62
     0
  2
_ARCHTICK
 10
-386.47656531196009
 20
837.76944803541039
 30
0.0
 41
0.046875
 42
0.046875
 43
0.046875
 50
270.0
  0
INSERT
  5
CDF0
  8
0
  2
*U83
 10
0.0
 20
0.0
 30
0.0
  0
POINT
  5
CDF1
  8
DEFPOINTS
 62
     0
 10
-387.12089157709249
 20
839.57969957928674
 30
0.0
  0
POINT
  5
CDF2
  8
DEFPOINTS
 62
     0
 10
-388.06976839699172
 20
837.76944803541039
 30
0.0
  0
POINT
  5
CDF3
  8
DEFPOINTS
 62
     0
 10
-386.47656531196009
 20
837.76944803541039
 30
0.0
  0
ENDBLK
  5
CDEA
  8
0
  0
BLOCK
  8
0
  2
*U70
 70
     1
 10
0.0
 20
0.0
 30
0.0
  3
*U70
  1

  0
TEXT
  5
10237
  8
0
 10
2.0520856342580478
 20
1.4053520973297959
 30
0.0
 40
0.125
  1
Exterior Casing
  0
TEXT
  5
10238
  8
0
 10
2.0520856342580478
 20
1.1970187639964629
 30
0.0
 40
0.125
  1
TL-180
  0
TEXT
  5
10239
  8
0
 10
2.0520856342580478
 20
0.9886854306631298
 30
0.0
 40
0.125
  1
1-1/4" x 2"
  0
TEXT
  5
1023A
  8
0
 10
2.0520856342580478
 20
0.7803520973297964
 30
0.0
 40
0.125
  1
800.66.TAGUE
  0
ENDBLK
  5
1023C
  8
0
  0
BLOCK
  8
0
  2
*U71
 70
     1
 10
0.0
 20
0.0
 30
0.0
  3
*U71
  1

  0
TEXT
  5
1023E
  8
0
 10
1.875832532300876
 20
1.1538771312937111
 30
0.0
 40
0.125
  1
Exterior Casing
  0
TEXT
  5
1023F
  8
0
 10
1.875832532300876
 20
0.9455437979603782
 30
0.0
 40
0.125
  1
TL-544
  0
TEXT
  5
10240
  8
0
 10
1.875832532300876
 20
0.7372104646270449
 30
0.0
 40
0.125
  1
1-1/8" x 1-9/16"
  0
TEXT
  5
10241
  8
0
 10
1.875832532300876
 20
0.5288771312937115
 30
0.0
 40
0.125
  1
800.66.TAGUE
  0
ENDBLK
  5
10243
  8
0
  0
BLOCK
  8
0
  2
*U72
 70
     1
 10
0.0
 20
0.0
 30
0.0
  3
*U72
  1

  0
TEXT
  5
10245
  8
0
 10
2.2653468102219558
 20
1.612015904330746
 30
0.0
 40
0.125
  1
Exterior Casing
  0
TEXT
  5
10246
  8
0
 10
2.2653468102219558
 20
1.403682570997413
 30
0.0
 40
0.125
  1
TL-2023
  0
TEXT
  5
10247
  8
0
 10
2.2653468102219558
 20
1.19534923766408
 30
0.0
 40
0.125
  1
1-13/16" x 3" 
  0
TEXT
  5
10248
  8
0
 10
2.2653468102219558
 20
0.9870159043307467
 30
0.0
 40
0.125
  1
800.66.TAGUE
  0
ENDBLK
  5
1024A
  8
0
  0
BLOCK
  8
0
  2
*U73
 70
     1
 10
0.0
 20
0.0
 30
0.0
  3
*U73
  1

  0
TEXT
  5
1024C
  8
0
 10
2.0898675486657221
 20
0.9145072342178082
 30
0.0
 40
0.125
  1
Exterior Casing
  0
TEXT
  5
1024D
  8
0
 10
2.0898675486657221
 20
0.706173900884475
 30
0.0
 40
0.125
  1
TL-2087
  0
TEXT
  5
1024E
  8
0
 10
2.0898675486657221
 20
0.4978405675511416
 30
0.0
 40
0.125
  1
7/8" x 1-7/16"
  0
TEXT
  5
1024F
  8
0
 10
2.0898675486657221
 20
0.2895072342178082
 30
0.0
 40
0.125
  1
800.66.TAGUE
  0
ENDBLK
  5
10251
  8
0
  0
BLOCK
  8
0
  2
*U74
 70
     1
 10
0.0
 20
0.0
 30
0.0
  3
*U74
  1

  0
TEXT
  5
10253
  8
0
 10
2.1806631076311191
 20
0.8419101546792263
 30
0.0
 40
0.125
  1
Exterior Casing
  0
TEXT
  5
10254
  8
0
 10
2.1806631076311191
 20
0.6335768213458931
 30
0.0
 40
0.125
  1
TL-2158
  0
TEXT
  5
10255
  8
0
 10
2.1806631076311191
 20
0.4252434880125597
 30
0.0
 40
0.125
  1
1-1/16" x 1-5/16"
  0
TEXT
  5
10256
  8
0
 10
2.1806631076311191
 20
0.2169101546792262
 30
0.0
 40
0.125
  1
800.66.TAGUE
  0
ENDBLK
  5
10258
  8
0
  0
BLOCK
  8
0
  2
*U75
 70
     1
 10
0.0
 20
0.0
 30
0.0
  3
*U75
  1

  0
TEXT
  5
1025A
  8
0
 10
2.2408536425556909
 20
1.2992247915469759
 30
0.0
 40
0.125
  1
Exterior Casing
  0
TEXT
  5
1025B
  8
0
 10
2.2408536425556909
 20
1.090891458213642
 30
0.0
 40
0.125
  1
TL-2174
  0
TEXT
  5
1025C
  8
0
 10
2.2408536425556909
 20
0.8825581248803095
 30
0.0
 40
0.125
  1
1-3/8" x 1-7/16"
  0
TEXT
  5
1025D
  8
0
 10
2.2408536425556909
 20
0.6742247915469762
 30
0.0
 40
0.125
  1
800.66.TAGUE
  0
ENDBLK
  5
1025F
  8
0
  0
BLOCK
  8
0
  2
*U76
 70
     1
 10
0.0
 20
0.0
 30
0.0
  3
*U76
  1

  0
TEXT
  5
10261
  8
0
 10
2.8048346441314029
 20
1.129982283289336
 30
0.0
 40
0.125
  1
Exterior Casing
  0
TEXT
  5
10262
  8
0
 10
2.8048346441314029
 20
0.9216489499560037
 30
0.0
 40
0.125
  1
TL-2175
  0
TEXT
  5
10263
  8
0
 10
2.8048346441314029
 20
0.7133156166226704
 30
0.0
 40
0.125
  1
1-9/32" x 1-29/32"
  0
TEXT
  5
10264
  8
0
 10
2.8048346441314029
 20
0.504982283289337
 30
0.0
 40
0.125
  1
800.66.TAGUE
  0
ENDBLK
  5
10266
  8
0
  0
BLOCK
  8
0
  2
*U77
 70
     1
 10
0.0
 20
0.0
 30
0.0
  3
*U77
  1

  0
TEXT
  5
10268
  8
0
 10
2.5484960182450891
 20
0.679430053902138
 30
0.0
 40
0.125
  1
Exterior Casing
  0
TEXT
  5
10269
  8
0
 10
2.5484960182450891
 20
0.4710967205688046
 30
0.0
 40
0.125
  1
TL-2176
  0
TEXT
  5
1026A
  8
0
 10
2.5484960182450891
 20
0.2627633872354712
 30
0.0
 40
0.125
  1
19/32" x 1-5/8"
  0
TEXT
  5
1026B
  8
0
 10
2.5484960182450891
 20
0.0544300539021379
 30
0.0
 40
0.125
  1
800.66.TAGUE
  0
ENDBLK
  5
1026D
  8
0
  0
BLOCK
  8
0
  2
*U78
 70
     1
 10
0.0
 20
0.0
 30
0.0
  3
*U78
  1

  0
TEXT
  5
1026F
  8
0
 10
2.105732231568993
 20
0.7255830389262883
 30
0.0
 40
0.125
  1
Exterior Casing
  0
TEXT
  5
10270
  8
0
 10
2.105732231568993
 20
0.5172497055929551
 30
0.0
 40
0.125
  1
TL-2108
  0
TEXT
  5
10271
  8
0
 10
2.105732231568993
 20
0.3089163722596217
 30
0.0
 40
0.125
  1
15/16" x 1-1/16"
  0
TEXT
  5
10272
  8
0
 10
2.105732231568993
 20
0.1005830389262883
 30
0.0
 40
0.125
  1
800.66.TAGUE
  0
ENDBLK
  5
10274
  8
0
  0
BLOCK
  8
0
  2
*U79
 70
     1
 10
0.0
 20
0.0
 30
0.0
  3
*U79
  1

  0
TEXT
  5
10276
  8
0
 10
0.0469294570366401
 20
0.67943073463357
 30
0.0
 40
0.125
  1
Exterior Casing
  0
TEXT
  5
10277
  8
0
 10
0.0469294570366401
 20
0.4710974013002366
 30
0.0
 40
0.125
  1
TL-2206
  0
TEXT
  5
10278
  8
0
 10
0.0469294570366401
 20
0.2627640679669033
 30
0.0
 40
0.125
  1
1-3/32" x 1-23/32"
  0
TEXT
  5
10279
  8
0
 10
0.0469294570366401
 20
0.05443073463357
 30
0.0
 40
0.125
  1
800.66.TAGUE
  0
ENDBLK
  5
1027B
  8
0
  0
BLOCK
  8
0
  2
*U80
 70
     1
 10
0.0
 20
0.0
 30
0.0
  3
*U80
  1

  0
TEXT
  5
1027D
  8
0
 10
0.0449853036485593
 20
0.6794309447934666
 30
0.0
 40
0.125
  1
Exterior Casing
  0
TEXT
  5
1027E
  8
0
 10
0.0449853036485593
 20
0.4710976114601333
 30
0.0
 40
0.125
  1
TL-2207
  0
TEXT
  5
1027F
  8
0
 10
0.0449853036485593
 20
0.2627642781267999
 30
0.0
 40
0.125
  1
1-1/8" x 2-15/16"
  0
TEXT
  5
10280
  8
0
 10
0.0449853036485593
 20
0.0544309447934666
 30
0.0
 40
0.125
  1
800.66.TAGUE
  0
ENDBLK
  5
10282
  8
0
  0
BLOCK
  8
0
  2
*U81
 70
     1
 10
0.0
 20
0.0
 30
0.0
  3
*U81
  1

  0
TEXT
  5
10284
  8
0
 62
     0
 10
-346.15979271546257
 20
508.16262619726342
 30
0.0
 40
0.125
  1
Cutter
 50
90.0
  0
ENDBLK
  5
10286
  8
0
  0
BLOCK
  8
0
  2
*U82
 70
     1
 10
0.0
 20
0.0
 30
0.0
  3
*U82
  1

  0
TEXT
  5
10288
  8
0
 10
3.5112004937425918
 20
2.3236705000861089
 30
0.0
 40
0.125
  1
Exterior Casing
  0
TEXT
  5
10289
  8
0
 10
3.5112004937425918
 20
2.1153371667527749
 30
0.0
 40
0.125
  1
TL-2242
  0
TEXT
  5
1028A
  8
0
 10
3.5112004937425918
 20
1.9070038334194419
 30
0.0
 40
0.125
  1
2" x 4-1/2"
  0
TEXT
  5
1028B
  8
0
 10
3.5112004937425918
 20
1.6986705000861091
 30
0.0
 40
0.125
  1
800.66.TAGUE
  0
ENDBLK
  5
1028D
  8
0
  0
BLOCK
  8
0
  2
*U83
 70
     1
 10
0.0
 20
0.0
 30
0.0
  3
*U83
  1

  0
TEXT
  5
1028F
  8
0
 62
     0
 10
-386.5390653119602
 20
838.32040714068194
 30
0.0
 40
0.125
  1
Cutter
 50
90.0
  0
ENDBLK
  5
10291
  8
0
  0
BLOCK
  8
0
  2
*U84
 70
     1
 10
0.0
 20
0.0
 30
0.0
  3
*U84
  1

  0
TEXT
  5
10293
  8
0
 10
1.983241637717696
 20
1.2297917133489591
 30
0.0
 40
0.125
  1
Exterior Casing
  0
TEXT
  5
10294
  8
0
 10
1.983241637717696
 20
1.0214583800156249
 30
0.0
 40
0.125
  1
TL-2254
  0
TEXT
  5
10295
  8
0
 10
1.983241637717696
 20
0.8131250466822924
 30
0.0
 40
0.125
  1
1-1/4" x 1-3/4"
  0
TEXT
  5
10296
  8
0
 10
1.983241637717696
 20
0.6047917133489591
 30
0.0
 40
0.125
  1
800.66.TAGUE
  0
ENDBLK
  5
10298
  8
0
  0
BLOCK
  8
0
  2
*U85
 70
     1
 10
0.0
 20
0.0
 30
0.0
  3
*U85
  1

  0
TEXT
  5
1029A
  8
0
 10
2.2285402119240412
 20
3.7215677387475798
 30
0.0
 40
0.125
  1
Exterior Jamb
  0
TEXT
  5
1029B
  8
0
 10
2.2285402119240412
 20
3.5132344054142468
 30
0.0
 40
0.125
  1
TL-2126
  0
TEXT
  5
1029C
  8
0
 10
2.2285402119240412
 20
3.3049010720809142
 30
0.0
 40
0.125
  1
1-1/4" x 6-5/8"
  0
TEXT
  5
1029D
  8
0
 10
2.2285402119240412
 20
3.0965677387475798
 30
0.0
 40
0.125
  1
800.66.TAGUE
  0
ENDBLK
  5
1029F
  8
0
  0
BLOCK
  8
0
  2
*U86
 70
     1
 10
0.0
 20
0.0
 30
0.0
  3
*U86
  1

  0
TEXT
  5
102A1
  8
0
 10
2.025590122046196
 20
3.8877018206065941
 30
0.0
 40
0.125
  1
Exterior Jamb
  0
TEXT
  5
102A2
  8
0
 10
2.025590122046196
 20
3.6793684872732602
 30
0.0
 40
0.125
  1
TL-2127
  0
TEXT
  5
102A3
  8
0
 10
2.025590122046196
 20
3.4710351539399271
 30
0.0
 40
0.125
  1
1-1/4" x 6-5/8"
  0
TEXT
  5
102A4
  8
0
 10
2.025590122046196
 20
3.2627018206065941
 30
0.0
 40
0.125
  1
800.66.TAGUE
  0
ENDBLK
  5
102A6
  8
0
  0
BLOCK
  8
0
  2
*U87
 70
     1
 10
0.0
 20
0.0
 30
0.0
  3
*U87
  1

  0
TEXT
  5
102A8
  8
0
 10
1.8279899277385421
 20
2.0085009357213721
 30
0.0
 40
0.125
  1
Fluting
  0
TEXT
  5
102A9
  8
0
 10
1.8279899277385421
 20
1.800167602388038
 30
0.0
 40
0.125
  1
TL-123
  0
TEXT
  5
102AA
  8
0
 10
1.8279899277385421
 20
1.5918342690547049
 30
0.0
 40
0.125
  1
3/4" x 3-1/2"
  0
TEXT
  5
102AB
  8
0
 10
1.8279899277385421
 20
1.3835009357213719
 30
0.0
 40
0.125
  1
800.66.TAGUE
  0
ENDBLK
  5
102AD
  8
0
  0
BLOCK
  8
0
  2
*U88
 70
     1
 10
0.0
 20
0.0
 30
0.0
  3
*U88
  1

  0
TEXT
  5
102AF
  8
0
 10
1.9710461263608181
 20
3.9608870512416838
 30
0.0
 40
0.125
  1
Fluting
  0
TEXT
  5
102B0
  8
0
 10
1.9710461263608181
 20
3.7525537179083499
 30
0.0
 40
0.125
  1
TL-343
  0
TEXT
  5
102B1
  8
0
 10
1.9710461263608181
 20
3.5442203845750169
 30
0.0
 40
0.125
  1
7/8" x 7-3/16"
  0
TEXT
  5
102B2
  8
0
 10
1.9710461263608181
 20
3.3358870512416838
 30
0.0
 40
0.125
  1
800.66.TAGUE
  0
ENDBLK
  5
102B4
  8
0
  0
BLOCK
  8
0
  2
*U89
 70
     1
 10
0.0
 20
0.0
 30
0.0
  3
*U89
  1

  0
TEXT
  5
102B6
  8
0
 10
1.4662897697170929
 20
3.8395028676267202
 30
0.0
 40
0.125
  1
Fluting
  0
TEXT
  5
102B7
  8
0
 10
1.4662897697170929
 20
3.6311695342933858
 30
0.0
 40
0.125
  1
TL-2183
  0
TEXT
  5
102B8
  8
0
 10
1.4662897697170929
 20
3.4228362009600528
 30
0.0
 40
0.125
  1
3/4" x 7-1/4"
  0
TEXT
  5
102B9
  8
0
 10
1.4662897697170929
 20
3.2145028676267202
 30
0.0
 40
0.125
  1
800.66.TAGUE
  0
ENDBLK
  5
102BB
  8
0
  0
BLOCK
  8
0
  2
*U90
 70
     1
 10
0.0
 20
0.0
 30
0.0
  3
*U90
  1

  0
TEXT
  5
102BD
  8
0
 10
2.0951853732560148
 20
2.6676693683394879
 30
0.0
 40
0.125
  1
Fluting
  0
TEXT
  5
102BE
  8
0
 10
2.0951853732560148
 20
2.4593360350061548
 30
0.0
 40
0.125
  1
TL-2276
  0
TEXT
  5
102BF
  8
0
 10
2.0951853732560148
 20
2.2510027016728218
 30
0.0
 40
0.125
  1
11/16" x 3"
  0
TEXT
  5
102C0
  8
0
 10
2.0951853732560148
 20
2.0426693683394879
 30
0.0
 40
0.125
  1
800.66.TAGUE
  0
ENDBLK
  5
102C2
  8
0
  0
BLOCK
  8
0
  2
*U91
 70
     1
 10
0.0
 20
0.0
 30
0.0
  3
*U91
  1

  0
TEXT
  5
102C4
  8
0
 10
2.4586482925877808
 20
1.0775582798773931
 30
0.0
 40
0.125
  1
Full Round
  0
TEXT
  5
102C5
  8
0
 10
2.4586482925877808
 20
0.8692249465440607
 30
0.0
 40
0.125
  1
TL-232
  0
TEXT
  5
102C6
  8
0
 10
2.4586482925877808
 20
0.6608916132107274
 30
0.0
 40
0.125
  1
1-7/16" x 1-7/16"
  0
TEXT
  5
102C7
  8
0
 10
2.4586482925877808
 20
0.452558279877394
 30
0.0
 40
0.125
  1
800.66.TAGUE
  0
ENDBLK
  5
102C9
  8
0
  0
BLOCK
  8
0
  2
*U92
 70
     1
 10
0.0
 20
0.0
 30
0.0
  3
*U92
  1

  0
TEXT
  5
102CB
  8
0
 10
2.339763263951113
 20
0.912090443150646
 30
0.0
 40
0.125
  1
Full Round
  0
TEXT
  5
102CC
  8
0
 10
2.339763263951113
 20
0.7037571098173128
 30
0.0
 40
0.125
  1
TL-233
  0
TEXT
  5
102CD
  8
0
 10
2.339763263951113
 20
0.4954237764839795
 30
0.0
 40
0.125
  1
1-3/16" x 1-3/16"
  0
TEXT
  5
102CE
  8
0
 10
2.339763263951113
 20
0.287090443150646
 30
0.0
 40
0.125
  1
800.66.TAGUE
  0
ENDBLK
  5
102D0
  8
0
  0
BLOCK
  8
0
  2
*U93
 70
     1
 10
0.0
 20
0.0
 30
0.0
  3
*U93
  1

  0
TEXT
  5
102D2
  8
0
 10
2.2927598682417729
 20
0.8643692839127652
 30
0.0
 40
0.125
  1
Full Round
  0
TEXT
  5
102D3
  8
0
 10
2.2927598682417729
 20
0.6560359505794321
 30
0.0
 40
0.125
  1
TL-234
  0
TEXT
  5
102D4
  8
0
 10
2.2927598682417729
 20
0.4477026172460987
 30
0.0
 40
0.125
  1
1-1/16" x 1-1/16"
  0
TEXT
  5
102D5
  8
0
 10
2.2927598682417729
 20
0.2393692839127652
 30
0.0
 40
0.125
  1
800.66.TAGUE
  0
ENDBLK
  5
102D7
  8
0
  0
BLOCK
  8
0
  2
*U94
 70
     1
 10
0.0
 20
0.0
 30
0.0
  3
*U94
  1

  0
TEXT
  5
102D9
  8
0
 10
2.0765905058337921
 20
1.0252762384561711
 30
0.0
 40
0.125
  1
Glass Bead
  0
TEXT
  5
102DA
  8
0
 10
2.0765905058337921
 20
0.8169429051228387
 30
0.0
 40
0.125
  1
TL-145
  0
TEXT
  5
102DB
  8
0
 10
2.0765905058337921
 20
0.6086095717895054
 30
0.0
 40
0.125
  1
11/16" x 3/4"
  0
TEXT
  5
102DC
  8
0
 10
2.0765905058337921
 20
0.400276238456172
 30
0.0
 40
0.125
  1
800.66.TAGUE
  0
ENDBLK
  5
102DE
  8
0
  0
BLOCK
  8
0
  2
*U95
 70
     1
 10
0.0
 20
0.0
 30
0.0
  3
*U95
  1

  0
TEXT
  5
102E0
  8
0
 10
1.468683703905185
 20
0.7455079879047162
 30
0.0
 40
0.125
  1
Glass Bead
  0
TEXT
  5
102E1
  8
0
 10
1.468683703905185
 20
0.537174654571383
 30
0.0
 40
0.125
  1
TL-147
  0
TEXT
  5
102E2
  8
0
 10
1.468683703905185
 20
0.3288413212380496
 30
0.0
 40
0.125
  1
1/2" x 9/16"
  0
TEXT
  5
102E3
  8
0
 10
1.468683703905185
 20
0.1205079879047162
 30
0.0
 40
0.125
  1
800.66.TAGUE
  0
ENDBLK
  5
102E5
  8
0
  0
BLOCK
  8
0
  2
*U96
 70
     1
 10
0.0
 20
0.0
 30
0.0
  3
*U96
  1

  0
TEXT
  5
102E7
  8
0
 10
1.584020839760341
 20
0.6794303041602916
 30
0.0
 40
0.125
  1
Glass Bead
  0
TEXT
  5
102E8
  8
0
 10
1.584020839760341
 20
0.4710969708269583
 30
0.0
 40
0.125
  1
TL-152
  0
TEXT
  5
102E9
  8
0
 10
1.584020839760341
 20
0.262763637493625
 30
0.0
 40
0.125
  1
3/8" x 11/16"
  0
TEXT
  5
102EA
  8
0
 10
1.584020839760341
 20
0.0544303041602916
 30
0.0
 40
0.125
  1
800.66.TAGUE
  0
ENDBLK
  5
102EC
  8
0
  0
BLOCK
  8
0
  2
*U97
 70
     1
 10
0.0
 20
0.0
 30
0.0
  3
*U97
  1

  0
TEXT
  5
102EE
  8
0
 10
1.3526095965341931
 20
0.7381811042487243
 30
0.0
 40
0.125
  1
Glass Bead
  0
TEXT
  5
102EF
  8
0
 10
1.3526095965341931
 20
0.5298477709153912
 30
0.0
 40
0.125
  1
TL-2142
  0
TEXT
  5
102F0
  8
0
 10
1.3526095965341931
 20
0.3215144375820577
 30
0.0
 40
0.125
  1
11/32" x 29/32"
  0
TEXT
  5
102F1
  8
0
 10
1.3526095965341931
 20
0.1131811042487243
 30
0.0
 40
0.125
  1
800.66.TAGUE
  0
ENDBLK
  5
102F3
  8
0
  0
BLOCK
  8
0
  2
*U98
 70
     1
 10
0.0
 20
0.0
 30
0.0
  3
*U98
  1

  0
TEXT
  5
102F5
  8
0
 10
1.3435544091540801
 20
0.6794309539541246
 30
0.0
 40
0.125
  1
Glass Bead
  0
TEXT
  5
102F6
  8
0
 10
1.3435544091540801
 20
0.4710976206207913
 30
0.0
 40
0.125
  1
TL-2149
  0
TEXT
  5
102F7
  8
0
 10
1.3435544091540801
 20
0.2627642872874579
 30
0.0
 40
0.125
  1
3/8" x 1/2"
  0
TEXT
  5
102F8
  8
0
 10
1.3435544091540801
 20
0.0544309539541246
 30
0.0
 40
0.125
  1
800.66.TAGUE
  0
ENDBLK
  5
102FA
  8
0
  0
BLOCK
  8
0
  2
*U99
 70
     1
 10
0.0
 20
0.0
 30
0.0
  3
*U99
  1

  0
TEXT
  5
102FC
  8
0
 10
1.488844305553698
 20
0.6807937379744545
 30
0.0
 40
0.125
  1
Glass Bead
  0
TEXT
  5
102FD
  8
0
 10
1.488844305553698
 20
0.4724604046411212
 30
0.0
 40
0.125
  1
TL-2155
  0
TEXT
  5
102FE
  8
0
 10
1.488844305553698
 20
0.2641270713077878
 30
0.0
 40
0.125
  1
1/2" x 13/16"
  0
TEXT
  5
102FF
  8
0
 10
1.488844305553698
 20
0.0557937379744544
 30
0.0
 40
0.125
  1
800.66.TAGUE
  0
ENDBLK
  5
10301
  8
0
  0
BLOCK
  8
0
  2
*U100
 70
     1
 10
0.0
 20
0.0
 30
0.0
  3
*U100
  1

  0
TEXT
  5
10303
  8
0
 10
1.52304343587059
 20
0.6794307504626432
 30
0.0
 40
0.125
  1
Glass Bead
  0
TEXT
  5
10304
  8
0
 10
1.52304343587059
 20
0.4710974171293099
 30
0.0
 40
0.125
  1
TL-2218
  0
TEXT
  5
10305
  8
0
 10
1.52304343587059
 20
0.2627640837959765
 30
0.0
 40
0.125
  1
1/4" x 5/8"
  0
TEXT
  5
10306
  8
0
 10
1.52304343587059
 20
0.0544307504626431
 30
0.0
 40
0.125
  1
800.66.TAGUE
  0
ENDBLK
  5
10308
  8
0
  0
BLOCK
  8
0
  2
*U101
 70
     1
 10
0.0
 20
0.0
 30
0.0
  3
*U101
  1

  0
TEXT
  5
1030A
  8
0
 10
2.8235364504146778
 20
0.7161662597191026
 30
0.0
 40
0.125
  1
Half Round
  0
TEXT
  5
1030B
  8
0
 10
2.8235364504146778
 20
0.5078329263857692
 30
0.0
 40
0.125
  1
TL-6
  0
TEXT
  5
1030C
  8
0
 10
2.8235364504146778
 20
0.2994995930524358
 30
0.0
 40
0.125
  1
7/8" x 1-3/4"
  0
TEXT
  5
1030D
  8
0
 10
2.8235364504146778
 20
0.0911662597191025
 30
0.0
 40
0.125
  1
800.66.TAGUE
  0
ENDBLK
  5
1030F
  8
0
  0
BLOCK
  8
0
  2
*U102
 70
     1
 10
0.0
 20
0.0
 30
0.0
  3
*U102
  1

  0
TEXT
  5
10311
  8
0
 10
2.8316039409763221
 20
0.7222806133900122
 30
0.0
 40
0.125
  1
Half Round
  0
TEXT
  5
10312
  8
0
 10
2.8316039409763221
 20
0.5139472800566788
 30
0.0
 40
0.125
  1
TL-7
  0
TEXT
  5
10313
  8
0
 10
2.8316039409763221
 20
0.3056139467233454
 30
0.0
 40
0.125
  1
1" x 2"
  0
TEXT
  5
10314
  8
0
 10
2.8316039409763221
 20
0.0972806133900122
 30
0.0
 40
0.125
  1
800.66.TAGUE
  0
ENDBLK
  5
10316
  8
0
  0
BLOCK
  8
0
  2
*U103
 70
     1
 10
0.0
 20
0.0
 30
0.0
  3
*U103
  1

  0
TEXT
  5
10318
  8
0
 10
4.3092556456276148
 20
0.8292621657587915
 30
0.0
 40
0.125
  1
Half Round
  0
TEXT
  5
10319
  8
0
 10
4.3092556456276148
 20
0.6209288324254582
 30
0.0
 40
0.125
  1
TL-8
  0
TEXT
  5
1031A
  8
0
 10
4.3092556456276148
 20
0.4125954990921248
 30
0.0
 40
0.125
  1
1-1/2" x 3"
  0
TEXT
  5
1031B
  8
0
 10
4.3092556456276148
 20
0.2042621657587915
 30
0.0
 40
0.125
  1
800.66.TAGUE
  0
ENDBLK
  5
1031D
  8
0
  0
BLOCK
  8
0
  2
*U104
 70
     1
 10
0.0
 20
0.0
 30
0.0
  3
*U104
  1

  0
TEXT
  5
1031F
  8
0
 10
2.524104426630799
 20
0.6794299200373644
 30
0.0
 40
0.125
  1
Half Round
  0
TEXT
  5
10320
  8
0
 10
2.524104426630799
 20
0.471096586704031
 30
0.0
 40
0.125
  1
TL-116
  0
TEXT
  5
10321
  8
0
 10
2.524104426630799
 20
0.2627632533706976
 30
0.0
 40
0.125
  1
3/4" x 1-1/2"
  0
TEXT
  5
10322
  8
0
 10
2.524104426630799
 20
0.0544299200373644
 30
0.0
 40
0.125
  1
800.66.TAGUE
  0
ENDBLK
  5
10324
  8
0
  0
BLOCK
  8
0
  2
*U105
 70
     1
 10
0.0
 20
0.0
 30
0.0
  3
*U105
  1

  0
TEXT
  5
10326
  8
0
 10
2.4691699319003528
 20
0.6794301275302815
 30
0.0
 40
0.125
  1
Half Round
  0
TEXT
  5
10327
  8
0
 10
2.4691699319003528
 20
0.4710967941969481
 30
0.0
 40
0.125
  1
TL-119
  0
TEXT
  5
10328
  8
0
 10
2.4691699319003528
 20
0.2627634608636147
 30
0.0
 40
0.125
  1
5/8" x 1-1/4"
  0
TEXT
  5
10329
  8
0
 10
2.4691699319003528
 20
0.0544301275302814
 30
0.0
 40
0.125
  1
800.66.TAGUE
  0
ENDBLK
  5
1032B
  8
0
  0
BLOCK
  8
0
  2
*U106
 70
     1
 10
0.0
 20
0.0
 30
0.0
  3
*U106
  1

  0
TEXT
  5
1032D
  8
0
 10
1.96218194837894
 20
0.679429735423696
 30
0.0
 40
0.125
  1
Half Round
  0
TEXT
  5
1032E
  8
0
 10
1.96218194837894
 20
0.4710964020903626
 30
0.0
 40
0.125
  1
TL-120
  0
TEXT
  5
1032F
  8
0
 10
1.96218194837894
 20
0.2627630687570293
 30
0.0
 40
0.125
  1
1/2" x 1"
  0
TEXT
  5
10330
  8
0
 10
1.96218194837894
 20
0.054429735423696
 30
0.0
 40
0.125
  1
800.66.TAGUE
  0
ENDBLK
  5
10332
  8
0
  0
BLOCK
  8
0
  2
*U107
 70
     1
 10
0.0
 20
0.0
 30
0.0
  3
*U107
  1

  0
TEXT
  5
10334
  8
0
 10
1.51989036816559
 20
0.679429754589819
 30
0.0
 40
0.125
  1
Half Round
  0
TEXT
  5
10335
  8
0
 10
1.51989036816559
 20
0.4710964212564856
 30
0.0
 40
0.125
  1
TL-122
  0
TEXT
  5
10336
  8
0
 10
1.51989036816559
 20
0.2627630879231522
 30
0.0
 40
0.125
  1
11/32" x 11/16"
  0
TEXT
  5
10337
  8
0
 10
1.51989036816559
 20
0.0544297545898189
 30
0.0
 40
0.125
  1
800.66.TAGUE
  0
ENDBLK
  5
10339
  8
0
  0
BLOCK
  8
0
  2
*U108
 70
     1
 10
0.0
 20
0.0
 30
0.0
  3
*U108
  1

  0
TEXT
  5
1033B
  8
0
 10
1.332760358760481
 20
0.6794306489528026
 30
0.0
 40
0.125
  1
Half Round
  0
TEXT
  5
1033C
  8
0
 10
1.332760358760481
 20
0.4710973156194692
 30
0.0
 40
0.125
  1
TL-124
  0
TEXT
  5
1033D
  8
0
 10
1.332760358760481
 20
0.2627639822861358
 30
0.0
 40
0.125
  1
1/4" x 1/2"
  0
TEXT
  5
1033E
  8
0
 10
1.332760358760481
 20
0.0544306489528026
 30
0.0
 40
0.125
  1
800.66.TAGUE
  0
ENDBLK
  5
10340
  8
0
  0
BLOCK
  8
0
  2
*U109
 70
     1
 10
0.0
 20
0.0
 30
0.0
  3
*U109
  1

  0
TEXT
  5
10342
  8
0
 10
2.6263646070054838
 20
2.827461056571678
 30
0.0
 40
0.125
  1
Hand Rail
  0
TEXT
  5
10343
  8
0
 10
2.6263646070054838
 20
2.6191277232383441
 30
0.0
 40
0.125
  1
TL-14
  0
TEXT
  5
10344
  8
0
 10
2.6263646070054838
 20
2.410794389905011
 30
0.0
 40
0.125
  1
1-5/8" x 5-1/4"
  0
TEXT
  5
10345
  8
0
 10
2.6263646070054838
 20
2.202461056571678
 30
0.0
 40
0.125
  1
800.66.TAGUE
  0
ENDBLK
  5
10347
  8
0
  0
BLOCK
  8
0
  2
*U110
 70
     1
 10
0.0
 20
0.0
 30
0.0
  3
*U110
  1

  0
TEXT
  5
10349
  8
0
 10
2.2830209502855041
 20
2.755934710444194
 30
0.0
 40
0.125
  1
Hand Rail
  0
TEXT
  5
1034A
  8
0
 10
2.2830209502855041
 20
2.5476013771108601
 30
0.0
 40
0.125
  1
TL-15
  0
TEXT
  5
1034B
  8
0
 10
2.2830209502855041
 20
2.3392680437775271
 30
0.0
 40
0.125
  1
1-3/8" x 5-1/2"
  0
TEXT
  5
1034C
  8
0
 10
2.2830209502855041
 20
2.130934710444194
 30
0.0
 40
0.125
  1
800.66.TAGUE
  0
ENDBLK
  5
1034E
  8
0
  0
BLOCK
  8
0
  2
*U111
 70
     1
 10
0.0
 20
0.0
 30
0.0
  3
*U111
  1

  0
TEXT
  5
10350
  8
0
 10
3.5100871080940119
 20
1.046126857764647
 30
0.0
 40
0.125
  1
Hand Rail
  0
TEXT
  5
10351
  8
0
 10
3.5100871080940119
 20
0.8377935244313146
 30
0.0
 40
0.125
  1
TL-96
  0
TEXT
  5
10352
  8
0
 10
3.5100871080940119
 20
0.6294601910979814
 30
0.0
 40
0.125
  1
1-1/4" x 2-1/4"
  0
TEXT
  5
10353
  8
0
 10
3.5100871080940119
 20
0.4211268577646479
 30
0.0
 40
0.125
  1
800.66.TAGUE
  0
ENDBLK
  5
10355
  8
0
  0
BLOCK
  8
0
  2
*U112
 70
     1
 10
0.0
 20
0.0
 30
0.0
  3
*U112
  1

  0
TEXT
  5
10357
  8
0
 10
2.3417636350062589
 20
4.2171919217870482
 30
0.0
 40
0.125
  1
Hand Rail
  0
TEXT
  5
10358
  8
0
 10
2.3417636350062589
 20
4.0088585884537151
 30
0.0
 40
0.125
  1
TL-117
  0
TEXT
  5
10359
  8
0
 10
2.3417636350062589
 20
3.8005252551203812
 30
0.0
 40
0.125
  1
1-1/4" x 8-1/8"
  0
TEXT
  5
1035A
  8
0
 10
2.3417636350062589
 20
3.5921919217870482
 30
0.0
 40
0.125
  1
800.66.TAGUE
  0
ENDBLK
  5
1035C
  8
0
  0
BLOCK
  8
0
  2
*U113
 70
     1
 10
0.0
 20
0.0
 30
0.0
  3
*U113
  1

  0
TEXT
  5
1035E
  8
0
 10
2.7125232555794119
 20
1.098442957172892
 30
0.0
 40
0.125
  1
Hand Rail
  0
TEXT
  5
1035F
  8
0
 10
2.7125232555794119
 20
0.8901096238395592
 30
0.0
 40
0.125
  1
TL-231
  0
TEXT
  5
10360
  8
0
 10
2.7125232555794119
 20
0.6817762905062259
 30
0.0
 40
0.125
  1
1-1/2" x 1-11/16"
  0
TEXT
  5
10361
  8
0
 10
2.7125232555794119
 20
0.4734429571728925
 30
0.0
 40
0.125
  1
800.66.TAGUE
  0
ENDBLK
  5
10363
  8
0
  0
BLOCK
  8
0
  2
*U114
 70
     1
 10
0.0
 20
0.0
 30
0.0
  3
*U114
  1

  0
TEXT
  5
10365
  8
0
 10
2.960252587020249
 20
0.6772989443436474
 30
0.0
 40
0.125
  1
Lattice
  0
TEXT
  5
10366
  8
0
 10
2.960252587020249
 20
0.468965611010314
 30
0.0
 40
0.125
  1
TL-266
  0
TEXT
  5
10367
  8
0
 10
2.960252587020249
 20
0.2606322776769806
 30
0.0
 40
0.125
  1
1/4" x 1-5/8"
  0
TEXT
  5
10368
  8
0
 10
2.960252587020249
 20
0.0522989443436472
 30
0.0
 40
0.125
  1
800.66.TAGUE
  0
ENDBLK
  5
1036A
  8
0
  0
BLOCK
  8
0
  2
*U115
 70
     1
 10
0.0
 20
0.0
 30
0.0
  3
*U115
  1

  0
TEXT
  5
1036C
  8
0
 10
2.5177643903332401
 20
0.6772985360157691
 30
0.0
 40
0.125
  1
Lattice
  0
TEXT
  5
1036D
  8
0
 10
2.5177643903332401
 20
0.4689652026824358
 30
0.0
 40
0.125
  1
TL-267
  0
TEXT
  5
1036E
  8
0
 10
2.5177643903332401
 20
0.2606318693491024
 30
0.0
 40
0.125
  1
1/4" x 1-3/8"
  0
TEXT
  5
1036F
  8
0
 10
2.5177643903332401
 20
0.0522985360157691
 30
0.0
 40
0.125
  1
800.66.TAGUE
  0
ENDBLK
  5
10371
  8
0
  0
BLOCK
  8
0
  2
*U116
 70
     1
 10
0.0
 20
0.0
 30
0.0
  3
*U116
  1

  0
TEXT
  5
10373
  8
0
 10
2.3872073702682419
 20
0.6772987437404936
 30
0.0
 40
0.125
  1
Lattice
  0
TEXT
  5
10374
  8
0
 10
2.3872073702682419
 20
0.4689654104071603
 30
0.0
 40
0.125
  1
TL-268
  0
TEXT
  5
10375
  8
0
 10
2.3872073702682419
 20
0.260632077073827
 30
0.0
 40
0.125
  1
1/4" x 1-1/8"
  0
TEXT
  5
10376
  8
0
 10
2.3872073702682419
 20
0.0522987437404936
 30
0.0
 40
0.125
  1
800.66.TAGUE
  0
ENDBLK
  5
10378
  8
0
  0
BLOCK
  8
0
  2
*U117
 70
     1
 10
0.0
 20
0.0
 30
0.0
  3
*U117
  1

  0
TEXT
  5
1037A
  8
0
 10
1.7198452767448771
 20
0.6772982915522335
 30
0.0
 40
0.125
  1
Lattice
  0
TEXT
  5
1037B
  8
0
 10
1.7198452767448771
 20
0.4689649582189002
 30
0.0
 40
0.125
  1
TL-269
  0
TEXT
  5
1037C
  8
0
 10
1.7198452767448771
 20
0.2606316248855668
 30
0.0
 40
0.125
  1
1/4" x 3/4"
  0
TEXT
  5
1037D
  8
0
 10
1.7198452767448771
 20
0.0522982915522334
 30
0.0
 40
0.125
  1
800.66.TAGUE
  0
ENDBLK
  5
1037F
  8
0
  0
BLOCK
  8
0
  2
*U118
 70
     1
 10
0.0
 20
0.0
 30
0.0
  3
*U118
  1

  0
TEXT
  5
10381
  8
0
 10
2.0085733028087129
 20
0.6772989387914095
 30
0.0
 40
0.125
  1
Lattice
  0
TEXT
  5
10382
  8
0
 10
2.0085733028087129
 20
0.4689656054580762
 30
0.0
 40
0.125
  1
TL-270
  0
TEXT
  5
10383
  8
0
 10
2.0085733028087129
 20
0.2606322721247428
 30
0.0
 40
0.125
  1
1/4" x 7/8"
  0
TEXT
  5
10384
  8
0
 10
2.0085733028087129
 20
0.0522989387914095
 30
0.0
 40
0.125
  1
800.66.TAGUE
  0
ENDBLK
  5
10386
  8
0
  0
BLOCK
  8
0
  2
*U119
 70
     1
 10
0.0
 20
0.0
 30
0.0
  3
*U119
  1

  0
TEXT
  5
10388
  8
0
 10
2.940701223973178
 20
0.6772980715210224
 30
0.0
 40
0.125
  1
Lattice
  0
TEXT
  5
10389
  8
0
 10
2.940701223973178
 20
0.4689647381876891
 30
0.0
 40
0.125
  1
TL-962
  0
TEXT
  5
1038A
  8
0
 10
2.940701223973178
 20
0.2606314048543558
 30
0.0
 40
0.125
  1
1/4" x 2"
  0
TEXT
  5
1038B
  8
0
 10
2.940701223973178
 20
0.0522980715210224
 30
0.0
 40
0.125
  1
800.66.TAGUE
  0
ENDBLK
  5
1038D
  8
0
  0
BLOCK
  8
0
  2
*U120
 70
     1
 10
0.0
 20
0.0
 30
0.0
  3
*U120
  1

  0
TEXT
  5
1038F
  8
0
 10
1.983768624240724
 20
1.1498699559202801
 30
0.0
 40
0.125
  1
Lip Moulding
  0
TEXT
  5
10390
  8
0
 10
1.983768624240724
 20
0.9415366225869473
 30
0.0
 40
0.125
  1
TL-18
  0
TEXT
  5
10391
  8
0
 10
1.983768624240724
 20
0.7332032892536139
 30
0.0
 40
0.125
  1
3/4" x 1-15/16"
  0
TEXT
  5
10392
  8
0
 10
1.983768624240724
 20
0.5248699559202806
 30
0.0
 40
0.125
  1
800.66.TAGUE
  0
ENDBLK
  5
10394
  8
0
  0
BLOCK
  8
0
  2
*U121
 70
     1
 10
0.0
 20
0.0
 30
0.0
  3
*U121
  1

  0
TEXT
  5
10396
  8
0
 10
2.2853728967398861
 20
1.2855052394233999
 30
0.0
 40
0.125
  1
Lip Moulding
  0
TEXT
  5
10397
  8
0
 10
2.2853728967398861
 20
1.0771719060900671
 30
0.0
 40
0.125
  1
TL-530
  0
TEXT
  5
10398
  8
0
 10
2.2853728967398861
 20
0.8688385727567342
 30
0.0
 40
0.125
  1
5/8" x 1-5/8"
  0
TEXT
  5
10399
  8
0
 10
2.2853728967398861
 20
0.6605052394234008
 30
0.0
 40
0.125
  1
800.66.TAGUE
  0
ENDBLK
  5
1039B
  8
0
  0
BLOCK
  8
0
  2
*U122
 70
     1
 10
0.0
 20
0.0
 30
0.0
  3
*U122
  1

  0
TEXT
  5
1039D
  8
0
 10
2.269200201813987
 20
1.1997502285778401
 30
0.0
 40
0.125
  1
Lip Moulding
  0
TEXT
  5
1039E
  8
0
 10
2.269200201813987
 20
0.9914168952445077
 30
0.0
 40
0.125
  1
TL-532
  0
TEXT
  5
1039F
  8
0
 10
2.269200201813987
 20
0.7830835619111745
 30
0.0
 40
0.125
  1
3/4" x 1-3/4"
  0
TEXT
  5
103A0
  8
0
 10
2.269200201813987
 20
0.574750228577841
 30
0.0
 40
0.125
  1
800.66.TAGUE
  0
ENDBLK
  5
103A2
  8
0
  0
BLOCK
  8
0
  2
*U123
 70
     1
 10
0.0
 20
0.0
 30
0.0
  3
*U123
  1

  0
TEXT
  5
103A4
  8
0
 10
1.8892783014391621
 20
1.241449235052527
 30
0.0
 40
0.125
  1
Lip Moulding
  0
TEXT
  5
103A5
  8
0
 10
1.8892783014391621
 20
1.033115901719194
 30
0.0
 40
0.125
  1
TL-2169
  0
TEXT
  5
103A6
  8
0
 10
1.8892783014391621
 20
0.8247825683858613
 30
0.0
 40
0.125
  1
11/16" x 1-7/8"
  0
TEXT
  5
103A7
  8
0
 10
1.8892783014391621
 20
0.6164492350525279
 30
0.0
 40
0.125
  1
800.66.TAGUE
  0
ENDBLK
  5
103A9
  8
0
  0
BLOCK
  8
0
  2
*U124
 70
     1
 10
0.0
 20
0.0
 30
0.0
  3
*U124
  1

  0
TEXT
  5
103AB
  8
0
 10
1.620143794977025
 20
1.0038028284741349
 30
0.0
 40
0.125
  1
Lip Moulding
  0
TEXT
  5
103AC
  8
0
 10
1.620143794977025
 20
0.7954694951408026
 30
0.0
 40
0.125
  1
TL-2179
  0
TEXT
  5
103AD
  8
0
 10
1.620143794977025
 20
0.5871361618074693
 30
0.0
 40
0.125
  1
3/4" x 1-1/4"
  0
TEXT
  5
103AE
  8
0
 10
1.620143794977025
 20
0.3788028284741358
 30
0.0
 40
0.125
  1
800.66.TAGUE
  0
ENDBLK
  5
103B0
  8
0
  0
BLOCK
  8
0
  2
*U125
 70
     1
 10
0.0
 20
0.0
 30
0.0
  3
*U125
  1

  0
TEXT
  5
103B2
  8
0
 10
1.9163743563030939
 20
1.019442403193352
 30
0.0
 40
0.125
  1
Lip Moulding
  0
TEXT
  5
103B3
  8
0
 10
1.9163743563030939
 20
0.811109069860019
 30
0.0
 40
0.125
  1
TL-2181
  0
TEXT
  5
103B4
  8
0
 10
1.9163743563030939
 20
0.6027757365266857
 30
0.0
 40
0.125
  1
3/4" x 1-11/16"
  0
TEXT
  5
103B5
  8
0
 10
1.9163743563030939
 20
0.3944424031933522
 30
0.0
 40
0.125
  1
800.66.TAGUE
  0
ENDBLK
  5
103B7
  8
0
  0
BLOCK
  8
0
  2
*U126
 70
     1
 10
0.0
 20
0.0
 30
0.0
  3
*U126
  1

  0
TEXT
  5
103B9
  8
0
 10
2.0010341316657332
 20
0.9876257387668374
 30
0.0
 40
0.125
  1
Lip Moulding
  0
TEXT
  5
103BA
  8
0
 10
2.0010341316657332
 20
0.7792924054335043
 30
0.0
 40
0.125
  1
TL-2211
  0
TEXT
  5
103BB
  8
0
 10
2.0010341316657332
 20
0.5709590721001709
 30
0.0
 40
0.125
  1
1" x 1-15/32"
  0
TEXT
  5
103BC
  8
0
 10
2.0010341316657332
 20
0.3626257387668375
 30
0.0
 40
0.125
  1
800.66.TAGUE
  0
ENDBLK
  5
103BE
  8
0
  0
BLOCK
  8
0
  2
*U127
 70
     1
 10
0.0
 20
0.0
 30
0.0
  3
*U127
  1

  0
TEXT
  5
103C0
  8
0
 10
1.9547841412725111
 20
1.2443911534714971
 30
0.0
 40
0.125
  1
Lip Mldg
  0
TEXT
  5
103C1
  8
0
 10
1.9547841412725111
 20
1.0360578201381629
 30
0.0
 40
0.125
  1
TL-2302
  0
TEXT
  5
103C2
  8
0
 10
1.9547841412725111
 20
0.8277244868048304
 30
0.0
 40
0.125
  1
13/16" x 1-3/4"
  0
TEXT
  5
103C3
  8
0
 10
1.9547841412725111
 20
0.6193911534714971
 30
0.0
 40
0.125
  1
800.66.TAGUE
  0
ENDBLK
  5
103C5
  8
0
  0
BLOCK
  8
0
  2
*U128
 70
     1
 10
0.0
 20
0.0
 30
0.0
  3
*U128
  1

  0
TEXT
  5
103C7
  8
0
 10
1.971391504344296
 20
2.3593485866246051
 30
0.0
 40
0.125
  1
Mantle Moulding
  0
TEXT
  5
103C8
  8
0
 10
1.971391504344296
 20
2.1510152532912721
 30
0.0
 40
0.125
  1
TL-9
  0
TEXT
  5
103C9
  8
0
 10
1.971391504344296
 20
1.942681919957939
 30
0.0
 40
0.125
  1
1-5/8" x 5-1/8"
  0
TEXT
  5
103CA
  8
0
 10
1.971391504344296
 20
1.7343485866246049
 30
0.0
 40
0.125
  1
800.66.TAGUE
  0
ENDBLK
  5
103CC
  8
0
  0
BLOCK
  8
0
  2
*U129
 70
     1
 10
0.0
 20
0.0
 30
0.0
  3
*U129
  1

  0
TEXT
  5
103CE
  8
0
 10
1.824484143033146
 20
2.7467482000251939
 30
0.0
 40
0.125
  1
Mantle Moulding
  0
TEXT
  5
103CF
  8
0
 10
1.824484143033146
 20
2.5384148666918609
 30
0.0
 40
0.125
  1
TL-10
  0
TEXT
  5
103D0
  8
0
 10
1.824484143033146
 20
2.3300815333585279
 30
0.0
 40
0.125
  1
1-3/8" x 5"
  0
TEXT
  5
103D1
  8
0
 10
1.824484143033146
 20
2.1217482000251939
 30
0.0
 40
0.125
  1
800.66.TAGUE
  0
ENDBLK
  5
103D3
  8
0
  0
BLOCK
  8
0
  2
*U130
 70
     1
 10
0.0
 20
0.0
 30
0.0
  3
*U130
  1

  0
TEXT
  5
103D5
  8
0
 10
-386.45452641137541
 20
839.52810035736775
 30
0.0
 40
0.125
  1
Mantle Moulding
  0
TEXT
  5
103D6
  8
0
 10
-386.45452641137541
 20
839.31976702403415
 30
0.0
 40
0.125
  1
TL-10
  0
TEXT
  5
103D7
  8
0
 10
-386.45452641137541
 20
839.11143369070101
 30
0.0
 40
0.125
  1
1-3/8" x 5"
  0
TEXT
  5
103D8
  8
0
 10
-386.45452641137541
 20
838.90310035736752
 30
0.0
 40
0.125
  1
800.66.TAGUE
  0
ENDBLK
  5
103DA
  8
0
  0
ENDSEC
  0
SECTION
  2
ENTITIES
  0
INSERT
  5
10217
  8
0
  2
*U130
 10
0.0
 20
0.0
 30
0.0
  0
LINE
  5
10218
  8
0
 10
-387.62717262600802
 20
837.82208562548965
 30
0.0
 11
-387.62717262600802
 21
837.65311041971586
 31
0.0
  0
LINE
  5
10219
  8
0
 10
-387.68236967048858
 20
838.66858634261212
 30
0.0
 11
-387.68236967048199
 21
838.56997871711906
 31
0.0
  0
LINE
  5
1021A
  8
0
 10
-387.3735954516219
 20
841.2391198814272
 30
0.0
 11
-387.37359545162178
 21
841.12064711406583
 31
0.0
  0
LINE
  5
1021B
  8
0
 10
-388.27900956293132
 20
836.78135223717277
 30
0.0
 11
-388.27900956293132
 21
841.83022526378465
 31
0.0
  0
LINE
  5
1021C
  8
0
 10
-387.62717262600802
 20
837.65311041971586
 30
0.0
 11
-387.72236482638112
 21
837.65311041971586
 31
0.0
  0
LINE
  5
1021D
  8
0
 10
-388.03298428821648
 20
836.78135223717277
 30
0.0
 11
-388.27900956293132
 21
836.78135223717277
 31
0.0
  0
LINE
  5
1021E
  8
0
 10
-387.68040024066062
 20
841.83022526378431
 30
0.0
 11
-388.27900956293132
 21
841.83022526378465
 31
0.0
  0
ARC
  5
1021F
  8
0
 10
-387.4360954516219
 20
841.2391198814272
 30
0.0
 40
0.0625
 50
0.0
 51
56.100369634441911
  0
ARC
  5
10220
  8
0
 10
-387.04895635306679
 20
841.81525166757842
 30
0.0
 40
0.6316213990698629
 50
178.64158458275949
 51
236.10036963445631
  0
ARC
  5
10221
  8
0
 10
-387.58333865711171
 20
838.59162620437348
 30
0.0
 40
0.1013694002822674
 50
192.33050287236651
 51
212.65272625837471
  0
ARC
  5
10222
  8
0
 10
-387.45615414058977
 20
838.73526804471862
 30
0.0
 40
0.2907012334411169
 50
223.02089257570131
 51
242.78331691742989
  0
ARC
  5
10223
  8
0
 10
-387.74881679932059
 20
838.15759830836373
 30
0.0
 40
0.3568838260138456
 50
289.9287239707046
 51
63.416073501784652
  0
LINE
  5
10224
  8
0
 10
-388.03298428821648
 20
837.13509372423766
 30
0.0
 11
-388.03298428821648
 21
836.78135223717277
 31
0.0
  0
POLYLINE
  8
0
  5
103DB
  66
     1
 10
0.000000
 20
0.000000
 30
0.000000
  70
     8
  0
VERTEX
  8
0
  5
103DC
 10
-387.722
 20
837.653
 30
0.000000
  70
    32
  0
VERTEX
  8
0
  5
103DD
 10
-387.723
 20
837.651
 30
0.000000
  70
    32
  0
VERTEX
  8
0
  5
103DE
 10
-387.723
 20
837.648
 30
0.000000
  70
    32
  0
VERTEX
  8
0
  5
103DF
 10
-387.723
 20
837.646
 30
0.000000
  70
    32
  0
VERTEX
  8
0
  5
103E0
 10
-387.723
 20
837.643
 30
0.000000
  70
    32
  0
VERTEX
  8
0
  5
103E1
 10
-387.724
 20
837.641
 30
0.000000
  70
    32
  0
VERTEX
  8
0
  5
103E2
 10
-387.724
 20
837.639
 30
0.000000
  70
    32
  0
VERTEX
  8
0
  5
103E3
 10
-387.724
 20
837.636
 30
0.000000
  70
    32
  0
VERTEX
  8
0
  5
103E4
 10
-387.725
 20
837.634
 30
0.000000
  70
    32
  0
VERTEX
  8
0
  5
103E5
 10
-387.725
 20
837.631
 30
0.000000
  70
    32
  0
VERTEX
  8
0
  5
103E6
 10
-387.726
 20
837.629
 30
0.000000
  70
    32
  0
VERTEX
  8
0
  5
103E7
 10
-387.726
 20
837.627
 30
0.000000
  70
    32
  0
VERTEX
  8
0
  5
103E8
 10
-387.727
 20
837.624
 30
0.000000
  70
    32
  0
VERTEX
  8
0
  5
103E9
 10
-387.728
 20
837.622
 30
0.000000
  70
    32
  0
VERTEX
  8
0
  5
103EA
 10
-387.728
 20
837.620
 30
0.000000
  70
    32
  0
VERTEX
  8
0
  5
103EB
 10
-387.729
 20
837.617
 30
0.000000
  70
    32
  0
VERTEX
  8
0
  5
103EC
 10
-387.730
 20
837.615
 30
0.000000
  70
    32
  0
VERTEX
  8
0
  5
103ED
 10
-387.730
 20
837.613
 30
0.000000
  70
    32
  0
VERTEX
  8
0
  5
103EE
 10
-387.731
 20
837.610
 30
0.000000
  70
    32
  0
VERTEX
  8
0
  5
103EF
 10
-387.732
 20
837.608
 30
0.000000
  70
    32
  0
VERTEX
  8
0
  5
103F0
 10
-387.733
 20
837.606
 30
0.000000
  70
    32
  0
VERTEX
  8
0
  5
103F1
 10
-387.734
 20
837.603
 30
0.000000
  70
    32
  0
VERTEX
  8
0
  5
103F2
 10
-387.735
 20
837.601
 30
0.000000
  70
    32
  0
VERTEX
  8
0
  5
103F3
 10
-387.736
 20
837.599
 30
0.000000
  70
    32
  0
VERTEX
  8
0
  5
103F4
 10
-387.737
 20
837.596
 30
0.000000
  70
    32
  0
VERTEX
  8
0
  5
103F5
 10
-387.738
 20
837.594
 30
0.000000
  70
    32
  0
VERTEX
  8
0
  5
103F6
 10
-387.739
 20
837.592
 30
0.000000
  70
    32
  0
VERTEX
  8
0
  5
103F7
 10
-387.740
 20
837.590
 30
0.000000
  70
    32
  0
VERTEX
  8
0
  5
103F8
 10
-387.741
 20
837.587
 30
0.000000
  70
    32
  0
VERTEX
  8
0
  5
103F9
 10
-387.742
 20
837.585
 30
0.000000
  70
    32
  0
VERTEX
  8
0
  5
103FA
 10
-387.743
 20
837.583
 30
0.000000
  70
    32
  0
VERTEX
  8
0
  5
103FB
 10
-387.744
 20
837.581
 30
0.000000
  70
    32
  0
VERTEX
  8
0
  5
103FC
 10
-387.745
 20
837.579
 30
0.000000
  70
    32
  0
VERTEX
  8
0
  5
103FD
 10
-387.747
 20
837.576
 30
0.000000
  70
    32
  0
VERTEX
  8
0
  5
103FE
 10
-387.748
 20
837.574
 30
0.000000
  70
    32
  0
VERTEX
  8
0
  5
103FF
 10
-387.749
 20
837.572
 30
0.000000
  70
    32
  0
VERTEX
  8
0
  5
10400
 10
-387.750
 20
837.570
 30
0.000000
  70
    32
  0
VERTEX
  8
0
  5
10401
 10
-387.752
 20
837.568
 30
0.000000
  70
    32
  0
VERTEX
  8
0
  5
10402
 10
-387.753
 20
837.566
 30
0.000000
  70
    32
  0
VERTEX
  8
0
  5
10403
 10
-387.754
 20
837.564
 30
0.000000
  70
    32
  0
VERTEX
  8
0
  5
10404
 10
-387.756
 20
837.562
 30
0.000000
  70
    32
  0
VERTEX
  8
0
  5
10405
 10
-387.757
 20
837.560
 30
0.000000
  70
    32
  0
VERTEX
  8
0
  5
10406
 10
-387.759
 20
837.558
 30
0.000000
  70
    32
  0
VERTEX
  8
0
  5
10407
 10
-387.760
 20
837.556
 30
0.000000
  70
    32
  0
VERTEX
  8
0
  5
10408
 10
-387.761
 20
837.554
 30
0.000000
  70
    32
  0
VERTEX
  8
0
  5
10409
 10
-387.763
 20
837.552
 30
0.000000
  70
    32
  0
VERTEX
  8
0
  5
1040A
 10
-387.764
 20
837.550
 30
0.000000
  70
    32
  0
VERTEX
  8
0
  5
1040B
 10
-387.766
 20
837.548
 30
0.000000
  70
    32
  0
VERTEX
  8
0
  5
1040C
 10
-387.767
 20
837.546
 30
0.000000
  70
    32
  0
VERTEX
  8
0
  5
1040D
 10
-387.769
 20
837.544
 30
0.000000
  70
    32
  0
VERTEX
  8
0
  5
1040E
 10
-387.771
 20
837.542
 30
0.000000
  70
    32
  0
VERTEX
  8
0
  5
1040F
 10
-387.772
 20
837.540
 30
0.000000
  70
    32
  0
VERTEX
  8
0
  5
10410
 10
-387.774
 20
837.538
 30
0.000000
  70
    32
  0
VERTEX
  8
0
  5
10411
 10
-387.775
 20
837.536
 30
0.000000
  70
    32
  0
VERTEX
  8
0
  5
10412
 10
-387.777
 20
837.534
 30
0.000000
  70
    32
  0
VERTEX
  8
0
  5
10413
 10
-387.779
 20
837.533
 30
0.000000
  70
    32
  0
VERTEX
  8
0
  5
10414
 10
-387.780
 20
837.531
 30
0.000000
  70
    32
  0
VERTEX
  8
0
  5
10415
 10
-387.782
 20
837.529
 30
0.000000
  70
    32
  0
VERTEX
  8
0
  5
10416
 10
-387.784
 20
837.527
 30
0.000000
  70
    32
  0
VERTEX
  8
0
  5
10417
 10
-387.785
 20
837.526
 30
0.000000
  70
    32
  0
VERTEX
  8
0
  5
10418
 10
-387.787
 20
837.524
 30
0.000000
  70
    32
  0
VERTEX
  8
0
  5
10419
 10
-387.789
 20
837.522
 30
0.000000
  70
    32
  0
VERTEX
  8
0
  5
1041A
 10
-387.791
 20
837.520
 30
0.000000
  70
    32
  0
VERTEX
  8
0
  5
1041B
 10
-387.792
 20
837.519
 30
0.000000
  70
    32
  0
VERTEX
  8
0
  5
1041C
 10
-387.794
 20
837.517
 30
0.000000
  70
    32
  0
VERTEX
  8
0
  5
1041D
 10
-387.796
 20
837.515
 30
0.000000
  70
    32
  0
VERTEX
  8
0
  5
1041E
 10
-387.798
 20
837.514
 30
0.000000
  70
    32
  0
VERTEX
  8
0
  5
1041F
 10
-387.800
 20
837.512
 30
0.000000
  70
    32
  0
VERTEX
  8
0
  5
10420
 10
-387.801
 20
837.511
 30
0.000000
  70
    32
  0
VERTEX
  8
0
  5
10421
 10
-387.803
 20
837.509
 30
0.000000
  70
    32
  0
VERTEX
  8
0
  5
10422
 10
-387.805
 20
837.507
 30
0.000000
  70
    32
  0
VERTEX
  8
0
  5
10423
 10
-387.807
 20
837.506
 30
0.000000
  70
    32
  0
VERTEX
  8
0
  5
10424
 10
-387.809
 20
837.504
 30
0.000000
  70
    32
  0
VERTEX
  8
0
  5
10425
 10
-387.810
 20
837.503
 30
0.000000
  70
    32
  0
VERTEX
  8
0
  5
10426
 10
-387.812
 20
837.501
 30
0.000000
  70
    32
  0
VERTEX
  8
0
  5
10427
 10
-387.814
 20
837.499
 30
0.000000
  70
    32
  0
VERTEX
  8
0
  5
10428
 10
-387.816
 20
837.498
 30
0.000000
  70
    32
  0
VERTEX
  8
0
  5
10429
 10
-387.818
 20
837.496
 30
0.000000
  70
    32
  0
VERTEX
  8
0
  5
1042A
 10
-387.820
 20
837.495
 30
0.000000
  70
    32
  0
VERTEX
  8
0
  5
1042B
 10
-387.822
 20
837.493
 30
0.000000
  70
    32
  0
VERTEX
  8
0
  5
1042C
 10
-387.823
 20
837.492
 30
0.000000
  70
    32
  0
VERTEX
  8
0
  5
1042D
 10
-387.825
 20
837.490
 30
0.000000
  70
    32
  0
VERTEX
  8
0
  5
1042E
 10
-387.827
 20
837.489
 30
0.000000
  70
    32
  0
VERTEX
  8
0
  5
1042F
 10
-387.829
 20
837.487
 30
0.000000
  70
    32
  0
VERTEX
  8
0
  5
10430
 10
-387.831
 20
837.486
 30
0.000000
  70
    32
  0
VERTEX
  8
0
  5
10431
 10
-387.833
 20
837.484
 30
0.000000
  70
    32
  0
VERTEX
  8
0
  5
10432
 10
-387.835
 20
837.482
 30
0.000000
  70
    32
  0
VERTEX
  8
0
  5
10433
 10
-387.837
 20
837.481
 30
0.000000
  70
    32
  0
VERTEX
  8
0
  5
10434
 10
-387.838
 20
837.479
 30
0.000000
  70
    32
  0
VERTEX
  8
0
  5
10435
 10
-387.840
 20
837.478
 30
0.000000
  70
    32
  0
VERTEX
  8
0
  5
10436
 10
-387.842
 20
837.476
 30
0.000000
  70
    32
  0
VERTEX
  8
0
  5
10437
 10
-387.844
 20
837.475
 30
0.000000
  70
    32
  0
VERTEX
  8
0
  5
10438
 10
-387.846
 20
837.473
 30
0.000000
  70
    32
  0
VERTEX
  8
0
  5
10439
 10
-387.848
 20
837.472
 30
0.000000
  70
    32
  0
VERTEX
  8
0
  5
1043A
 10
-387.850
 20
837.470
 30
0.000000
  70
    32
  0
VERTEX
  8
0
  5
1043B
 10
-387.851
 20
837.469
 30
0.000000
  70
    32
  0
VERTEX
  8
0
  5
1043C
 10
-387.853
 20
837.467
 30
0.000000
  70
    32
  0
VERTEX
  8
0
  5
1043D
 10
-387.855
 20
837.465
 30
0.000000
  70
    32
  0
VERTEX
  8
0
  5
1043E
 10
-387.857
 20
837.464
 30
0.000000
  70
    32
  0
VERTEX
  8
0
  5
1043F
 10
-387.859
 20
837.462
 30
0.000000
  70
    32
  0
VERTEX
  8
0
  5
10440
 10
-387.861
 20
837.461
 30
0.000000
  70
    32
  0
VERTEX
  8
0
  5
10441
 10
-387.862
 20
837.459
 30
0.000000
  70
    32
  0
VERTEX
  8
0
  5
10442
 10
-387.864
 20
837.457
 30
0.000000
  70
    32
  0
VERTEX
  8
0
  5
10443
 10
-387.866
 20
837.456
 30
0.000000
  70
    32
  0
VERTEX
  8
0
  5
10444
 10
-387.868
 20
837.454
 30
0.000000
  70
    32
  0
VERTEX
  8
0
  5
10445
 10
-387.870
 20
837.453
 30
0.000000
  70
    32
  0
VERTEX
  8
0
  5
10446
 10
-387.871
 20
837.451
 30
0.000000
  70
    32
  0
VERTEX
  8
0
  5
10447
 10
-387.873
 20
837.449
 30
0.000000
  70
    32
  0
VERTEX
  8
0
  5
10448
 10
-387.875
 20
837.448
 30
0.000000
  70
    32
  0
VERTEX
  8
0
  5
10449
 10
-387.877
 20
837.446
 30
0.000000
  70
    32
  0
VERTEX
  8
0
  5
1044A
 10
-387.878
 20
837.444
 30
0.000000
  70
    32
  0
VERTEX
  8
0
  5
1044B
 10
-387.880
 20
837.443
 30
0.000000
  70
    32
  0
VERTEX
  8
0
  5
1044C
 10
-387.882
 20
837.441
 30
0.000000
  70
    32
  0
VERTEX
  8
0
  5
1044D
 10
-387.884
 20
837.439
 30
0.000000
  70
    32
  0
VERTEX
  8
0
  5
1044E
 10
-387.885
 20
837.437
 30
0.000000
  70
    32
  0
VERTEX
  8
0
  5
1044F
 10
-387.887
 20
837.436
 30
0.000000
  70
    32
  0
VERTEX
  8
0
  5
10450
 10
-387.889
 20
837.434
 30
0.000000
  70
    32
  0
VERTEX
  8
0
  5
10451
 10
-387.890
 20
837.432
 30
0.000000
  70
    32
  0
VERTEX
  8
0
  5
10452
 10
-387.892
 20
837.431
 30
0.000000
  70
    32
  0
VERTEX
  8
0
  5
10453
 10
-387.894
 20
837.429
 30
0.000000
  70
    32
  0
VERTEX
  8
0
  5
10454
 10
-387.895
 20
837.427
 30
0.000000
  70
    32
  0
VERTEX
  8
0
  5
10455
 10
-387.897
 20
837.425
 30
0.000000
  70
    32
  0
VERTEX
  8
0
  5
10456
 10
-387.899
 20
837.423
 30
0.000000
  70
    32
  0
VERTEX
  8
0
  5
10457
 10
-387.900
 20
837.422
 30
0.000000
  70
    32
  0
VERTEX
  8
0
  5
10458
 10
-387.902
 20
837.420
 30
0.000000
  70
    32
  0
VERTEX
  8
0
  5
10459
 10
-387.904
 20
837.418
 30
0.000000
  70
    32
  0
VERTEX
  8
0
  5
1045A
 10
-387.905
 20
837.416
 30
0.000000
  70
    32
  0
VERTEX
  8
0
  5
1045B
 10
-387.907
 20
837.414
 30
0.000000
  70
    32
  0
VERTEX
  8
0
  5
1045C
 10
-387.908
 20
837.413
 30
0.000000
  70
    32
  0
VERTEX
  8
0
  5
1045D
 10
-387.910
 20
837.411
 30
0.000000
  70
    32
  0
VERTEX
  8
0
  5
1045E
 10
-387.912
 20
837.409
 30
0.000000
  70
    32
  0
VERTEX
  8
0
  5
1045F
 10
-387.913
 20
837.407
 30
0.000000
  70
    32
  0
VERTEX
  8
0
  5
10460
 10
-387.915
 20
837.405
 30
0.000000
  70
    32
  0
VERTEX
  8
0
  5
10461
 10
-387.916
 20
837.403
 30
0.000000
  70
    32
  0
VERTEX
  8
0
  5
10462
 10
-387.918
 20
837.401
 30
0.000000
  70
    32
  0
VERTEX
  8
0
  5
10463
 10
-387.919
 20
837.399
 30
0.000000
  70
    32
  0
VERTEX
  8
0
  5
10464
 10
-387.921
 20
837.398
 30
0.000000
  70
    32
  0
VERTEX
  8
0
  5
10465
 10
-387.922
 20
837.396
 30
0.000000
  70
    32
  0
VERTEX
  8
0
  5
10466
 10
-387.924
 20
837.394
 30
0.000000
  70
    32
  0
VERTEX
  8
0
  5
10467
 10
-387.925
 20
837.392
 30
0.000000
  70
    32
  0
VERTEX
  8
0
  5
10468
 10
-387.927
 20
837.390
 30
0.000000
  70
    32
  0
VERTEX
  8
0
  5
10469
 10
-387.928
 20
837.388
 30
0.000000
  70
    32
  0
VERTEX
  8
0
  5
1046A
 10
-387.930
 20
837.386
 30
0.000000
  70
    32
  0
VERTEX
  8
0
  5
1046B
 10
-387.931
 20
837.384
 30
0.000000
  70
    32
  0
VERTEX
  8
0
  5
1046C
 10
-387.933
 20
837.382
 30
0.000000
  70
    32
  0
VERTEX
  8
0
  5
1046D
 10
-387.934
 20
837.380
 30
0.000000
  70
    32
  0
VERTEX
  8
0
  5
1046E
 10
-387.936
 20
837.378
 30
0.000000
  70
    32
  0
VERTEX
  8
0
  5
1046F
 10
-387.937
 20
837.376
 30
0.000000
  70
    32
  0
VERTEX
  8
0
  5
10470
 10
-387.939
 20
837.374
 30
0.000000
  70
    32
  0
VERTEX
  8
0
  5
10471
 10
-387.940
 20
837.372
 30
0.000000
  70
    32
  0
VERTEX
  8
0
  5
10472
 10
-387.941
 20
837.370
 30
0.000000
  70
    32
  0
VERTEX
  8
0
  5
10473
 10
-387.943
 20
837.368
 30
0.000000
  70
    32
  0
VERTEX
  8
0
  5
10474
 10
-387.944
 20
837.366
 30
0.000000
  70
    32
  0
VERTEX
  8
0
  5
10475
 10
-387.946
 20
837.364
 30
0.000000
  70
    32
  0
VERTEX
  8
0
  5
10476
 10
-387.947
 20
837.362
 30
0.000000
  70
    32
  0
VERTEX
  8
0
  5
10477
 10
-387.948
 20
837.360
 30
0.000000
  70
    32
  0
VERTEX
  8
0
  5
10478
 10
-387.950
 20
837.358
 30
0.000000
  70
    32
  0
VERTEX
  8
0
  5
10479
 10
-387.951
 20
837.356
 30
0.000000
  70
    32
  0
VERTEX
  8
0
  5
1047A
 10
-387.952
 20
837.354
 30
0.000000
  70
    32
  0
VERTEX
  8
0
  5
1047B
 10
-387.954
 20
837.352
 30
0.000000
  70
    32
  0
VERTEX
  8
0
  5
1047C
 10
-387.955
 20
837.350
 30
0.000000
  70
    32
  0
VERTEX
  8
0
  5
1047D
 10
-387.956
 20
837.348
 30
0.000000
  70
    32
  0
VERTEX
  8
0
  5
1047E
 10
-387.958
 20
837.346
 30
0.000000
  70
    32
  0
VERTEX
  8
0
  5
1047F
 10
-387.959
 20
837.344
 30
0.000000
  70
    32
  0
VERTEX
  8
0
  5
10480
 10
-387.960
 20
837.342
 30
0.000000
  70
    32
  0
VERTEX
  8
0
  5
10481
 10
-387.962
 20
837.340
 30
0.000000
  70
    32
  0
VERTEX
  8
0
  5
10482
 10
-387.963
 20
837.338
 30
0.000000
  70
    32
  0
VERTEX
  8
0
  5
10483
 10
-387.964
 20
837.335
 30
0.000000
  70
    32
  0
VERTEX
  8
0
  5
10484
 10
-387.965
 20
837.333
 30
0.000000
  70
    32
  0
VERTEX
  8
0
  5
10485
 10
-387.967
 20
837.331
 30
0.000000
  70
    32
  0
VERTEX
  8
0
  5
10486
 10
-387.968
 20
837.329
 30
0.000000
  70
    32
  0
VERTEX
  8
0
  5
10487
 10
-387.969
 20
837.327
 30
0.000000
  70
    32
  0
VERTEX
  8
0
  5
10488
 10
-387.970
 20
837.325
 30
0.000000
  70
    32
  0
VERTEX
  8
0
  5
10489
 10
-387.972
 20
837.323
 30
0.000000
  70
    32
  0
VERTEX
  8
0
  5
1048A
 10
-387.973
 20
837.321
 30
0.000000
  70
    32
  0
VERTEX
  8
0
  5
1048B
 10
-387.974
 20
837.319
 30
0.000000
  70
    32
  0
VERTEX
  8
0
  5
1048C
 10
-387.975
 20
837.316
 30
0.000000
  70
    32
  0
VERTEX
  8
0
  5
1048D
 10
-387.976
 20
837.314
 30
0.000000
  70
    32
  0
VERTEX
  8
0
  5
1048E
 10
-387.978
 20
837.312
 30
0.000000
  70
    32
  0
VERTEX
  8
0
  5
1048F
 10
-387.979
 20
837.310
 30
0.000000
  70
    32
  0
VERTEX
  8
0
  5
10490
 10
-387.980
 20
837.308
 30
0.000000
  70
    32
  0
VERTEX
  8
0
  5
10491
 10
-387.981
 20
837.306
 30
0.000000
  70
    32
  0
VERTEX
  8
0
  5
10492
 10
-387.982
 20
837.304
 30
0.000000
  70
    32
  0
VERTEX
  8
0
  5
10493
 10
-387.983
 20
837.301
 30
0.000000
  70
    32
  0
VERTEX
  8
0
  5
10494
 10
-387.984
 20
837.299
 30
0.000000
  70
    32
  0
VERTEX
  8
0
  5
10495
 10
-387.986
 20
837.297
 30
0.000000
  70
    32
  0
VERTEX
  8
0
  5
10496
 10
-387.987
 20
837.295
 30
0.000000
  70
    32
  0
VERTEX
  8
0
  5
10497
 10
-387.988
 20
837.293
 30
0.000000
  70
    32
  0
VERTEX
  8
0
  5
10498
 10
-387.989
 20
837.291
 30
0.000000
  70
    32
  0
VERTEX
  8
0
  5
10499
 10
-387.990
 20
837.288
 30
0.000000
  70
    32
  0
VERTEX
  8
0
  5
1049A
 10
-387.991
 20
837.286
 30
0.000000
  70
    32
  0
VERTEX
  8
0
  5
1049B
 10
-387.992
 20
837.284
 30
0.000000
  70
    32
  0
VERTEX
  8
0
  5
1049C
 10
-387.993
 20
837.282
 30
0.000000
  70
    32
  0
VERTEX
  8
0
  5
1049D
 10
-387.994
 20
837.280
 30
0.000000
  70
    32
  0
VERTEX
  8
0
  5
1049E
 10
-387.995
 20
837.277
 30
0.000000
  70
    32
  0
VERTEX
  8
0
  5
1049F
 10
-387.996
 20
837.275
 30
0.000000
  70
    32
  0
VERTEX
  8
0
  5
104A0
 10
-387.997
 20
837.273
 30
0.000000
  70
    32
  0
VERTEX
  8
0
  5
104A1
 10
-387.998
 20
837.271
 30
0.000000
  70
    32
  0
VERTEX
  8
0
  5
104A2
 10
-387.999
 20
837.269
 30
0.000000
  70
    32
  0
VERTEX
  8
0
  5
104A3
 10
-388.000
 20
837.266
 30
0.000000
  70
    32
  0
VERTEX
  8
0
  5
104A4
 10
-388.001
 20
837.264
 30
0.000000
  70
    32
  0
VERTEX
  8
0
  5
104A5
 10
-388.002
 20
837.262
 30
0.000000
  70
    32
  0
VERTEX
  8
0
  5
104A6
 10
-388.003
 20
837.260
 30
0.000000
  70
    32
  0
VERTEX
  8
0
  5
104A7
 10
-388.004
 20
837.257
 30
0.000000
  70
    32
  0
VERTEX
  8
0
  5
104A8
 10
-388.005
 20
837.255
 30
0.000000
  70
    32
  0
VERTEX
  8
0
  5
104A9
 10
-388.006
 20
837.253
 30
0.000000
  70
    32
  0
VERTEX
  8
0
  5
104AA
 10
-388.007
 20
837.251
 30
0.000000
  70
    32
  0
VERTEX
  8
0
  5
104AB
 10
-388.008
 20
837.248
 30
0.000000
  70
    32
  0
VERTEX
  8
0
  5
104AC
 10
-388.009
 20
837.246
 30
0.000000
  70
    32
  0
VERTEX
  8
0
  5
104AD
 10
-388.009
 20
837.244
 30
0.000000
  70
    32
  0
VERTEX
  8
0
  5
104AE
 10
-388.010
 20
837.242
 30
0.000000
  70
    32
  0
VERTEX
  8
0
  5
104AF
 10
-388.011
 20
837.239
 30
0.000000
  70
    32
  0
VERTEX
  8
0
  5
104B0
 10
-388.012
 20
837.237
 30
0.000000
  70
    32
  0
VERTEX
  8
0
  5
104B1
 10
-388.013
 20
837.235
 30
0.000000
  70
    32
  0
VERTEX
  8
0
  5
104B2
 10
-388.013
 20
837.232
 30
0.000000
  70
    32
  0
VERTEX
  8
0
  5
104B3
 10
-388.014
 20
837.230
 30
0.000000
  70
    32
  0
VERTEX
  8
0
  5
104B4
 10
-388.015
 20
837.228
 30
0.000000
  70
    32
  0
VERTEX
  8
0
  5
104B5
 10
-388.016
 20
837.225
 30
0.000000
  70
    32
  0
VERTEX
  8
0
  5
104B6
 10
-388.016
 20
837.223
 30
0.000000
  70
    32
  0
VERTEX
  8
0
  5
104B7
 10
-388.017
 20
837.221
 30
0.000000
  70
    32
  0
VERTEX
  8
0
  5
104B8
 10
-388.018
 20
837.219
 30
0.000000
  70
    32
  0
VERTEX
  8
0
  5
104B9
 10
-388.018
 20
837.216
 30
0.000000
  70
    32
  0
VERTEX
  8
0
  5
104BA
 10
-388.019
 20
837.214
 30
0.000000
  70
    32
  0
VERTEX
  8
0
  5
104BB
 10
-388.020
 20
837.212
 30
0.000000
  70
    32
  0
VERTEX
  8
0
  5
104BC
 10
-388.020
 20
837.209
 30
0.000000
  70
    32
  0
VERTEX
  8
0
  5
104BD
 10
-388.021
 20
837.207
 30
0.000000
  70
    32
  0
VERTEX
  8
0
  5
104BE
 10
-388.021
 20
837.204
 30
0.000000
  70
    32
  0
VERTEX
  8
0
  5
104BF
 10
-388.022
 20
837.202
 30
0.000000
  70
    32
  0
VERTEX
  8
0
  5
104C0
 10
-388.022
 20
837.200
 30
0.000000
  70
    32
  0
VERTEX
  8
0
  5
104C1
 10
-388.023
 20
837.197
 30
0.000000
  70
    32
  0
VERTEX
  8
0
  5
104C2
 10
-388.023
 20
837.195
 30
0.000000
  70
    32
  0
VERTEX
  8
0
  5
104C3
 10
-388.024
 20
837.193
 30
0.000000
  70
    32
  0
VERTEX
  8
0
  5
104C4
 10
-388.024
 20
837.190
 30
0.000000
  70
    32
  0
VERTEX
  8
0
  5
104C5
 10
-388.025
 20
837.188
 30
0.000000
  70
    32
  0
VERTEX
  8
0
  5
104C6
 10
-388.025
 20
837.185
 30
0.000000
  70
    32
  0
VERTEX
  8
0
  5
104C7
 10
-388.026
 20
837.183
 30
0.000000
  70
    32
  0
VERTEX
  8
0
  5
104C8
 10
-388.026
 20
837.181
 30
0.000000
  70
    32
  0
VERTEX
  8
0
  5
104C9
 10
-388.026
 20
837.178
 30
0.000000
  70
    32
  0
VERTEX
  8
0
  5
104CA
 10
-388.027
 20
837.176
 30
0.000000
  70
    32
  0
VERTEX
  8
0
  5
104CB
 10
-388.027
 20
837.174
 30
0.000000
  70
    32
  0
VERTEX
  8
0
  5
104CC
 10
-388.028
 20
837.171
 30
0.000000
  70
    32
  0
VERTEX
  8
0
  5
104CD
 10
-388.028
 20
837.169
 30
0.000000
  70
    32
  0
VERTEX
  8
0
  5
104CE
 10
-388.028
 20
837.166
 30
0.000000
  70
    32
  0
VERTEX
  8
0
  5
104CF
 10
-388.029
 20
837.164
 30
0.000000
  70
    32
  0
VERTEX
  8
0
  5
104D0
 10
-388.029
 20
837.162
 30
0.000000
  70
    32
  0
VERTEX
  8
0
  5
104D1
 10
-388.030
 20
837.159
 30
0.000000
  70
    32
  0
VERTEX
  8
0
  5
104D2
 10
-388.030
 20
837.157
 30
0.000000
  70
    32
  0
VERTEX
  8
0
  5
104D3
 10
-388.030
 20
837.154
 30
0.000000
  70
    32
  0
VERTEX
  8
0
  5
104D4
 10
-388.031
 20
837.152
 30
0.000000
  70
    32
  0
VERTEX
  8
0
  5
104D5
 10
-388.031
 20
837.150
 30
0.000000
  70
    32
  0
VERTEX
  8
0
  5
104D6
 10
-388.031
 20
837.147
 30
0.000000
  70
    32
  0
VERTEX
  8
0
  5
104D7
 10
-388.032
 20
837.145
 30
0.000000
  70
    32
  0
VERTEX
  8
0
  5
104D8
 10
-388.032
 20
837.142
 30
0.000000
  70
    32
  0
VERTEX
  8
0
  5
104D9
 10
-388.032
 20
837.140
 30
0.000000
  70
    32
  0
VERTEX
  8
0
  5
104DA
 10
-388.033
 20
837.137
 30
0.000000
  70
    32
  0
VERTEX
  8
0
  5
104DB
 10
-388.033
 20
837.135
 30
0.000000
  70
    32
  0
SEQEND
  8
0
  5
104DC
  0
POLYLINE
  8
0
  5
104DD
  66
     1
 10
0.000000
 20
0.000000
 30
0.000000
  70
     8
  0
VERTEX
  8
0
  5
104DE
 10
-387.374
 20
841.121
 30
0.000000
  70
    32
  0
VERTEX
  8
0
  5
104DF
 10
-387.368
 20
841.117
 30
0.000000
  70
    32
  0
VERTEX
  8
0
  5
104E0
 10
-387.362
 20
841.113
 30
0.000000
  70
    32
  0
VERTEX
  8
0
  5
104E1
 10
-387.356
 20
841.109
 30
0.000000
  70
    32
  0
VERTEX
  8
0
  5
104E2
 10
-387.350
 20
841.105
 30
0.000000
  70
    32
  0
VERTEX
  8
0
  5
104E3
 10
-387.345
 20
841.101
 30
0.000000
  70
    32
  0
VERTEX
  8
0
  5
104E4
 10
-387.339
 20
841.098
 30
0.000000
  70
    32
  0
VERTEX
  8
0
  5
104E5
 10
-387.333
 20
841.094
 30
0.000000
  70
    32
  0
VERTEX
  8
0
  5
104E6
 10
-387.327
 20
841.090
 30
0.000000
  70
    32
  0
VERTEX
  8
0
  5
104E7
 10
-387.321
 20
841.087
 30
0.000000
  70
    32
  0
VERTEX
  8
0
  5
104E8
 10
-387.315
 20
841.083
 30
0.000000
  70
    32
  0
VERTEX
  8
0
  5
104E9
 10
-387.309
 20
841.080
 30
0.000000
  70
    32
  0
VERTEX
  8
0
  5
104EA
 10
-387.303
 20
841.076
 30
0.000000
  70
    32
  0
VERTEX
  8
0
  5
104EB
 10
-387.297
 20
841.072
 30
0.000000
  70
    32
  0
VERTEX
  8
0
  5
104EC
 10
-387.291
 20
841.069
 30
0.000000
  70
    32
  0
VERTEX
  8
0
  5
104ED
 10
-387.285
 20
841.065
 30
0.000000
  70
    32
  0
VERTEX
  8
0
  5
104EE
 10
-387.279
 20
841.062
 30
0.000000
  70
    32
  0
VERTEX
  8
0
  5
104EF
 10
-387.273
 20
841.058
 30
0.000000
  70
    32
  0
VERTEX
  8
0
  5
104F0
 10
-387.267
 20
841.054
 30
0.000000
  70
    32
  0
VERTEX
  8
0
  5
104F1
 10
-387.261
 20
841.051
 30
0.000000
  70
    32
  0
VERTEX
  8
0
  5
104F2
 10
-387.255
 20
841.047
 30
0.000000
  70
    32
  0
VERTEX
  8
0
  5
104F3
 10
-387.249
 20
841.043
 30
0.000000
  70
    32
  0
VERTEX
  8
0
  5
104F4
 10
-387.243
 20
841.040
 30
0.000000
  70
    32
  0
VERTEX
  8
0
  5
104F5
 10
-387.238
 20
841.036
 30
0.000000
  70
    32
  0
VERTEX
  8
0
  5
104F6
 10
-387.232
 20
841.032
 30
0.000000
  70
    32
  0
VERTEX
  8
0
  5
104F7
 10
-387.226
 20
841.028
 30
0.000000
  70
    32
  0
VERTEX
  8
0
  5
104F8
 10
-387.220
 20
841.024
 30
0.000000
  70
    32
  0
VERTEX
  8
0
  5
104F9
 10
-387.215
 20
841.020
 30
0.000000
  70
    32
  0
VERTEX
  8
0
  5
104FA
 10
-387.209
 20
841.016
 30
0.000000
  70
    32
  0
VERTEX
  8
0
  5
104FB
 10
-387.203
 20
841.012
 30
0.000000
  70
    32
  0
VERTEX
  8
0
  5
104FC
 10
-387.198
 20
841.008
 30
0.000000
  70
    32
  0
VERTEX
  8
0
  5
104FD
 10
-387.192
 20
841.004
 30
0.000000
  70
    32
  0
VERTEX
  8
0
  5
104FE
 10
-387.187
 20
841.000
 30
0.000000
  70
    32
  0
VERTEX
  8
0
  5
104FF
 10
-387.182
 20
840.995
 30
0.000000
  70
    32
  0
VERTEX
  8
0
  5
10500
 10
-387.176
 20
840.991
 30
0.000000
  70
    32
  0
VERTEX
  8
0
  5
10501
 10
-387.171
 20
840.986
 30
0.000000
  70
    32
  0
VERTEX
  8
0
  5
10502
 10
-387.166
 20
840.981
 30
0.000000
  70
    32
  0
VERTEX
  8
0
  5
10503
 10
-387.161
 20
840.977
 30
0.000000
  70
    32
  0
VERTEX
  8
0
  5
10504
 10
-387.156
 20
840.972
 30
0.000000
  70
    32
  0
VERTEX
  8
0
  5
10505
 10
-387.151
 20
840.967
 30
0.000000
  70
    32
  0
VERTEX
  8
0
  5
10506
 10
-387.146
 20
840.962
 30
0.000000
  70
    32
  0
VERTEX
  8
0
  5
10507
 10
-387.141
 20
840.957
 30
0.000000
  70
    32
  0
VERTEX
  8
0
  5
10508
 10
-387.136
 20
840.952
 30
0.000000
  70
    32
  0
VERTEX
  8
0
  5
10509
 10
-387.131
 20
840.947
 30
0.000000
  70
    32
  0
VERTEX
  8
0
  5
1050A
 10
-387.127
 20
840.942
 30
0.000000
  70
    32
  0
VERTEX
  8
0
  5
1050B
 10
-387.122
 20
840.936
 30
0.000000
  70
    32
  0
VERTEX
  8
0
  5
1050C
 10
-387.118
 20
840.931
 30
0.000000
  70
    32
  0
VERTEX
  8
0
  5
1050D
 10
-387.113
 20
840.926
 30
0.000000
  70
    32
  0
VERTEX
  8
0
  5
1050E
 10
-387.109
 20
840.920
 30
0.000000
  70
    32
  0
VERTEX
  8
0
  5
1050F
 10
-387.104
 20
840.915
 30
0.000000
  70
    32
  0
VERTEX
  8
0
  5
10510
 10
-387.100
 20
840.909
 30
0.000000
  70
    32
  0
VERTEX
  8
0
  5
10511
 10
-387.096
 20
840.904
 30
0.000000
  70
    32
  0
VERTEX
  8
0
  5
10512
 10
-387.092
 20
840.898
 30
0.000000
  70
    32
  0
VERTEX
  8
0
  5
10513
 10
-387.088
 20
840.892
 30
0.000000
  70
    32
  0
VERTEX
  8
0
  5
10514
 10
-387.083
 20
840.887
 30
0.000000
  70
    32
  0
VERTEX
  8
0
  5
10515
 10
-387.079
 20
840.881
 30
0.000000
  70
    32
  0
VERTEX
  8
0
  5
10516
 10
-387.076
 20
840.875
 30
0.000000
  70
    32
  0
VERTEX
  8
0
  5
10517
 10
-387.072
 20
840.869
 30
0.000000
  70
    32
  0
VERTEX
  8
0
  5
10518
 10
-387.068
 20
840.863
 30
0.000000
  70
    32
  0
VERTEX
  8
0
  5
10519
 10
-387.064
 20
840.857
 30
0.000000
  70
    32
  0
VERTEX
  8
0
  5
1051A
 10
-387.060
 20
840.851
 30
0.000000
  70
    32
  0
VERTEX
  8
0
  5
1051B
 10
-387.057
 20
840.845
 30
0.000000
  70
    32
  0
VERTEX
  8
0
  5
1051C
 10
-387.053
 20
840.839
 30
0.000000
  70
    32
  0
VERTEX
  8
0
  5
1051D
 10
-387.050
 20
840.833
 30
0.000000
  70
    32
  0
VERTEX
  8
0
  5
1051E
 10
-387.046
 20
840.827
 30
0.000000
  70
    32
  0
VERTEX
  8
0
  5
1051F
 10
-387.043
 20
840.821
 30
0.000000
  70
    32
  0
VERTEX
  8
0
  5
10520
 10
-387.040
 20
840.814
 30
0.000000
  70
    32
  0
VERTEX
  8
0
  5
10521
 10
-387.036
 20
840.808
 30
0.000000
  70
    32
  0
VERTEX
  8
0
  5
10522
 10
-387.033
 20
840.802
 30
0.000000
  70
    32
  0
VERTEX
  8
0
  5
10523
 10
-387.030
 20
840.796
 30
0.000000
  70
    32
  0
VERTEX
  8
0
  5
10524
 10
-387.027
 20
840.789
 30
0.000000
  70
    32
  0
VERTEX
  8
0
  5
10525
 10
-387.024
 20
840.783
 30
0.000000
  70
    32
  0
VERTEX
  8
0
  5
10526
 10
-387.021
 20
840.777
 30
0.000000
  70
    32
  0
VERTEX
  8
0
  5
10527
 10
-387.018
 20
840.770
 30
0.000000
  70
    32
  0
VERTEX
  8
0
  5
10528
 10
-387.015
 20
840.764
 30
0.000000
  70
    32
  0
VERTEX
  8
0
  5
10529
 10
-387.013
 20
840.757
 30
0.000000
  70
    32
  0
VERTEX
  8
0
  5
1052A
 10
-387.010
 20
840.751
 30
0.000000
  70
    32
  0
VERTEX
  8
0
  5
1052B
 10
-387.007
 20
840.744
 30
0.000000
  70
    32
  0
VERTEX
  8
0
  5
1052C
 10
-387.005
 20
840.738
 30
0.000000
  70
    32
  0
VERTEX
  8
0
  5
1052D
 10
-387.002
 20
840.731
 30
0.000000
  70
    32
  0
VERTEX
  8
0
  5
1052E
 10
-386.999
 20
840.725
 30
0.000000
  70
    32
  0
VERTEX
  8
0
  5
1052F
 10
-386.997
 20
840.718
 30
0.000000
  70
    32
  0
VERTEX
  8
0
  5
10530
 10
-386.995
 20
840.712
 30
0.000000
  70
    32
  0
VERTEX
  8
0
  5
10531
 10
-386.992
 20
840.705
 30
0.000000
  70
    32
  0
VERTEX
  8
0
  5
10532
 10
-386.990
 20
840.699
 30
0.000000
  70
    32
  0
VERTEX
  8
0
  5
10533
 10
-386.988
 20
840.692
 30
0.000000
  70
    32
  0
VERTEX
  8
0
  5
10534
 10
-386.986
 20
840.685
 30
0.000000
  70
    32
  0
VERTEX
  8
0
  5
10535
 10
-386.983
 20
840.679
 30
0.000000
  70
    32
  0
VERTEX
  8
0
  5
10536
 10
-386.981
 20
840.672
 30
0.000000
  70
    32
  0
VERTEX
  8
0
  5
10537
 10
-386.979
 20
840.665
 30
0.000000
  70
    32
  0
VERTEX
  8
0
  5
10538
 10
-386.977
 20
840.659
 30
0.000000
  70
    32
  0
VERTEX
  8
0
  5
10539
 10
-386.975
 20
840.652
 30
0.000000
  70
    32
  0
VERTEX
  8
0
  5
1053A
 10
-386.973
 20
840.645
 30
0.000000
  70
    32
  0
VERTEX
  8
0
  5
1053B
 10
-386.972
 20
840.639
 30
0.000000
  70
    32
  0
VERTEX
  8
0
  5
1053C
 10
-386.970
 20
840.632
 30
0.000000
  70
    32
  0
VERTEX
  8
0
  5
1053D
 10
-386.968
 20
840.625
 30
0.000000
  70
    32
  0
VERTEX
  8
0
  5
1053E
 10
-386.966
 20
840.618
 30
0.000000
  70
    32
  0
VERTEX
  8
0
  5
1053F
 10
-386.964
 20
840.612
 30
0.000000
  70
    32
  0
VERTEX
  8
0
  5
10540
 10
-386.963
 20
840.605
 30
0.000000
  70
    32
  0
VERTEX
  8
0
  5
10541
 10
-386.961
 20
840.598
 30
0.000000
  70
    32
  0
VERTEX
  8
0
  5
10542
 10
-386.960
 20
840.591
 30
0.000000
  70
    32
  0
VERTEX
  8
0
  5
10543
 10
-386.958
 20
840.584
 30
0.000000
  70
    32
  0
VERTEX
  8
0
  5
10544
 10
-386.957
 20
840.577
 30
0.000000
  70
    32
  0
VERTEX
  8
0
  5
10545
 10
-386.955
 20
840.571
 30
0.000000
  70
    32
  0
VERTEX
  8
0
  5
10546
 10
-386.954
 20
840.564
 30
0.000000
  70
    32
  0
VERTEX
  8
0
  5
10547
 10
-386.952
 20
840.557
 30
0.000000
  70
    32
  0
VERTEX
  8
0
  5
10548
 10
-386.951
 20
840.550
 30
0.000000
  70
    32
  0
VERTEX
  8
0
  5
10549
 10
-386.950
 20
840.543
 30
0.000000
  70
    32
  0
VERTEX
  8
0
  5
1054A
 10
-386.949
 20
840.536
 30
0.000000
  70
    32
  0
VERTEX
  8
0
  5
1054B
 10
-386.947
 20
840.529
 30
0.000000
  70
    32
  0
VERTEX
  8
0
  5
1054C
 10
-386.946
 20
840.522
 30
0.000000
  70
    32
  0
VERTEX
  8
0
  5
1054D
 10
-386.945
 20
840.516
 30
0.000000
  70
    32
  0
VERTEX
  8
0
  5
1054E
 10
-386.944
 20
840.509
 30
0.000000
  70
    32
  0
VERTEX
  8
0
  5
1054F
 10
-386.943
 20
840.502
 30
0.000000
  70
    32
  0
VERTEX
  8
0
  5
10550
 10
-386.942
 20
840.495
 30
0.000000
  70
    32
  0
VERTEX
  8
0
  5
10551
 10
-386.941
 20
840.488
 30
0.000000
  70
    32
  0
VERTEX
  8
0
  5
10552
 10
-386.940
 20
840.481
 30
0.000000
  70
    32
  0
VERTEX
  8
0
  5
10553
 10
-386.939
 20
840.474
 30
0.000000
  70
    32
  0
VERTEX
  8
0
  5
10554
 10
-386.938
 20
840.467
 30
0.000000
  70
    32
  0
VERTEX
  8
0
  5
10555
 10
-386.937
 20
840.460
 30
0.000000
  70
    32
  0
VERTEX
  8
0
  5
10556
 10
-386.936
 20
840.453
 30
0.000000
  70
    32
  0
VERTEX
  8
0
  5
10557
 10
-386.935
 20
840.446
 30
0.000000
  70
    32
  0
VERTEX
  8
0
  5
10558
 10
-386.934
 20
840.439
 30
0.000000
  70
    32
  0
VERTEX
  8
0
  5
10559
 10
-386.934
 20
840.432
 30
0.000000
  70
    32
  0
VERTEX
  8
0
  5
1055A
 10
-386.933
 20
840.426
 30
0.000000
  70
    32
  0
VERTEX
  8
0
  5
1055B
 10
-386.932
 20
840.419
 30
0.000000
  70
    32
  0
VERTEX
  8
0
  5
1055C
 10
-386.931
 20
840.412
 30
0.000000
  70
    32
  0
VERTEX
  8
0
  5
1055D
 10
-386.931
 20
840.405
 30
0.000000
  70
    32
  0
VERTEX
  8
0
  5
1055E
 10
-386.930
 20
840.398
 30
0.000000
  70
    32
  0
VERTEX
  8
0
  5
1055F
 10
-386.929
 20
840.391
 30
0.000000
  70
    32
  0
VERTEX
  8
0
  5
10560
 10
-386.929
 20
840.384
 30
0.000000
  70
    32
  0
VERTEX
  8
0
  5
10561
 10
-386.928
 20
840.377
 30
0.000000
  70
    32
  0
VERTEX
  8
0
  5
10562
 10
-386.928
 20
840.370
 30
0.000000
  70
    32
  0
VERTEX
  8
0
  5
10563
 10
-386.927
 20
840.363
 30
0.000000
  70
    32
  0
VERTEX
  8
0
  5
10564
 10
-386.927
 20
840.356
 30
0.000000
  70
    32
  0
VERTEX
  8
0
  5
10565
 10
-386.926
 20
840.349
 30
0.000000
  70
    32
  0
VERTEX
  8
0
  5
10566
 10
-386.926
 20
840.342
 30
0.000000
  70
    32
  0
VERTEX
  8
0
  5
10567
 10
-386.925
 20
840.335
 30
0.000000
  70
    32
  0
VERTEX
  8
0
  5
10568
 10
-386.925
 20
840.328
 30
0.000000
  70
    32
  0
VERTEX
  8
0
  5
10569
 10
-386.925
 20
840.321
 30
0.000000
  70
    32
  0
VERTEX
  8
0
  5
1056A
 10
-386.924
 20
840.315
 30
0.000000
  70
    32
  0
VERTEX
  8
0
  5
1056B
 10
-386.924
 20
840.308
 30
0.000000
  70
    32
  0
VERTEX
  8
0
  5
1056C
 10
-386.924
 20
840.301
 30
0.000000
  70
    32
  0
VERTEX
  8
0
  5
1056D
 10
-386.923
 20
840.294
 30
0.000000
  70
    32
  0
VERTEX
  8
0
  5
1056E
 10
-386.923
 20
840.287
 30
0.000000
  70
    32
  0
VERTEX
  8
0
  5
1056F
 10
-386.923
 20
840.280
 30
0.000000
  70
    32
  0
VERTEX
  8
0
  5
10570
 10
-386.923
 20
840.273
 30
0.000000
  70
    32
  0
VERTEX
  8
0
  5
10571
 10
-386.923
 20
840.266
 30
0.000000
  70
    32
  0
VERTEX
  8
0
  5
10572
 10
-386.923
 20
840.259
 30
0.000000
  70
    32
  0
VERTEX
  8
0
  5
10573
 10
-386.923
 20
840.252
 30
0.000000
  70
    32
  0
VERTEX
  8
0
  5
10574
 10
-386.923
 20
840.245
 30
0.000000
  70
    32
  0
VERTEX
  8
0
  5
10575
 10
-386.923
 20
840.238
 30
0.000000
  70
    32
  0
VERTEX
  8
0
  5
10576
 10
-386.923
 20
840.231
 30
0.000000
  70
    32
  0
VERTEX
  8
0
  5
10577
 10
-386.923
 20
840.224
 30
0.000000
  70
    32
  0
VERTEX
  8
0
  5
10578
 10
-386.923
 20
840.217
 30
0.000000
  70
    32
  0
VERTEX
  8
0
  5
10579
 10
-386.923
 20
840.210
 30
0.000000
  70
    32
  0
VERTEX
  8
0
  5
1057A
 10
-386.923
 20
840.203
 30
0.000000
  70
    32
  0
VERTEX
  8
0
  5
1057B
 10
-386.923
 20
840.196
 30
0.000000
  70
    32
  0
VERTEX
  8
0
  5
1057C
 10
-386.923
 20
840.189
 30
0.000000
  70
    32
  0
VERTEX
  8
0
  5
1057D
 10
-386.924
 20
840.182
 30
0.000000
  70
    32
  0
VERTEX
  8
0
  5
1057E
 10
-386.924
 20
840.175
 30
0.000000
  70
    32
  0
VERTEX
  8
0
  5
1057F
 10
-386.924
 20
840.168
 30
0.000000
  70
    32
  0
VERTEX
  8
0
  5
10580
 10
-386.924
 20
840.161
 30
0.000000
  70
    32
  0
VERTEX
  8
0
  5
10581
 10
-386.925
 20
840.154
 30
0.000000
  70
    32
  0
VERTEX
  8
0
  5
10582
 10
-386.925
 20
840.147
 30
0.000000
  70
    32
  0
VERTEX
  8
0
  5
10583
 10
-386.926
 20
840.140
 30
0.000000
  70
    32
  0
VERTEX
  8
0
  5
10584
 10
-386.926
 20
840.133
 30
0.000000
  70
    32
  0
VERTEX
  8
0
  5
10585
 10
-386.927
 20
840.126
 30
0.000000
  70
    32
  0
VERTEX
  8
0
  5
10586
 10
-386.927
 20
840.119
 30
0.000000
  70
    32
  0
VERTEX
  8
0
  5
10587
 10
-386.928
 20
840.112
 30
0.000000
  70
    32
  0
VERTEX
  8
0
  5
10588
 10
-386.928
 20
840.105
 30
0.000000
  70
    32
  0
VERTEX
  8
0
  5
10589
 10
-386.929
 20
840.099
 30
0.000000
  70
    32
  0
VERTEX
  8
0
  5
1058A
 10
-386.929
 20
840.092
 30
0.000000
  70
    32
  0
VERTEX
  8
0
  5
1058B
 10
-386.930
 20
840.085
 30
0.000000
  70
    32
  0
VERTEX
  8
0
  5
1058C
 10
-386.931
 20
840.078
 30
0.000000
  70
    32
  0
VERTEX
  8
0
  5
1058D
 10
-386.932
 20
840.071
 30
0.000000
  70
    32
  0
VERTEX
  8
0
  5
1058E
 10
-386.932
 20
840.064
 30
0.000000
  70
    32
  0
VERTEX
  8
0
  5
1058F
 10
-386.933
 20
840.057
 30
0.000000
  70
    32
  0
VERTEX
  8
0
  5
10590
 10
-386.934
 20
840.050
 30
0.000000
  70
    32
  0
VERTEX
  8
0
  5
10591
 10
-386.935
 20
840.043
 30
0.000000
  70
    32
  0
VERTEX
  8
0
  5
10592
 10
-386.936
 20
840.036
 30
0.000000
  70
    32
  0
VERTEX
  8
0
  5
10593
 10
-386.937
 20
840.029
 30
0.000000
  70
    32
  0
VERTEX
  8
0
  5
10594
 10
-386.938
 20
840.022
 30
0.000000
  70
    32
  0
VERTEX
  8
0
  5
10595
 10
-386.939
 20
840.015
 30
0.000000
  70
    32
  0
VERTEX
  8
0
  5
10596
 10
-386.940
 20
840.008
 30
0.000000
  70
    32
  0
VERTEX
  8
0
  5
10597
 10
-386.942
 20
840.001
 30
0.000000
  70
    32
  0
VERTEX
  8
0
  5
10598
 10
-386.943
 20
839.994
 30
0.000000
  70
    32
  0
VERTEX
  8
0
  5
10599
 10
-386.944
 20
839.987
 30
0.000000
  70
    32
  0
VERTEX
  8
0
  5
1059A
 10
-386.945
 20
839.980
 30
0.000000
  70
    32
  0
VERTEX
  8
0
  5
1059B
 10
-386.947
 20
839.974
 30
0.000000
  70
    32
  0
VERTEX
  8
0
  5
1059C
 10
-386.948
 20
839.967
 30
0.000000
  70
    32
  0
VERTEX
  8
0
  5
1059D
 10
-386.949
 20
839.960
 30
0.000000
  70
    32
  0
VERTEX
  8
0
  5
1059E
 10
-386.951
 20
839.953
 30
0.000000
  70
    32
  0
VERTEX
  8
0
  5
1059F
 10
-386.953
 20
839.946
 30
0.000000
  70
    32
  0
VERTEX
  8
0
  5
105A0
 10
-386.954
 20
839.939
 30
0.000000
  70
    32
  0
VERTEX
  8
0
  5
105A1
 10
-386.956
 20
839.932
 30
0.000000
  70
    32
  0
VERTEX
  8
0
  5
105A2
 10
-386.957
 20
839.926
 30
0.000000
  70
    32
  0
VERTEX
  8
0
  5
105A3
 10
-386.959
 20
839.919
 30
0.000000
  70
    32
  0
VERTEX
  8
0
  5
105A4
 10
-386.961
 20
839.912
 30
0.000000
  70
    32
  0
VERTEX
  8
0
  5
105A5
 10
-386.963
 20
839.905
 30
0.000000
  70
    32
  0
VERTEX
  8
0
  5
105A6
 10
-386.965
 20
839.899
 30
0.000000
  70
    32
  0
VERTEX
  8
0
  5
105A7
 10
-386.967
 20
839.892
 30
0.000000
  70
    32
  0
VERTEX
  8
0
  5
105A8
 10
-386.969
 20
839.885
 30
0.000000
  70
    32
  0
VERTEX
  8
0
  5
105A9
 10
-386.971
 20
839.879
 30
0.000000
  70
    32
  0
VERTEX
  8
0
  5
105AA
 10
-386.973
 20
839.872
 30
0.000000
  70
    32
  0
VERTEX
  8
0
  5
105AB
 10
-386.975
 20
839.865
 30
0.000000
  70
    32
  0
VERTEX
  8
0
  5
105AC
 10
-386.977
 20
839.859
 30
0.000000
  70
    32
  0
VERTEX
  8
0
  5
105AD
 10
-386.979
 20
839.852
 30
0.000000
  70
    32
  0
VERTEX
  8
0
  5
105AE
 10
-386.982
 20
839.846
 30
0.000000
  70
    32
  0
VERTEX
  8
0
  5
105AF
 10
-386.984
 20
839.839
 30
0.000000
  70
    32
  0
VERTEX
  8
0
  5
105B0
 10
-386.986
 20
839.832
 30
0.000000
  70
    32
  0
VERTEX
  8
0
  5
105B1
 10
-386.989
 20
839.826
 30
0.000000
  70
    32
  0
VERTEX
  8
0
  5
105B2
 10
-386.991
 20
839.819
 30
0.000000
  70
    32
  0
VERTEX
  8
0
  5
105B3
 10
-386.994
 20
839.813
 30
0.000000
  70
    32
  0
VERTEX
  8
0
  5
105B4
 10
-386.997
 20
839.807
 30
0.000000
  70
    32
  0
VERTEX
  8
0
  5
105B5
 10
-386.999
 20
839.800
 30
0.000000
  70
    32
  0
VERTEX
  8
0
  5
105B6
 10
-387.002
 20
839.794
 30
0.000000
  70
    32
  0
VERTEX
  8
0
  5
105B7
 10
-387.005
 20
839.787
 30
0.000000
  70
    32
  0
VERTEX
  8
0
  5
105B8
 10
-387.008
 20
839.781
 30
0.000000
  70
    32
  0
VERTEX
  8
0
  5
105B9
 10
-387.011
 20
839.775
 30
0.000000
  70
    32
  0
VERTEX
  8
0
  5
105BA
 10
-387.014
 20
839.768
 30
0.000000
  70
    32
  0
VERTEX
  8
0
  5
105BB
 10
-387.017
 20
839.762
 30
0.000000
  70
    32
  0
VERTEX
  8
0
  5
105BC
 10
-387.020
 20
839.756
 30
0.000000
  70
    32
  0
VERTEX
  8
0
  5
105BD
 10
-387.023
 20
839.750
 30
0.000000
  70
    32
  0
VERTEX
  8
0
  5
105BE
 10
-387.026
 20
839.744
 30
0.000000
  70
    32
  0
VERTEX
  8
0
  5
105BF
 10
-387.030
 20
839.737
 30
0.000000
  70
    32
  0
VERTEX
  8
0
  5
105C0
 10
-387.033
 20
839.731
 30
0.000000
  70
    32
  0
VERTEX
  8
0
  5
105C1
 10
-387.037
 20
839.725
 30
0.000000
  70
    32
  0
VERTEX
  8
0
  5
105C2
 10
-387.040
 20
839.719
 30
0.000000
  70
    32
  0
VERTEX
  8
0
  5
105C3
 10
-387.044
 20
839.713
 30
0.000000
  70
    32
  0
VERTEX
  8
0
  5
105C4
 10
-387.047
 20
839.707
 30
0.000000
  70
    32
  0
VERTEX
  8
0
  5
105C5
 10
-387.051
 20
839.701
 30
0.000000
  70
    32
  0
VERTEX
  8
0
  5
105C6
 10
-387.055
 20
839.695
 30
0.000000
  70
    32
  0
VERTEX
  8
0
  5
105C7
 10
-387.058
 20
839.689
 30
0.000000
  70
    32
  0
VERTEX
  8
0
  5
105C8
 10
-387.062
 20
839.683
 30
0.000000
  70
    32
  0
VERTEX
  8
0
  5
105C9
 10
-387.066
 20
839.678
 30
0.000000
  70
    32
  0
VERTEX
  8
0
  5
105CA
 10
-387.070
 20
839.672
 30
0.000000
  70
    32
  0
VERTEX
  8
0
  5
105CB
 10
-387.074
 20
839.666
 30
0.000000
  70
    32
  0
VERTEX
  8
0
  5
105CC
 10
-387.078
 20
839.660
 30
0.000000
  70
    32
  0
VERTEX
  8
0
  5
105CD
 10
-387.082
 20
839.654
 30
0.000000
  70
    32
  0
VERTEX
  8
0
  5
105CE
 10
-387.086
 20
839.649
 30
0.000000
  70
    32
  0
VERTEX
  8
0
  5
105CF
 10
-387.090
 20
839.643
 30
0.000000
  70
    32
  0
VERTEX
  8
0
  5
105D0
 10
-387.094
 20
839.638
 30
0.000000
  70
    32
  0
VERTEX
  8
0
  5
105D1
 10
-387.099
 20
839.632
 30
0.000000
  70
    32
  0
VERTEX
  8
0
  5
105D2
 10
-387.103
 20
839.626
 30
0.000000
  70
    32
  0
VERTEX
  8
0
  5
105D3
 10
-387.107
 20
839.621
 30
0.000000
  70
    32
  0
VERTEX
  8
0
  5
105D4
 10
-387.112
 20
839.615
 30
0.000000
  70
    32
  0
VERTEX
  8
0
  5
105D5
 10
-387.116
 20
839.610
 30
0.000000
  70
    32
  0
VERTEX
  8
0
  5
105D6
 10
-387.121
 20
839.605
 30
0.000000
  70
    32
  0
VERTEX
  8
0
  5
105D7
 10
-387.125
 20
839.599
 30
0.000000
  70
    32
  0
VERTEX
  8
0
  5
105D8
 10
-387.130
 20
839.594
 30
0.000000
  70
    32
  0
VERTEX
  8
0
  5
105D9
 10
-387.134
 20
839.589
 30
0.000000
  70
    32
  0
VERTEX
  8
0
  5
105DA
 10
-387.139
 20
839.583
 30
0.000000
  70
    32
  0
VERTEX
  8
0
  5
105DB
 10
-387.144
 20
839.578
 30
0.000000
  70
    32
  0
VERTEX
  8
0
  5
105DC
 10
-387.149
 20
839.573
 30
0.000000
  70
    32
  0
VERTEX
  8
0
  5
105DD
 10
-387.153
 20
839.568
 30
0.000000
  70
    32
  0
VERTEX
  8
0
  5
105DE
 10
-387.158
 20
839.563
 30
0.000000
  70
    32
  0
VERTEX
  8
0
  5
105DF
 10
-387.163
 20
839.558
 30
0.000000
  70
    32
  0
VERTEX
  8
0
  5
105E0
 10
-387.168
 20
839.553
 30
0.000000
  70
    32
  0
VERTEX
  8
0
  5
105E1
 10
-387.173
 20
839.548
 30
0.000000
  70
    32
  0
VERTEX
  8
0
  5
105E2
 10
-387.178
 20
839.543
 30
0.000000
  70
    32
  0
VERTEX
  8
0
  5
105E3
 10
-387.183
 20
839.538
 30
0.000000
  70
    32
  0
VERTEX
  8
0
  5
105E4
 10
-387.188
 20
839.533
 30
0.000000
  70
    32
  0
VERTEX
  8
0
  5
105E5
 10
-387.193
 20
839.528
 30
0.000000
  70
    32
  0
VERTEX
  8
0
  5
105E6
 10
-387.198
 20
839.524
 30
0.000000
  70
    32
  0
VERTEX
  8
0
  5
105E7
 10
-387.204
 20
839.519
 30
0.000000
  70
    32
  0
VERTEX
  8
0
  5
105E8
 10
-387.209
 20
839.514
 30
0.000000
  70
    32
  0
VERTEX
  8
0
  5
105E9
 10
-387.214
 20
839.510
 30
0.000000
  70
    32
  0
VERTEX
  8
0
  5
105EA
 10
-387.219
 20
839.505
 30
0.000000
  70
    32
  0
VERTEX
  8
0
  5
105EB
 10
-387.225
 20
839.500
 30
0.000000
  70
    32
  0
VERTEX
  8
0
  5
105EC
 10
-387.230
 20
839.496
 30
0.000000
  70
    32
  0
VERTEX
  8
0
  5
105ED
 10
-387.235
 20
839.491
 30
0.000000
  70
    32
  0
VERTEX
  8
0
  5
105EE
 10
-387.241
 20
839.487
 30
0.000000
  70
    32
  0
VERTEX
  8
0
  5
105EF
 10
-387.246
 20
839.483
 30
0.000000
  70
    32
  0
VERTEX
  8
0
  5
105F0
 10
-387.252
 20
839.478
 30
0.000000
  70
    32
  0
VERTEX
  8
0
  5
105F1
 10
-387.257
 20
839.474
 30
0.000000
  70
    32
  0
VERTEX
  8
0
  5
105F2
 10
-387.263
 20
839.470
 30
0.000000
  70
    32
  0
VERTEX
  8
0
  5
105F3
 10
-387.268
 20
839.466
 30
0.000000
  70
    32
  0
VERTEX
  8
0
  5
105F4
 10
-387.274
 20
839.461
 30
0.000000
  70
    32
  0
VERTEX
  8
0
  5
105F5
 10
-387.280
 20
839.457
 30
0.000000
  70
    32
  0
VERTEX
  8
0
  5
105F6
 10
-387.285
 20
839.453
 30
0.000000
  70
    32
  0
VERTEX
  8
0
  5
105F7
 10
-387.291
 20
839.449
 30
0.000000
  70
    32
  0
VERTEX
  8
0
  5
105F8
 10
-387.297
 20
839.445
 30
0.000000
  70
    32
  0
VERTEX
  8
0
  5
105F9
 10
-387.302
 20
839.441
 30
0.000000
  70
    32
  0
VERTEX
  8
0
  5
105FA
 10
-387.308
 20
839.437
 30
0.000000
  70
    32
  0
VERTEX
  8
0
  5
105FB
 10
-387.314
 20
839.434
 30
0.000000
  70
    32
  0
VERTEX
  8
0
  5
105FC
 10
-387.320
 20
839.430
 30
0.000000
  70
    32
  0
VERTEX
  8
0
  5
105FD
 10
-387.326
 20
839.426
 30
0.000000
  70
    32
  0
VERTEX
  8
0
  5
105FE
 10
-387.331
 20
839.422
 30
0.000000
  70
    32
  0
VERTEX
  8
0
  5
105FF
 10
-387.337
 20
839.418
 30
0.000000
  70
    32
  0
VERTEX
  8
0
  5
10600
 10
-387.343
 20
839.415
 30
0.000000
  70
    32
  0
VERTEX
  8
0
  5
10601
 10
-387.349
 20
839.411
 30
0.000000
  70
    32
  0
VERTEX
  8
0
  5
10602
 10
-387.355
 20
839.408
 30
0.000000
  70
    32
  0
VERTEX
  8
0
  5
10603
 10
-387.361
 20
839.404
 30
0.000000
  70
    32
  0
VERTEX
  8
0
  5
10604
 10
-387.367
 20
839.401
 30
0.000000
  70
    32
  0
VERTEX
  8
0
  5
10605
 10
-387.373
 20
839.397
 30
0.000000
  70
    32
  0
VERTEX
  8
0
  5
10606
 10
-387.380
 20
839.394
 30
0.000000
  70
    32
  0
VERTEX
  8
0
  5
10607
 10
-387.386
 20
839.390
 30
0.000000
  70
    32
  0
VERTEX
  8
0
  5
10608
 10
-387.392
 20
839.387
 30
0.000000
  70
    32
  0
VERTEX
  8
0
  5
10609
 10
-387.398
 20
839.384
 30
0.000000
  70
    32
  0
VERTEX
  8
0
  5
1060A
 10
-387.404
 20
839.380
 30
0.000000
  70
    32
  0
VERTEX
  8
0
  5
1060B
 10
-387.410
 20
839.377
 30
0.000000
  70
    32
  0
VERTEX
  8
0
  5
1060C
 10
-387.417
 20
839.374
 30
0.000000
  70
    32
  0
VERTEX
  8
0
  5
1060D
 10
-387.423
 20
839.371
 30
0.000000
  70
    32
  0
VERTEX
  8
0
  5
1060E
 10
-387.429
 20
839.368
 30
0.000000
  70
    32
  0
VERTEX
  8
0
  5
1060F
 10
-387.435
 20
839.365
 30
0.000000
  70
    32
  0
VERTEX
  8
0
  5
10610
 10
-387.442
 20
839.362
 30
0.000000
  70
    32
  0
VERTEX
  8
0
  5
10611
 10
-387.448
 20
839.359
 30
0.000000
  70
    32
  0
VERTEX
  8
0
  5
10612
 10
-387.454
 20
839.356
 30
0.000000
  70
    32
  0
VERTEX
  8
0
  5
10613
 10
-387.461
 20
839.353
 30
0.000000
  70
    32
  0
VERTEX
  8
0
  5
10614
 10
-387.467
 20
839.350
 30
0.000000
  70
    32
  0
VERTEX
  8
0
  5
10615
 10
-387.474
 20
839.347
 30
0.000000
  70
    32
  0
VERTEX
  8
0
  5
10616
 10
-387.480
 20
839.344
 30
0.000000
  70
    32
  0
VERTEX
  8
0
  5
10617
 10
-387.486
 20
839.342
 30
0.000000
  70
    32
  0
VERTEX
  8
0
  5
10618
 10
-387.493
 20
839.339
 30
0.000000
  70
    32
  0
VERTEX
  8
0
  5
10619
 10
-387.499
 20
839.336
 30
0.000000
  70
    32
  0
VERTEX
  8
0
  5
1061A
 10
-387.506
 20
839.333
 30
0.000000
  70
    32
  0
VERTEX
  8
0
  5
1061B
 10
-387.512
 20
839.331
 30
0.000000
  70
    32
  0
VERTEX
  8
0
  5
1061C
 10
-387.519
 20
839.328
 30
0.000000
  70
    32
  0
VERTEX
  8
0
  5
1061D
 10
-387.526
 20
839.326
 30
0.000000
  70
    32
  0
VERTEX
  8
0
  5
1061E
 10
-387.532
 20
839.323
 30
0.000000
  70
    32
  0
VERTEX
  8
0
  5
1061F
 10
-387.539
 20
839.321
 30
0.000000
  70
    32
  0
VERTEX
  8
0
  5
10620
 10
-387.545
 20
839.318
 30
0.000000
  70
    32
  0
VERTEX
  8
0
  5
10621
 10
-387.552
 20
839.316
 30
0.000000
  70
    32
  0
VERTEX
  8
0
  5
10622
 10
-387.559
 20
839.313
 30
0.000000
  70
    32
  0
VERTEX
  8
0
  5
10623
 10
-387.565
 20
839.311
 30
0.000000
  70
    32
  0
VERTEX
  8
0
  5
10624
 10
-387.572
 20
839.309
 30
0.000000
  70
    32
  0
VERTEX
  8
0
  5
10625
 10
-387.579
 20
839.307
 30
0.000000
  70
    32
  0
VERTEX
  8
0
  5
10626
 10
-387.585
 20
839.304
 30
0.000000
  70
    32
  0
VERTEX
  8
0
  5
10627
 10
-387.592
 20
839.302
 30
0.000000
  70
    32
  0
VERTEX
  8
0
  5
10628
 10
-387.599
 20
839.300
 30
0.000000
  70
    32
  0
VERTEX
  8
0
  5
10629
 10
-387.605
 20
839.298
 30
0.000000
  70
    32
  0
VERTEX
  8
0
  5
1062A
 10
-387.612
 20
839.296
 30
0.000000
  70
    32
  0
VERTEX
  8
0
  5
1062B
 10
-387.619
 20
839.293
 30
0.000000
  70
    32
  0
VERTEX
  8
0
  5
1062C
 10
-387.625
 20
839.291
 30
0.000000
  70
    32
  0
VERTEX
  8
0
  5
1062D
 10
-387.632
 20
839.289
 30
0.000000
  70
    32
  0
VERTEX
  8
0
  5
1062E
 10
-387.639
 20
839.287
 30
0.000000
  70
    32
  0
VERTEX
  8
0
  5
1062F
 10
-387.646
 20
839.285
 30
0.000000
  70
    32
  0
VERTEX
  8
0
  5
10630
 10
-387.652
 20
839.283
 30
0.000000
  70
    32
  0
VERTEX
  8
0
  5
10631
 10
-387.659
 20
839.281
 30
0.000000
  70
    32
  0
VERTEX
  8
0
  5
10632
 10
-387.666
 20
839.279
 30
0.000000
  70
    32
  0
VERTEX
  8
0
  5
10633
 10
-387.672
 20
839.276
 30
0.000000
  70
    32
  0
VERTEX
  8
0
  5
10634
 10
-387.679
 20
839.274
 30
0.000000
  70
    32
  0
VERTEX
  8
0
  5
10635
 10
-387.686
 20
839.272
 30
0.000000
  70
    32
  0
VERTEX
  8
0
  5
10636
 10
-387.692
 20
839.270
 30
0.000000
  70
    32
  0
VERTEX
  8
0
  5
10637
 10
-387.699
 20
839.268
 30
0.000000
  70
    32
  0
VERTEX
  8
0
  5
10638
 10
-387.706
 20
839.266
 30
0.000000
  70
    32
  0
VERTEX
  8
0
  5
10639
 10
-387.712
 20
839.263
 30
0.000000
  70
    32
  0
VERTEX
  8
0
  5
1063A
 10
-387.719
 20
839.261
 30
0.000000
  70
    32
  0
VERTEX
  8
0
  5
1063B
 10
-387.726
 20
839.259
 30
0.000000
  70
    32
  0
VERTEX
  8
0
  5
1063C
 10
-387.732
 20
839.256
 30
0.000000
  70
    32
  0
VERTEX
  8
0
  5
1063D
 10
-387.739
 20
839.254
 30
0.000000
  70
    32
  0
VERTEX
  8
0
  5
1063E
 10
-387.745
 20
839.251
 30
0.000000
  70
    32
  0
VERTEX
  8
0
  5
1063F
 10
-387.752
 20
839.249
 30
0.000000
  70
    32
  0
VERTEX
  8
0
  5
10640
 10
-387.758
 20
839.246
 30
0.000000
  70
    32
  0
VERTEX
  8
0
  5
10641
 10
-387.765
 20
839.244
 30
0.000000
  70
    32
  0
VERTEX
  8
0
  5
10642
 10
-387.771
 20
839.241
 30
0.000000
  70
    32
  0
VERTEX
  8
0
  5
10643
 10
-387.777
 20
839.238
 30
0.000000
  70
    32
  0
VERTEX
  8
0
  5
10644
 10
-387.784
 20
839.236
 30
0.000000
  70
    32
  0
VERTEX
  8
0
  5
10645
 10
-387.790
 20
839.233
 30
0.000000
  70
    32
  0
VERTEX
  8
0
  5
10646
 10
-387.796
 20
839.230
 30
0.000000
  70
    32
  0
VERTEX
  8
0
  5
10647
 10
-387.803
 20
839.227
 30
0.000000
  70
    32
  0
VERTEX
  8
0
  5
10648
 10
-387.809
 20
839.224
 30
0.000000
  70
    32
  0
VERTEX
  8
0
  5
10649
 10
-387.815
 20
839.221
 30
0.000000
  70
    32
  0
VERTEX
  8
0
  5
1064A
 10
-387.821
 20
839.217
 30
0.000000
  70
    32
  0
VERTEX
  8
0
  5
1064B
 10
-387.827
 20
839.214
 30
0.000000
  70
    32
  0
VERTEX
  8
0
  5
1064C
 10
-387.833
 20
839.211
 30
0.000000
  70
    32
  0
VERTEX
  8
0
  5
1064D
 10
-387.839
 20
839.207
 30
0.000000
  70
    32
  0
VERTEX
  8
0
  5
1064E
 10
-387.845
 20
839.203
 30
0.000000
  70
    32
  0
VERTEX
  8
0
  5
1064F
 10
-387.851
 20
839.200
 30
0.000000
  70
    32
  0
VERTEX
  8
0
  5
10650
 10
-387.857
 20
839.196
 30
0.000000
  70
    32
  0
VERTEX
  8
0
  5
10651
 10
-387.863
 20
839.192
 30
0.000000
  70
    32
  0
VERTEX
  8
0
  5
10652
 10
-387.868
 20
839.188
 30
0.000000
  70
    32
  0
VERTEX
  8
0
  5
10653
 10
-387.874
 20
839.184
 30
0.000000
  70
    32
  0
VERTEX
  8
0
  5
10654
 10
-387.880
 20
839.180
 30
0.000000
  70
    32
  0
VERTEX
  8
0
  5
10655
 10
-387.885
 20
839.175
 30
0.000000
  70
    32
  0
VERTEX
  8
0
  5
10656
 10
-387.891
 20
839.171
 30
0.000000
  70
    32
  0
VERTEX
  8
0
  5
10657
 10
-387.896
 20
839.166
 30
0.000000
  70
    32
  0
VERTEX
  8
0
  5
10658
 10
-387.902
 20
839.162
 30
0.000000
  70
    32
  0
VERTEX
  8
0
  5
10659
 10
-387.907
 20
839.157
 30
0.000000
  70
    32
  0
VERTEX
  8
0
  5
1065A
 10
-387.912
 20
839.152
 30
0.000000
  70
    32
  0
VERTEX
  8
0
  5
1065B
 10
-387.917
 20
839.147
 30
0.000000
  70
    32
  0
VERTEX
  8
0
  5
1065C
 10
-387.922
 20
839.142
 30
0.000000
  70
    32
  0
VERTEX
  8
0
  5
1065D
 10
-387.927
 20
839.137
 30
0.000000
  70
    32
  0
VERTEX
  8
0
  5
1065E
 10
-387.932
 20
839.132
 30
0.000000
  70
    32
  0
VERTEX
  8
0
  5
1065F
 10
-387.937
 20
839.126
 30
0.000000
  70
    32
  0
VERTEX
  8
0
  5
10660
 10
-387.942
 20
839.121
 30
0.000000
  70
    32
  0
VERTEX
  8
0
  5
10661
 10
-387.946
 20
839.115
 30
0.000000
  70
    32
  0
VERTEX
  8
0
  5
10662
 10
-387.950
 20
839.109
 30
0.000000
  70
    32
  0
VERTEX
  8
0
  5
10663
 10
-387.955
 20
839.104
 30
0.000000
  70
    32
  0
VERTEX
  8
0
  5
10664
 10
-387.959
 20
839.098
 30
0.000000
  70
    32
  0
VERTEX
  8
0
  5
10665
 10
-387.963
 20
839.092
 30
0.000000
  70
    32
  0
VERTEX
  8
0
  5
10666
 10
-387.967
 20
839.086
 30
0.000000
  70
    32
  0
VERTEX
  8
0
  5
10667
 10
-387.970
 20
839.080
 30
0.000000
  70
    32
  0
VERTEX
  8
0
  5
10668
 10
-387.974
 20
839.074
 30
0.000000
  70
    32
  0
VERTEX
  8
0
  5
10669
 10
-387.977
 20
839.068
 30
0.000000
  70
    32
  0
VERTEX
  8
0
  5
1066A
 10
-387.981
 20
839.061
 30
0.000000
  70
    32
  0
VERTEX
  8
0
  5
1066B
 10
-387.984
 20
839.055
 30
0.000000
  70
    32
  0
VERTEX
  8
0
  5
1066C
 10
-387.987
 20
839.049
 30
0.000000
  70
    32
  0
VERTEX
  8
0
  5
1066D
 10
-387.989
 20
839.042
 30
0.000000
  70
    32
  0
VERTEX
  8
0
  5
1066E
 10
-387.992
 20
839.035
 30
0.000000
  70
    32
  0
VERTEX
  8
0
  5
1066F
 10
-387.994
 20
839.029
 30
0.000000
  70
    32
  0
VERTEX
  8
0
  5
10670
 10
-387.997
 20
839.022
 30
0.000000
  70
    32
  0
VERTEX
  8
0
  5
10671
 10
-387.999
 20
839.015
 30
0.000000
  70
    32
  0
VERTEX
  8
0
  5
10672
 10
-388.000
 20
839.009
 30
0.000000
  70
    32
  0
VERTEX
  8
0
  5
10673
 10
-388.002
 20
839.002
 30
0.000000
  70
    32
  0
VERTEX
  8
0
  5
10674
 10
-388.003
 20
838.995
 30
0.000000
  70
    32
  0
VERTEX
  8
0
  5
10675
 10
-388.005
 20
838.988
 30
0.000000
  70
    32
  0
VERTEX
  8
0
  5
10676
 10
-388.006
 20
838.981
 30
0.000000
  70
    32
  0
VERTEX
  8
0
  5
10677
 10
-388.006
 20
838.974
 30
0.000000
  70
    32
  0
VERTEX
  8
0
  5
10678
 10
-388.007
 20
838.967
 30
0.000000
  70
    32
  0
VERTEX
  8
0
  5
10679
 10
-388.007
 20
838.960
 30
0.000000
  70
    32
  0
VERTEX
  8
0
  5
1067A
 10
-388.007
 20
838.953
 30
0.000000
  70
    32
  0
VERTEX
  8
0
  5
1067B
 10
-388.007
 20
838.946
 30
0.000000
  70
    32
  0
VERTEX
  8
0
  5
1067C
 10
-388.007
 20
838.939
 30
0.000000
  70
    32
  0
VERTEX
  8
0
  5
1067D
 10
-388.006
 20
838.932
 30
0.000000
  70
    32
  0
VERTEX
  8
0
  5
1067E
 10
-388.006
 20
838.924
 30
0.000000
  70
    32
  0
VERTEX
  8
0
  5
1067F
 10
-388.005
 20
838.917
 30
0.000000
  70
    32
  0
VERTEX
  8
0
  5
10680
 10
-388.004
 20
838.910
 30
0.000000
  70
    32
  0
VERTEX
  8
0
  5
10681
 10
-388.002
 20
838.903
 30
0.000000
  70
    32
  0
VERTEX
  8
0
  5
10682
 10
-388.001
 20
838.897
 30
0.000000
  70
    32
  0
VERTEX
  8
0
  5
10683
 10
-387.999
 20
838.890
 30
0.000000
  70
    32
  0
VERTEX
  8
0
  5
10684
 10
-387.997
 20
838.883
 30
0.000000
  70
    32
  0
VERTEX
  8
0
  5
10685
 10
-387.995
 20
838.876
 30
0.000000
  70
    32
  0
VERTEX
  8
0
  5
10686
 10
-387.993
 20
838.869
 30
0.000000
  70
    32
  0
VERTEX
  8
0
  5
10687
 10
-387.990
 20
838.863
 30
0.000000
  70
    32
  0
VERTEX
  8
0
  5
10688
 10
-387.987
 20
838.856
 30
0.000000
  70
    32
  0
VERTEX
  8
0
  5
10689
 10
-387.985
 20
838.850
 30
0.000000
  70
    32
  0
VERTEX
  8
0
  5
1068A
 10
-387.981
 20
838.843
 30
0.000000
  70
    32
  0
VERTEX
  8
0
  5
1068B
 10
-387.978
 20
838.837
 30
0.000000
  70
    32
  0
VERTEX
  8
0
  5
1068C
 10
-387.975
 20
838.831
 30
0.000000
  70
    32
  0
VERTEX
  8
0
  5
1068D
 10
-387.971
 20
838.825
 30
0.000000
  70
    32
  0
VERTEX
  8
0
  5
1068E
 10
-387.967
 20
838.819
 30
0.000000
  70
    32
  0
VERTEX
  8
0
  5
1068F
 10
-387.963
 20
838.813
 30
0.000000
  70
    32
  0
VERTEX
  8
0
  5
10690
 10
-387.959
 20
838.808
 30
0.000000
  70
    32
  0
VERTEX
  8
0
  5
10691
 10
-387.955
 20
838.802
 30
0.000000
  70
    32
  0
VERTEX
  8
0
  5
10692
 10
-387.950
 20
838.797
 30
0.000000
  70
    32
  0
VERTEX
  8
0
  5
10693
 10
-387.945
 20
838.791
 30
0.000000
  70
    32
  0
VERTEX
  8
0
  5
10694
 10
-387.941
 20
838.786
 30
0.000000
  70
    32
  0
VERTEX
  8
0
  5
10695
 10
-387.936
 20
838.781
 30
0.000000
  70
    32
  0
VERTEX
  8
0
  5
10696
 10
-387.931
 20
838.776
 30
0.000000
  70
    32
  0
VERTEX
  8
0
  5
10697
 10
-387.925
 20
838.771
 30
0.000000
  70
    32
  0
VERTEX
  8
0
  5
10698
 10
-387.920
 20
838.767
 30
0.000000
  70
    32
  0
VERTEX
  8
0
  5
10699
 10
-387.915
 20
838.762
 30
0.000000
  70
    32
  0
VERTEX
  8
0
  5
1069A
 10
-387.909
 20
838.758
 30
0.000000
  70
    32
  0
VERTEX
  8
0
  5
1069B
 10
-387.904
 20
838.753
 30
0.000000
  70
    32
  0
VERTEX
  8
0
  5
1069C
 10
-387.898
 20
838.749
 30
0.000000
  70
    32
  0
VERTEX
  8
0
  5
1069D
 10
-387.892
 20
838.745
 30
0.000000
  70
    32
  0
VERTEX
  8
0
  5
1069E
 10
-387.886
 20
838.741
 30
0.000000
  70
    32
  0
VERTEX
  8
0
  5
1069F
 10
-387.880
 20
838.737
 30
0.000000
  70
    32
  0
VERTEX
  8
0
  5
106A0
 10
-387.874
 20
838.734
 30
0.000000
  70
    32
  0
VERTEX
  8
0
  5
106A1
 10
-387.868
 20
838.730
 30
0.000000
  70
    32
  0
VERTEX
  8
0
  5
106A2
 10
-387.861
 20
838.727
 30
0.000000
  70
    32
  0
VERTEX
  8
0
  5
106A3
 10
-387.855
 20
838.724
 30
0.000000
  70
    32
  0
VERTEX
  8
0
  5
106A4
 10
-387.849
 20
838.721
 30
0.000000
  70
    32
  0
VERTEX
  8
0
  5
106A5
 10
-387.842
 20
838.718
 30
0.000000
  70
    32
  0
VERTEX
  8
0
  5
106A6
 10
-387.836
 20
838.715
 30
0.000000
  70
    32
  0
VERTEX
  8
0
  5
106A7
 10
-387.830
 20
838.712
 30
0.000000
  70
    32
  0
VERTEX
  8
0
  5
106A8
 10
-387.823
 20
838.710
 30
0.000000
  70
    32
  0
VERTEX
  8
0
  5
106A9
 10
-387.816
 20
838.707
 30
0.000000
  70
    32
  0
VERTEX
  8
0
  5
106AA
 10
-387.810
 20
838.705
 30
0.000000
  70
    32
  0
VERTEX
  8
0
  5
106AB
 10
-387.803
 20
838.703
 30
0.000000
  70
    32
  0
VERTEX
  8
0
  5
106AC
 10
-387.796
 20
838.701
 30
0.000000
  70
    32
  0
VERTEX
  8
0
  5
106AD
 10
-387.790
 20
838.699
 30
0.000000
  70
    32
  0
VERTEX
  8
0
  5
106AE
 10
-387.783
 20
838.697
 30
0.000000
  70
    32
  0
VERTEX
  8
0
  5
106AF
 10
-387.776
 20
838.695
 30
0.000000
  70
    32
  0
VERTEX
  8
0
  5
106B0
 10
-387.770
 20
838.693
 30
0.000000
  70
    32
  0
VERTEX
  8
0
  5
106B1
 10
-387.763
 20
838.691
 30
0.000000
  70
    32
  0
VERTEX
  8
0
  5
106B2
 10
-387.756
 20
838.689
 30
0.000000
  70
    32
  0
VERTEX
  8
0
  5
106B3
 10
-387.749
 20
838.688
 30
0.000000
  70
    32
  0
VERTEX
  8
0
  5
106B4
 10
-387.743
 20
838.686
 30
0.000000
  70
    32
  0
VERTEX
  8
0
  5
106B5
 10
-387.736
 20
838.684
 30
0.000000
  70
    32
  0
VERTEX
  8
0
  5
106B6
 10
-387.729
 20
838.682
 30
0.000000
  70
    32
  0
VERTEX
  8
0
  5
106B7
 10
-387.722
 20
838.680
 30
0.000000
  70
    32
  0
VERTEX
  8
0
  5
106B8
 10
-387.716
 20
838.678
 30
0.000000
  70
    32
  0
VERTEX
  8
0
  5
106B9
 10
-387.709
 20
838.677
 30
0.000000
  70
    32
  0
VERTEX
  8
0
  5
106BA
 10
-387.702
 20
838.675
 30
0.000000
  70
    32
  0
VERTEX
  8
0
  5
106BB
 10
-387.696
 20
838.673
 30
0.000000
  70
    32
  0
VERTEX
  8
0
  5
106BC
 10
-387.689
 20
838.671
 30
0.000000
  70
    32
  0
VERTEX
  8
0
  5
106BD
 10
-387.682
 20
838.669
 30
0.000000
  70
    32
  0
SEQEND
  8
0
  5
106BE
  0
VIEWPORT
  5
BADA
 67
     1
  8
0
 10
5.249999665167528
 20
4.016860864854312
 30
0.0
 40
16.259362384438411
 41
8.0158201110956853
 68
     2
 69
     1
1001
ACAD
1000
MVIEW
1002
{
1070
    16
1010
0.0
1020
0.0
1030
0.0
1010
0.0
1020
0.0
1030
1.0
1040
0.0
1040
8.0158201110956853
1040
5.249999665167528
1040
4.016860864854312
1040
50.0
1040
0.0
1040
0.0
1070
     0
1070
   100
1070
     1
1070
     1
1070
     0
1070
     0
1070
     0
1070
     0
1040
0.0
1040
0.0
1040
0.0
1040
0.5
1040
0.5
1040
0.5
1040
0.5
1070
     0
1002
{
1002
}
1002
}
  0
VIEWPORT
  5
BADD
 67
     1
  8
0
 10
5.249999629487192
 20
4.0166741807634683
 30
0.0
 40
10.44245679893058
 41
7.8813805131999892
 68
     1
 69
     2
1001
ACAD
1000
MVIEW
1002
{
1070
    16
1010
0.0
1020
0.0
1030
0.0
1010
0.0
1020
0.0
1030
1.0
1040
0.0
1040
7.8813805131999892
1040
-386.95948185412709
1040
838.98450758524882
1040
50.0
1040
0.0
1040
0.0
1070
     0
1070
   100
1070
     1
1070
     2
1070
     0
1070
     0
1070
     0
1070
     0
1040
0.0
1040
0.0
1040
0.0
1040
0.5
1040
0.5
1040
0.5
1040
0.5
1070
     0
1002
{
1002
}
1002
}
  0
ENDSEC
  0
EOF
